999
DXF file: C:\Users\sesa63760\Dev\_Creo\CAD\MCADPD0005306_3D-CAD\drw0001_1.dxf
999
Pro/ENGINEER 2019471 by Parametric Technology Corporation
  0
SECTION
  2
HEADER
  9
$ACADVER
  1
AC1024
  9
$DWGCODEPAGE
  3
ANSI_1252
  9
$EXTMAX
 10
106.4031119447
 20
150.4844011789
 30
0.0
  9
$EXTMIN
 10
0.0
 20
0.0
 30
0.0
  9
$LIMMIN
 10
0.0
 20
0.0
  9
$LIMMAX
 10
106.4031119447
 20
150.4844011789
  9
$VIEWCTR
 10
53.2015559723
 20
75.2422005894
  9
$VIEWSIZE
 40
150.4844011789
  9
$CLAYER
  8
0
  9
$LTSCALE
 40
9.8093535583
  9
$CELTYPE
  6
BYLAYER
  9
$DIMSCALE
 40
1.0
  9
$DIMASZ
 40
1.2667037136
  9
$DIMEXO
 40
1.0
  9
$DIMDLI
 40
6.7773715494
  9
$DIMEXE
 40
1.0
  9
$DIMCEN
 40
1.6051669459
  9
$DIMLFAC
 40
1.0
  9
$DIMBLK
  1
_FILLED
  9
$DIMALT
 70
0
  9
$DIMALTF
 40
0.0393700787
  9
$DIMTXT
 40
1.7733851991
  9
$DIMTOL
 70
1
  9
$DIMLIM
 70
0
  9
$DIMTFAC
 40
1.0
  9
$DIMTP
 40
0.01
  9
$DIMTM
 40
0.01
  9
$DIMGAP
 40
0.625
  9
$DIMDSEP
 70
46
  9
$AUNITS
 70
0
  9
$PDMODE
 70
3
  9
$PDSIZE
 40
0.3125
  9
$HANDSEED
  5
39E
  9
$TILEMODE
 70
1
  9
$MEASUREMENT
 70
1
  9
$INSUNITS
 70
4
  0
ENDSEC
  0
SECTION
  2
CLASSES
  0
CLASS
  1
ACDBDICTIONARYWDFLT
  2
AcDbDictionaryWithDefault
  3
AutoCAD 2000
 90
0
 91
1
280
0
281
0
  0
CLASS
  1
ACDBPLACEHOLDER
  2
AcDbPlaceHolder
  3
AutoCAD 2000
 90
0
 91
1
280
0
281
0
  0
CLASS
  1
LAYOUT
  2
AcDbLayout
  3
AutoCAD 2000
 90
0
 91
0
280
0
281
0
  0
ENDSEC
  0
SECTION
  2
TABLES
  0
TABLE
  2
VPORT
  5
8
100
AcDbSymbolTable
 70
2
  0
VPORT
  5
1F4
100
AcDbSymbolTableRecord
100
AcDbViewportTableRecord
  2
*ACTIVE
 70
0
 10
0.0
 20
0.0
 11
1.0
 21
1.0
 12
53.2015559723
 22
75.2422005894
 13
0.0
 23
0.0
 14
1.0
 24
1.0
 15
0.0
 25
0.0
 16
0.0
 26
0.0
 36
1.0
 17
0.0
 27
0.0
 37
0.0
 40
150.4844011789
 41
0.7070707071
 42
50.0
 43
0.0
 44
0.0
 50
0.0
 51
0.0
 71
0
 72
100
 73
1
 74
1
 75
0
 76
0
 77
0
 78
0
  0
ENDTAB
  0
TABLE
  2
LTYPE
  5
5
100
AcDbSymbolTable
 70
6
  0
LTYPE
  5
14
100
AcDbSymbolTableRecord
100
AcDbLinetypeTableRecord
  2
BYBLOCK
 70
0
  3

 72
65
 73
0
 40
0.0
  0
LTYPE
  5
15
100
AcDbSymbolTableRecord
100
AcDbLinetypeTableRecord
  2
BYLAYER
 70
0
  3

 72
65
 73
0
 40
0.0
  0
LTYPE
  5
16
100
AcDbSymbolTableRecord
100
AcDbLinetypeTableRecord
  2
CONTINUOUS
 70
64
  3
Solid line
 72
65
 73
0
 40
0.0
  0
LTYPE
  5
1F5
100
AcDbSymbolTableRecord
100
AcDbLinetypeTableRecord
  2
CENTER
 70
64
  3
____ _ ____ _ ____ _ ____ _ ____ _ ____ _ ____
 72
65
 73
4
 40
0.6
 49
0.375
 74
0
 49
-0.075
 74
0
 49
0.075
 74
0
 49
-0.075
 74
0
  0
LTYPE
  5
1F6
100
AcDbSymbolTableRecord
100
AcDbLinetypeTableRecord
  2
HIDDEN
 70
64
  3
- - - - - - - - - - - - - - - - - - - -
 72
65
 73
2
 40
0.2
 49
0.1
 74
0
 49
-0.1
 74
0
  0
LTYPE
  5
1F7
100
AcDbSymbolTableRecord
100
AcDbLinetypeTableRecord
  2
PHANTOM
 70
64
  3
_____ _ _ _____ _ _ _____ _ _ _____
 72
65
 73
6
 40
0.8
 49
0.45
 74
0
 49
-0.05
 74
0
 49
0.1
 74
0
 49
-0.05
 74
0
 49
0.1
 74
0
 49
-0.05
 74
0
  0
LTYPE
  5
1F8
100
AcDbSymbolTableRecord
100
AcDbLinetypeTableRecord
  2
DOT
 70
64
  3
. . . . . . . . . . . . . . . . . . . .
 72
65
 73
2
 40
0.2
 49
0.1
 74
0
 49
-0.1
 74
0
  0
LTYPE
  5
1F9
100
AcDbSymbolTableRecord
100
AcDbLinetypeTableRecord
  2
DASHED
 70
64
  3
- - - - - - - - - - - - - - - - - - - -
 72
65
 73
2
 40
0.2
 49
0.1
 74
0
 49
-0.1
 74
0
  0
ENDTAB
  0
TABLE
  2
LAYER
  5
2
100
AcDbSymbolTable
 70
36
  0
LAYER
  5
10
100
AcDbSymbolTableRecord
100
AcDbLayerTableRecord
  2
0
 70
0
 62
7
  6
CONTINUOUS
370
-3
390
F
  0
LAYER
  5
1FA
100
AcDbSymbolTableRecord
100
AcDbLayerTableRecord
  2
DEFAULT_1
 70
0
 62
7
  6
CENTER
370
-3
390
F
  0
LAYER
  5
1FB
100
AcDbSymbolTableRecord
100
AcDbLayerTableRecord
  2
DEFAULT_2
 70
0
 62
7
  6
HIDDEN
370
-3
390
F
  0
LAYER
  5
1FC
100
AcDbSymbolTableRecord
100
AcDbLayerTableRecord
  2
DEFAULT_3
 70
0
 62
7
  6
PHANTOM
370
-3
390
F
  0
LAYER
  5
1FD
100
AcDbSymbolTableRecord
100
AcDbLayerTableRecord
  2
00_COMPONENTS
 70
0
 62
7
  6
CONTINUOUS
370
-3
390
F
  0
LAYER
  5
1FE
100
AcDbSymbolTableRecord
100
AcDbLayerTableRecord
  2
01_1_DEFAULT_DATUMS
 70
0
 62
7
  6
CONTINUOUS
370
-3
390
F
  0
LAYER
  5
1FF
100
AcDbSymbolTableRecord
100
AcDbLayerTableRecord
  2
01_PLANES
 70
0
 62
7
  6
CONTINUOUS
370
-3
390
F
  0
LAYER
  5
200
100
AcDbSymbolTableRecord
100
AcDbLayerTableRecord
  2
02_COORD_SYS
 70
0
 62
7
  6
CONTINUOUS
370
-3
390
F
  0
LAYER
  5
201
100
AcDbSymbolTableRecord
100
AcDbLayerTableRecord
  2
03_AXES
 70
0
 62
7
  6
CONTINUOUS
370
-3
390
F
  0
LAYER
  5
202
100
AcDbSymbolTableRecord
100
AcDbLayerTableRecord
  2
04_POINTS
 70
0
 62
7
  6
CONTINUOUS
370
-3
390
F
  0
LAYER
  5
203
100
AcDbSymbolTableRecord
100
AcDbLayerTableRecord
  2
05_CURVES
 70
0
 62
7
  6
CONTINUOUS
370
-3
390
F
  0
LAYER
  5
204
100
AcDbSymbolTableRecord
100
AcDbLayerTableRecord
  2
06_SURFS
 70
0
 62
7
  6
CONTINUOUS
370
-3
390
F
  0
LAYER
  5
205
100
AcDbSymbolTableRecord
100
AcDbLayerTableRecord
  2
07_COSMETICS
 70
0
 62
7
  6
CONTINUOUS
370
-3
390
F
  0
LAYER
  5
206
100
AcDbSymbolTableRecord
100
AcDbLayerTableRecord
  2
10_NOTES
 70
0
 62
7
  6
CONTINUOUS
370
-3
390
F
  0
LAYER
  5
207
100
AcDbSymbolTableRecord
100
AcDbLayerTableRecord
  2
11_NOTES_PUB
 70
0
 62
7
  6
CONTINUOUS
370
-3
390
F
  0
LAYER
  5
208
100
AcDbSymbolTableRecord
100
AcDbLayerTableRecord
  2
13_REF_GTOL
 70
0
 62
7
  6
CONTINUOUS
370
-3
390
F
  0
LAYER
  5
209
100
AcDbSymbolTableRecord
100
AcDbLayerTableRecord
  2
16_MISC
 70
0
 62
7
  6
CONTINUOUS
370
-3
390
F
  0
LAYER
  5
20A
100
AcDbSymbolTableRecord
100
AcDbLayerTableRecord
  2
17_NO_PRINT
 70
0
 62
7
  6
CONTINUOUS
370
-3
390
F
  0
LAYER
  5
20B
100
AcDbSymbolTableRecord
100
AcDbLayerTableRecord
  2
18_DATUM_CAMS_JOINTS
 70
0
 62
7
  6
CONTINUOUS
370
-3
390
F
  0
LAYER
  5
20C
100
AcDbSymbolTableRecord
100
AcDbLayerTableRecord
  2
19_DATUM_FUNCTIONAL
 70
0
 62
7
  6
CONTINUOUS
370
-3
390
F
  0
LAYER
  5
20D
100
AcDbSymbolTableRecord
100
AcDbLayerTableRecord
  2
20_DATUM_KINEMATIC_SCHEME
 70
0
 62
7
  6
CONTINUOUS
370
-3
390
F
  0
ENDTAB
  0
TABLE
  2
STYLE
  5
3
100
AcDbSymbolTable
 70
1
  0
STYLE
  5
11
100
AcDbSymbolTableRecord
100
AcDbTextStyleTableRecord
  2
STANDARD
 70
0
 40
0.0
 41
1.0
 50
0.0
 71
0
 42
0.2
  3
ARIAL.TTF
  4

  0
STYLE
  5
20E
100
AcDbSymbolTableRecord
100
AcDbTextStyleTableRecord
  2
TEXTSTYLE_1
 70
0
 40
0.0
 41
0.8
 50
0.0
 71
0
 42
0.2
  3
gdt
  4

  0
ENDTAB
  0
TABLE
  2
VIEW
  5
6
100
AcDbSymbolTable
 70
0
  0
ENDTAB
  0
TABLE
  2
UCS
  5
7
100
AcDbSymbolTable
 70
0
  0
ENDTAB
  0
TABLE
  2
APPID
  5
9
100
AcDbSymbolTable
 70
1
  0
APPID
  5
20F
100
AcDbSymbolTableRecord
100
AcDbRegAppTableRecord
  2
ACAD
 70
0
  0
ENDTAB
  0
TABLE
  2
BLOCK_RECORD
  5
1
100
AcDbSymbolTable
 70
0
  0
BLOCK_RECORD
  5
210
100
AcDbSymbolTableRecord
100
AcDbBlockTableRecord
  2
*Model_Space
  0
BLOCK_RECORD
  5
211
100
AcDbSymbolTableRecord
100
AcDbBlockTableRecord
  2
*Paper_Space
  0
BLOCK_RECORD
  5
212
100
AcDbSymbolTableRecord
100
AcDbBlockTableRecord
  2
_FILLED
  0
ENDTAB
  0
TABLE
  2
DIMSTYLE
  5
A
100
AcDbSymbolTable
 70
1
100
AcDbDimStyleTable
 71
0
  0
DIMSTYLE
105
213
100
AcDbSymbolTableRecord
100
AcDbDimStyleTableRecord
  2
STANDARD
 70
0
  3

  4

 40
1.0
 41
1.2667037136
 42
1.0
 43
0.38
 44
1.0
 45
0.0
 46
0.0
 47
0.01
 48
0.01
140
1.7733851991
141
0.09
142
0.0
143
25.4
144
1.0
145
0.0
146
1.0
147
0.625
 71
1
 72
0
 73
0
 74
0
 75
0
 76
0
 77
1
 78
8
 79
2
170
0
171
1
172
0
173
0
174
0
175
0
176
0
177
0
178
0
270
2
179
2
271
2
272
2
273
2
274
2
275
0
280
0
281
0
282
0
283
1
284
8
285
0
286
0
287
3
288
0
340
11
278
46
341
212
342
212
343
212
344
212
  0
ENDTAB
  0
ENDSEC
  0
SECTION
  2
BLOCKS
  0
BLOCK
  5
20
100
AcDbEntity
  8
0
100
AcDbBlockBegin
  2
*Model_Space
 70
0
 10
0.0
 20
0.0
 30
0.0
  3
*Model_Space
  1

  0
ENDBLK
  5
21
100
AcDbEntity
  8
0
100
AcDbBlockEnd
  0
BLOCK
  5
1C
100
AcDbEntity
  8
0
100
AcDbBlockBegin
  2
*Paper_Space
 70
0
 10
0.0
 20
0.0
 30
0.0
  3
*Paper_Space
  1

  0
ENDBLK
  5
1D
100
AcDbEntity
  8
0
100
AcDbBlockEnd
  0
BLOCK
  5
214
100
AcDbEntity
  8
0
100
AcDbBlockBegin
  2
_FILLED
 70
64
 10
0.0
 20
0.0
  3
_FILLED
  1

  0
SOLID
  5
215
100
AcDbEntity
  8
0
  6
BYBLOCK
 62
0
100
AcDbTrace
 10
0.0
 20
0.0
 11
-1.0
 21
0.25
 12
-1.0
 22
-0.25
 13
-1.0
 23
-0.25
  0
ENDBLK
  5
216
100
AcDbEntity
  8
0
  6
BYBLOCK
 62
0
100
AcDbBlockEnd
  0
ENDSEC
  0
SECTION
  2
ENTITIES
  0
LINE
  5
217
100
AcDbEntity
  8
0
100
AcDbLine
 62
7
  6
BYLAYER
 10
36.5625006287
 20
16.1843622851
 11
28.784293652
 21
20.6750105848
  0
LINE
  5
218
100
AcDbEntity
  8
0
100
AcDbLine
 62
7
  6
BYLAYER
 10
36.5625006287
 20
19.042120745
 11
28.784293652
 21
23.5327690448
  0
LINE
  5
219
100
AcDbEntity
  8
0
100
AcDbLine
 62
7
  6
BYLAYER
 10
44.8807746016
 20
131.4592775437
 11
42.37951359
 21
130.0151824455
  0
LINE
  5
21A
100
AcDbEntity
  8
0
100
AcDbLine
 62
7
  6
BYLAYER
 10
46.6261326561
 20
131.8137638251
 11
45.4011402084
 21
131.1065183273
  0
LINE
  5
21B
100
AcDbEntity
  8
0
100
AcDbLine
 62
7
  6
BYLAYER
 10
42.9969871619
 20
129.7184882042
 11
41.7719947142
 21
129.0112427064
  0
LINE
  5
21C
100
AcDbEntity
  8
0
100
AcDbLine
 62
7
  6
BYLAYER
 10
42.0548386043
 20
128.8479464046
 11
43.1384102845
 21
129.4735430716
  0
LINE
  5
21D
100
AcDbEntity
  8
0
100
AcDbLine
 62
7
  6
BYLAYER
 10
45.8254048659
 20
131.0248708563
 11
46.9089765462
 21
131.6504675233
  0
LINE
  5
21E
100
AcDbEntity
  8
0
100
AcDbLine
 62
7
  6
BYLAYER
 10
40.3569250175
 20
126.5612518786
 11
40.7246927093
 21
126.773581387
  0
LINE
  5
21F
100
AcDbEntity
  8
0
100
AcDbLine
 62
7
  6
BYLAYER
 10
32.5319439893
 20
25.6964630603
 11
34.6532643328
 21
25.6964681593
  0
LINE
  5
220
100
AcDbEntity
  8
0
100
AcDbLine
 62
7
  6
BYLAYER
 10
12.5510975032
 20
38.8128020447
 11
44.3710351348
 21
20.4419680912
  0
LINE
  5
221
100
AcDbEntity
  8
0
100
AcDbLine
 62
7
  6
BYLAYER
 10
12.3439851825
 20
39.2705881925
 11
44.1639228141
 21
20.8997542391
  0
LINE
  5
222
100
AcDbEntity
  8
0
100
AcDbLine
 62
7
  6
BYLAYER
 10
54.0633765351
 20
18.5317984637
 11
47.76999123
 21
22.165203965
  0
LINE
  5
223
100
AcDbEntity
  8
0
100
AcDbLine
 62
7
  6
BYLAYER
 10
40.5576632158
 20
29.3994910857
 11
37.1635365351
 21
31.3590467074
  0
LINE
  5
224
100
AcDbEntity
  8
0
100
AcDbLine
 62
7
  6
BYLAYER
 10
29.9510173386
 20
35.5231024035
 11
26.5568906579
 21
37.4826580252
  0
LINE
  5
225
100
AcDbEntity
  8
0
100
AcDbLine
 62
7
  6
BYLAYER
 10
19.3443714614
 20
41.6467137214
 11
15.9502447807
 21
43.6062693431
  0
LINE
  5
226
100
AcDbEntity
  8
0
100
AcDbLine
 62
7
  6
BYLAYER
 10
12.3439851825
 20
39.2705881925
 11
12.3439851825
 21
63.3574094978
  0
LINE
  5
227
100
AcDbEntity
  8
0
100
AcDbLine
 62
7
  6
BYLAYER
 10
12.6281847243
 20
87.7503160375
 11
12.6281847243
 21
86.6888628952
  0
LINE
  5
228
100
AcDbEntity
  8
0
100
AcDbLine
 62
7
  6
BYLAYER
 10
12.844122681
 20
91.2612658931
 11
12.844122681
 21
87.7503054995
  0
LINE
  5
229
100
AcDbEntity
  8
0
100
AcDbLine
 62
7
  6
BYLAYER
 10
13.7228111693
 20
86.5255730379
 11
13.7228111711
 21
90.0365334305
  0
LINE
  5
22A
100
AcDbEntity
  8
0
100
AcDbLine
 62
7
  6
BYLAYER
 10
14.8541955615
 20
84.647660468
 11
14.8541955615
 21
83.5862073258
  0
LINE
  5
22B
100
AcDbEntity
  8
0
100
AcDbLine
 62
7
  6
BYLAYER
 10
15.9502447807
 20
43.6062693431
 11
15.9502447807
 21
48.7420695468
  0
LINE
  5
22C
100
AcDbEntity
  8
0
100
AcDbLine
 62
7
  6
BYLAYER
 10
15.9502447807
 20
48.7420695468
 11
19.3443714614
 21
46.7825139251
  0
LINE
  5
22D
100
AcDbEntity
  8
0
100
AcDbLine
 62
7
  6
BYLAYER
 10
26.5568906579
 20
42.618458229
 11
29.9510173386
 21
40.6589026073
  0
LINE
  5
22E
100
AcDbEntity
  8
0
100
AcDbLine
 62
7
  6
BYLAYER
 10
37.1635365351
 20
36.4948469112
 11
40.5576632158
 21
34.5352912895
  0
LINE
  5
22F
100
AcDbEntity
  8
0
100
AcDbLine
 62
7
  6
BYLAYER
 10
17.1867633681
 20
82.2395291407
 11
17.1867633681
 21
82.0347987776
  0
LINE
  5
230
100
AcDbEntity
  8
0
100
AcDbLine
 62
7
  6
BYLAYER
 10
18.0361622401
 20
81.7491395673
 11
18.0361622401
 21
80.8508907314
  0
LINE
  5
231
100
AcDbEntity
  8
0
100
AcDbLine
 62
7
  6
BYLAYER
 10
18.3367633681
 20
80.6773425155
 11
18.3367633681
 21
75.7477301657
  0
LINE
  5
232
100
AcDbEntity
  8
0
100
AcDbLine
 62
7
  6
BYLAYER
 10
19.3443714614
 20
46.7825139251
 11
19.3443714614
 21
41.6467137214
  0
LINE
  5
233
100
AcDbEntity
  8
0
100
AcDbLine
 62
7
  6
BYLAYER
 10
32.2762725604
 20
103.5359908501
 11
13.9299054691
 21
92.9437740983
  0
LINE
  5
234
100
AcDbEntity
  8
0
100
AcDbLine
 62
7
  6
BYLAYER
 10
32.1842682045
 20
103.1446760294
 11
14.4299032307
 21
92.8942498193
  0
LINE
  5
235
100
AcDbEntity
  8
0
100
AcDbLine
 62
7
  6
BYLAYER
 10
65.9073658084
 20
28.227646501
 11
64.6699024057
 21
28.942080167
  0
LINE
  5
236
100
AcDbEntity
  8
0
100
AcDbLine
 62
7
  6
BYLAYER
 10
21.8367633681
 20
78.6566622872
 11
21.8367633681
 21
75.7477301657
  0
LINE
  5
237
100
AcDbEntity
  8
0
100
AcDbLine
 62
7
  6
BYLAYER
 10
21.8398492091
 20
63.5618541302
 11
21.8398492091
 21
62.7208781758
  0
LINE
  5
238
100
AcDbEntity
  8
0
100
AcDbLine
 62
7
  6
BYLAYER
 10
22.2434389035
 20
78.421873369
 11
22.2434389035
 21
69.8893300691
  0
LINE
  5
239
100
AcDbEntity
  8
0
100
AcDbLine
 62
7
  6
BYLAYER
 10
23.1273580608
 20
62.3068901544
 11
23.1273580608
 21
62.8185273643
  0
LINE
  5
23A
100
AcDbEntity
  8
0
100
AcDbLine
 62
7
  6
BYLAYER
 10
23.5114508097
 20
27.6967777376
 11
23.5114508097
 21
30.5545361975
  0
LINE
  5
23B
100
AcDbEntity
  8
0
100
AcDbLine
 62
7
  6
BYLAYER
 10
23.5516221295
 20
62.8185283841
 11
23.5516221295
 21
62.3068873177
  0
LINE
  5
23C
100
AcDbEntity
  8
0
100
AcDbLine
 62
7
  6
BYLAYER
 10
25.2443839843
 20
62.9548561059
 11
25.2443839843
 21
63.7958390629
  0
LINE
  5
23D
100
AcDbEntity
  8
0
100
AcDbLine
 62
7
  6
BYLAYER
 10
44.1639228141
 20
44.9865755444
 11
12.3439851825
 21
63.3574094978
  0
LINE
  5
23E
100
AcDbEntity
  8
0
100
AcDbLine
 62
7
  6
BYLAYER
 10
13.0510890197
 20
64.5821560688
 11
44.8710266513
 21
46.2113221154
  0
LINE
  5
23F
100
AcDbEntity
  8
0
100
AcDbLine
 62
7
  6
BYLAYER
 10
26.5568906579
 20
37.4826580252
 11
26.5568906579
 21
42.618458229
  0
LINE
  5
240
100
AcDbEntity
  8
0
100
AcDbLine
 62
7
  6
BYLAYER
 10
28.784293652
 20
23.5327690448
 11
28.784293652
 21
20.6750105848
  0
LINE
  5
241
100
AcDbEntity
  8
0
100
AcDbLine
 62
7
  6
BYLAYER
 10
29.9510173386
 20
40.6589026073
 11
29.9510173386
 21
35.5231024035
  0
LINE
  5
242
100
AcDbEntity
  8
0
100
AcDbLine
 62
7
  6
BYLAYER
 10
30.3398897103
 20
28.5426704167
 11
30.3398897103
 21
26.0638147195
  0
LWPOLYLINE
  5
243
100
AcDbEntity
  8
0
100
AcDbPolyline
 62
7
  6
BYLAYER
 90
6
 70
0
 10
35.1289180059
 20
116.4609301633
 10
34.6818327895
 20
112.8019892271
 10
33.5550581607
 20
108.4005823529
 10
32.8717638416
 20
106.0687466259
 10
31.7105210587
 20
101.1297249165
 10
31.5279039047
 20
98.7886096309
  0
LINE
  5
244
100
AcDbEntity
  8
0
100
AcDbLine
 62
7
  6
BYLAYER
 10
43.6123328629
 20
50.1508132502
 11
42.3248240111
 21
50.8941400161
  0
LINE
  5
245
100
AcDbEntity
  8
0
100
AcDbLine
 62
7
  6
BYLAYER
 10
33.0056869857
 20
56.274424568
 11
31.7181781339
 21
57.0177513339
  0
LINE
  5
246
100
AcDbEntity
  8
0
100
AcDbLine
 62
7
  6
BYLAYER
 10
22.3990411085
 20
62.3980358858
 11
21.1115322567
 21
63.1413626517
  0
LINE
  5
247
100
AcDbEntity
  8
0
100
AcDbLine
 62
7
  6
BYLAYER
 10
21.8398492091
 20
63.5618541302
 11
23.1273580608
 21
62.8185273643
  0
LINE
  5
248
100
AcDbEntity
  8
0
100
AcDbLine
 62
7
  6
BYLAYER
 10
32.4464950863
 20
57.4382428124
 11
33.734003938
 21
56.6949160465
  0
LINE
  5
249
100
AcDbEntity
  8
0
100
AcDbLine
 62
7
  6
BYLAYER
 10
43.0531409635
 20
51.3146314946
 11
44.3406498152
 21
50.5713047287
  0
LINE
  5
24A
100
AcDbEntity
  8
0
100
AcDbLine
 62
7
  6
BYLAYER
 10
20.6877870744
 20
62.8675955212
 11
20.6878546211
 21
62.8675561177
  0
LINE
  5
24B
100
AcDbEntity
  8
0
100
AcDbLine
 62
7
  6
BYLAYER
 10
31.2944329516
 20
56.7439842034
 11
31.2945004983
 21
56.7439447999
  0
LINE
  5
24C
100
AcDbEntity
  8
0
100
AcDbLine
 62
7
  6
BYLAYER
 10
41.9010788288
 20
50.6203728856
 11
41.9011463755
 21
50.6203334821
  0
LINE
  5
24D
100
AcDbEntity
  8
0
100
AcDbLine
 62
7
  6
BYLAYER
 10
31.5278888647
 20
92.0778600928
 11
31.5278888647
 21
98.7900192921
  0
LINE
  5
24E
100
AcDbEntity
  8
0
100
AcDbLine
 62
7
  6
BYLAYER
 10
32.1430044952
 20
27.1048373118
 11
32.1430044952
 21
27.501665161
  0
LINE
  5
24F
100
AcDbEntity
  8
0
100
AcDbLine
 62
7
  6
BYLAYER
 10
32.4464950863
 20
57.4382428124
 11
32.4464950863
 21
56.597266858
  0
LINE
  5
250
100
AcDbEntity
  8
0
100
AcDbLine
 62
7
  6
BYLAYER
 10
33.734003938
 20
56.1832788366
 11
33.734003938
 21
56.6949160465
  0
LINE
  5
251
100
AcDbEntity
  8
0
100
AcDbLine
 62
7
  6
BYLAYER
 10
34.1582680067
 20
56.6949170663
 11
34.1582680067
 21
56.1832759999
  0
LINE
  5
252
100
AcDbEntity
  8
0
100
AcDbLine
 62
7
  6
BYLAYER
 10
35.1289967425
 20
116.4611084323
 11
35.4655209015
 21
130.0390676686
  0
LINE
  5
253
100
AcDbEntity
  8
0
100
AcDbLine
 62
7
  6
BYLAYER
 10
35.8614990059
 20
115.4515112196
 11
36.1981482312
 21
129.0212496772
  0
LINE
  5
254
100
AcDbEntity
  8
0
100
AcDbLine
 62
7
  6
BYLAYER
 10
81.3575846515
 20
34.2900228031
 11
77.4684139574
 21
36.5353857534
  0
LINE
  5
255
100
AcDbEntity
  8
0
100
AcDbLine
 62
7
  6
BYLAYER
 10
54.0633765351
 20
51.5184961157
 11
22.2434389035
 21
69.8893300691
  0
LINE
  5
256
100
AcDbEntity
  8
0
100
AcDbLine
 62
7
  6
BYLAYER
 10
81.3575846515
 20
37.175521603
 11
79.9673649453
 21
37.9781471668
  0
LINE
  5
257
100
AcDbEntity
  8
0
100
AcDbLine
 62
7
  6
BYLAYER
 10
35.8510298615
 20
56.8312447881
 11
35.8510298615
 21
57.6722277451
  0
LINE
  5
258
100
AcDbEntity
  8
0
100
AcDbLine
 62
7
  6
BYLAYER
 10
36.5625006287
 20
19.042120745
 11
36.5625006287
 21
16.1843622851
  0
LINE
  5
259
100
AcDbEntity
  8
0
100
AcDbLine
 62
7
  6
BYLAYER
 10
37.1635365351
 20
31.3590467074
 11
37.1635365351
 21
36.4948469112
  0
LINE
  5
25A
100
AcDbEntity
  8
0
100
AcDbLine
 62
7
  6
BYLAYER
 10
40.3569250175
 20
126.5612518786
 11
40.3586485369
 21
126.6192379939
  0
LINE
  5
25B
100
AcDbEntity
  8
0
100
AcDbLine
 62
7
  6
BYLAYER
 10
40.6397689076
 20
126.3979555768
 11
40.6414924269
 21
126.4559416921
  0
LINE
  5
25C
100
AcDbEntity
  8
0
100
AcDbLine
 62
7
  6
BYLAYER
 10
82.4182404073
 20
38.4949996693
 11
81.6404062685
 21
38.9440722593
  0
LINE
  5
25D
100
AcDbEntity
  8
0
100
AcDbLine
 62
7
  6
BYLAYER
 10
40.310142134
 20
22.4305421231
 11
40.3101509659
 21
18.3480563006
  0
LINE
  5
25E
100
AcDbEntity
  8
0
100
AcDbLine
 62
7
  6
BYLAYER
 10
40.5576632158
 20
34.5352912895
 11
40.5576632158
 21
29.3994910857
  0
LINE
  5
25F
100
AcDbEntity
  8
0
100
AcDbLine
 62
7
  6
BYLAYER
 10
41.0692005176
 20
132.5795268835
 11
41.0692005176
 21
132.1712756749
  0
LINE
  5
260
100
AcDbEntity
  8
0
100
AcDbLine
 62
7
  6
BYLAYER
 10
42.9969871619
 20
129.3918928811
 11
42.9969871619
 21
129.7184882042
  0
LINE
  5
261
100
AcDbEntity
  8
0
100
AcDbLine
 62
7
  6
BYLAYER
 10
43.0531409635
 20
51.3146314946
 11
43.0531409635
 21
50.4736555402
  0
LINE
  5
262
100
AcDbEntity
  8
0
100
AcDbLine
 62
7
  6
BYLAYER
 10
44.1639228141
 20
44.9865755444
 11
44.1639228141
 21
20.8997542391
  0
LINE
  5
263
100
AcDbEntity
  8
0
100
AcDbLine
 62
7
  6
BYLAYER
 10
44.3406498152
 20
50.0596675188
 11
44.3406498152
 21
50.5713047287
  0
LINE
  5
264
100
AcDbEntity
  8
0
100
AcDbLine
 62
7
  6
BYLAYER
 10
44.6742221186
 20
131.5310596035
 11
44.6742221186
 21
131.9393108121
  0
LINE
  5
265
100
AcDbEntity
  8
0
100
AcDbLine
 62
7
  6
BYLAYER
 10
44.7649138839
 20
50.5713057485
 11
44.7649138839
 21
50.0596646821
  0
LINE
  5
266
100
AcDbEntity
  8
0
100
AcDbLine
 62
7
  6
BYLAYER
 10
13.0510890197
 20
64.5821560688
 11
22.2434389035
 21
69.8893300691
  0
LINE
  5
267
100
AcDbEntity
  8
0
100
AcDbLine
 62
7
  6
BYLAYER
 10
51.9774290472
 20
61.2553345144
 11
18.0361622401
 21
80.8508907314
  0
LINE
  5
268
100
AcDbEntity
  8
0
100
AcDbLine
 62
7
  6
BYLAYER
 10
48.6540404235
 20
64.0722992597
 11
14.8541955615
 21
83.5862073258
  0
LINE
  5
269
100
AcDbEntity
  8
0
100
AcDbLine
 62
7
  6
BYLAYER
 10
48.6540404235
 20
65.133752402
 11
14.8541955615
 21
84.647660468
  0
LINE
  5
26A
100
AcDbEntity
  8
0
100
AcDbLine
 62
7
  6
BYLAYER
 10
51.9067363273
 20
64.4805722938
 11
13.7228111693
 21
86.5255730379
  0
LINE
  5
26B
100
AcDbEntity
  8
0
100
AcDbLine
 62
7
  6
BYLAYER
 10
45.8254048659
 20
130.8615745545
 11
45.8254048659
 21
131.0248708563
  0
LINE
  5
26C
100
AcDbEntity
  8
0
100
AcDbLine
 62
7
  6
BYLAYER
 10
46.4576757387
 20
50.7076334703
 11
46.4576757387
 21
51.5486164273
  0
LINE
  5
26D
100
AcDbEntity
  8
0
100
AcDbLine
 62
7
  6
BYLAYER
 10
48.6540404235
 20
64.0722992597
 11
48.6540404235
 21
65.133752402
  0
LINE
  5
26E
100
AcDbEntity
  8
0
100
AcDbLine
 62
7
  6
BYLAYER
 10
25.2443839843
 20
63.7958390629
 11
23.5516221295
 21
62.8185283841
  0
LINE
  5
26F
100
AcDbEntity
  8
0
100
AcDbLine
 62
7
  6
BYLAYER
 10
51.9067363248
 20
67.9915326888
 11
13.7228111711
 21
90.0365334305
  0
LINE
  5
270
100
AcDbEntity
  8
0
100
AcDbLine
 62
7
  6
BYLAYER
 10
14.4299150065
 20
91.2612800025
 11
52.6138401645
 21
69.2162792584
  0
LINE
  5
271
100
AcDbEntity
  8
0
100
AcDbLine
 62
7
  6
BYLAYER
 10
51.9067363273
 20
64.4805722938
 11
51.9067363248
 21
67.9915326888
  0
LINE
  5
272
100
AcDbEntity
  8
0
100
AcDbLine
 62
7
  6
BYLAYER
 10
51.9774290472
 20
61.2553345144
 11
51.9774290472
 21
63.0223871508
  0
LINE
  5
273
100
AcDbEntity
  8
0
100
AcDbLine
 62
7
  6
BYLAYER
 10
52.2780301751
 20
61.1552047339
 11
52.2780301751
 21
56.1521739488
  0
LINE
  5
274
100
AcDbEntity
  8
0
100
AcDbLine
 62
7
  6
BYLAYER
 10
54.0633765351
 20
55.1744573901
 11
54.0633765351
 21
51.5184961157
  0
LINE
  5
275
100
AcDbEntity
  8
0
100
AcDbLine
 62
7
  6
BYLAYER
 10
54.0633765351
 20
25.7986699761
 11
54.0633765351
 21
18.5317984637
  0
LINE
  5
276
100
AcDbEntity
  8
0
100
AcDbLine
 62
7
  6
BYLAYER
 10
24.2799451464
 20
62.398040407
 11
25.9727070012
 21
63.3753510857
  0
LINE
  5
277
100
AcDbEntity
  8
0
100
AcDbLine
 62
7
  6
BYLAYER
 10
55.7780301751
 20
61.1552106228
 11
55.7780301751
 21
56.1521739488
  0
LINE
  5
278
100
AcDbEntity
  8
0
100
AcDbLine
 62
7
  6
BYLAYER
 10
56.078648378
 20
63.0223955659
 11
56.078648378
 21
61.2553443725
  0
LINE
  5
279
100
AcDbEntity
  8
0
100
AcDbLine
 62
7
  6
BYLAYER
 10
56.1493770143
 20
64.4805824918
 11
56.1493770161
 21
67.9915428865
  0
LINE
  5
27A
100
AcDbEntity
  8
0
100
AcDbLine
 62
7
  6
BYLAYER
 10
57.4574749537
 20
24.7780080922
 11
57.4574749537
 21
20.4913704023
  0
LINE
  5
27B
100
AcDbEntity
  8
0
100
AcDbLine
 62
7
  6
BYLAYER
 10
59.4020634974
 20
65.133778237
 11
59.4020634974
 21
64.0723250948
  0
LINE
  5
27C
100
AcDbEntity
  8
0
100
AcDbLine
 62
7
  6
BYLAYER
 10
40.4222676688
 20
132.3036141077
 11
40.4440463688
 21
132.2192136084
  0
LINE
  5
27D
100
AcDbEntity
  8
0
100
AcDbLine
 62
7
  6
BYLAYER
 10
64.1767992029
 20
112.868133422
 11
63.7090326769
 21
99.3740938781
  0
LINE
  5
27E
100
AcDbEntity
  8
0
100
AcDbLine
 62
7
  6
BYLAYER
 10
55.4422672892
 20
69.2162860571
 11
93.6258744987
 21
91.2614703662
  0
LINE
  5
27F
100
AcDbEntity
  8
0
100
AcDbLine
 62
7
  6
BYLAYER
 10
35.8510298615
 20
57.6722277451
 11
34.1582680067
 21
56.6949170663
  0
LINE
  5
280
100
AcDbEntity
  8
0
100
AcDbLine
 62
7
  6
BYLAYER
 10
34.8865910236
 20
56.2744290892
 11
36.5793528784
 21
57.2517397679
  0
LINE
  5
281
100
AcDbEntity
  8
0
100
AcDbLine
 62
7
  6
BYLAYER
 10
94.3329842215
 20
90.0367271931
 11
56.1493770161
 21
67.9915428865
  0
LINE
  5
282
100
AcDbEntity
  8
0
100
AcDbLine
 62
7
  6
BYLAYER
 10
19.3443714614
 20
45.5658575987
 11
15.9502447807
 21
43.6062693431
  0
LINE
  5
283
100
AcDbEntity
  8
0
100
AcDbLine
 62
7
  6
BYLAYER
 10
47.4802897612
 20
89.495658712
 11
35.1300877938
 21
96.625889835
  0
LINE
  5
284
100
AcDbEntity
  8
0
100
AcDbLine
 62
7
  6
BYLAYER
 10
64.6345447514
 20
117.103099494
 11
64.6345447514
 21
117.2263211159
  0
LINE
  5
285
100
AcDbEntity
  8
0
100
AcDbLine
 62
7
  6
BYLAYER
 10
65.9073658084
 20
28.227646501
 11
65.9073658084
 21
29.6565257309
  0
LINE
  5
286
100
AcDbEntity
  8
0
100
AcDbLine
 62
7
  6
BYLAYER
 10
67.1801185654
 20
118.4539991651
 11
67.1801185654
 21
118.6960000698
  0
LINE
  5
287
100
AcDbEntity
  8
0
100
AcDbLine
 62
7
  6
BYLAYER
 10
67.5366212747
 20
117.5489003668
 11
67.5366212747
 21
117.9203361774
  0
LINE
  5
288
100
AcDbEntity
  8
0
100
AcDbLine
 62
7
  6
BYLAYER
 10
94.3329842239
 20
86.5257668009
 11
56.1493770143
 21
64.4805824918
  0
LINE
  5
289
100
AcDbEntity
  8
0
100
AcDbLine
 62
7
  6
BYLAYER
 10
93.2016269163
 20
84.6478487921
 11
59.4020634974
 21
65.133778237
  0
LINE
  5
28A
100
AcDbEntity
  8
0
100
AcDbLine
 62
7
  6
BYLAYER
 10
93.2016269163
 20
83.5863956498
 11
59.4020634974
 21
64.0723250948
  0
LINE
  5
28B
100
AcDbEntity
  8
0
100
AcDbLine
 62
7
  6
BYLAYER
 10
90.0196325643
 20
80.8510637584
 11
56.078648378
 21
61.2553443725
  0
LINE
  5
28C
100
AcDbEntity
  8
0
100
AcDbLine
 62
7
  6
BYLAYER
 10
40.4440463688
 20
132.2192136084
 11
41.5478069581
 21
130.1349024387
  0
LINE
  5
28D
100
AcDbEntity
  8
0
100
AcDbLine
 62
7
  6
BYLAYER
 10
72.9267026171
 20
103.2454293236
 11
72.5902009649
 21
116.2816807386
  0
LINE
  5
28E
100
AcDbEntity
  8
0
100
AcDbLine
 62
7
  6
BYLAYER
 10
73.9683495526
 20
34.5146346894
 11
73.9683495526
 21
32.8816298551
  0
LINE
  5
28F
100
AcDbEntity
  8
0
100
AcDbLine
 62
7
  6
BYLAYER
 10
86.6211736924
 20
74.7368843672
 11
85.812338826
 21
74.2699061268
  0
LINE
  5
290
100
AcDbEntity
  8
0
100
AcDbLine
 62
7
  6
BYLAYER
 10
46.4576757387
 20
51.5486164273
 11
44.7649138839
 21
50.5713057485
  0
LINE
  5
291
100
AcDbEntity
  8
0
100
AcDbLine
 62
7
  6
BYLAYER
 10
45.4932369008
 20
50.1508177714
 11
47.1859987556
 21
51.1281284501
  0
LINE
  5
292
100
AcDbEntity
  8
0
100
AcDbLine
 62
7
  6
BYLAYER
 10
85.812338826
 20
73.4289231698
 11
87.3494967093
 21
74.31639639
  0
LINE
  5
293
100
AcDbEntity
  8
0
100
AcDbLine
 62
7
  6
BYLAYER
 10
29.9510173386
 20
39.4422462809
 11
26.5568906579
 21
37.4826580252
  0
LWPOLYLINE
  5
294
100
AcDbEntity
  8
0
100
AcDbPolyline
 62
7
  6
BYLAYER
 90
3
 70
0
 10
76.5278708378
 20
98.7881763246
 10
76.4589176469
 20
99.7294419593
 10
75.0687353322
 20
103.4326068634
  0
LINE
  5
295
100
AcDbEntity
  8
0
100
AcDbLine
 62
7
  6
BYLAYER
 10
76.5278888647
 20
92.0778600928
 11
76.5278888647
 21
98.790022093
  0
LINE
  5
296
100
AcDbEntity
  8
0
100
AcDbLine
 62
7
  6
BYLAYER
 10
95.0046887097
 20
75.1558326249
 11
85.812338826
 21
69.8486586245
  0
LINE
  5
297
100
AcDbEntity
  8
0
100
AcDbLine
 62
7
  6
BYLAYER
 10
44.8710266513
 20
46.2113221154
 11
54.0633765351
 21
51.5184961157
  0
LINE
  5
298
100
AcDbEntity
  8
0
100
AcDbLine
 62
7
  6
BYLAYER
 10
95.0046887097
 20
75.1558326249
 11
89.7190143614
 21
78.207449096
  0
LINE
  5
299
100
AcDbEntity
  8
0
100
AcDbLine
 62
7
  6
BYLAYER
 10
89.7190143614
 20
78.5456406867
 11
95.5046802262
 21
75.2053605094
  0
LINE
  5
29A
100
AcDbEntity
  8
0
100
AcDbLine
 62
7
  6
BYLAYER
 10
81.3575846515
 20
37.175521603
 11
81.3575846515
 21
34.2900228031
  0
LINE
  5
29B
100
AcDbEntity
  8
0
100
AcDbLine
 62
7
  6
BYLAYER
 10
82.4182404073
 20
38.4949996693
 11
82.4182404073
 21
39.3931523281
  0
LINE
  5
29C
100
AcDbEntity
  8
0
100
AcDbLine
 62
7
  6
BYLAYER
 10
35.8614990059
 20
115.4515112196
 11
63.7090326769
 21
99.3740938781
  0
LINE
  5
29D
100
AcDbEntity
  8
0
100
AcDbLine
 62
7
  6
BYLAYER
 10
85.812338826
 20
78.4219960856
 11
85.812338826
 21
69.8486586245
  0
LINE
  5
29E
100
AcDbEntity
  8
0
100
AcDbLine
 62
7
  6
BYLAYER
 10
85.812338826
 20
44.128832485
 11
85.812338826
 21
36.8619609725
  0
LINE
  5
29F
100
AcDbEntity
  8
0
100
AcDbLine
 62
7
  6
BYLAYER
 10
86.2190143614
 20
78.6567889139
 11
86.2190143614
 21
75.7478933346
  0
LINE
  5
2A0
100
AcDbEntity
  8
0
100
AcDbLine
 62
7
  6
BYLAYER
 10
86.6211736924
 20
73.8959014102
 11
86.6211736924
 21
74.7368843672
  0
LINE
  5
2A1
100
AcDbEntity
  8
0
100
AcDbLine
 62
7
  6
BYLAYER
 10
40.5576632158
 20
33.318634963
 11
37.1635365351
 21
31.3590467074
  0
LINE
  5
2A2
100
AcDbEntity
  8
0
100
AcDbLine
 62
7
  6
BYLAYER
 10
32.1430044952
 20
27.1048373118
 11
30.3398897103
 21
26.0638147195
  0
LINE
  5
2A3
100
AcDbEntity
  8
0
100
AcDbLine
 62
7
  6
BYLAYER
 10
28.784293652
 20
23.5327690448
 11
32.5319439893
 21
25.6964630603
  0
LINE
  5
2A4
100
AcDbEntity
  8
0
100
AcDbLine
 62
7
  6
BYLAYER
 10
34.6532643328
 20
25.6964681593
 11
34.9615136772
 21
25.8744349389
  0
LINE
  5
2A5
100
AcDbEntity
  8
0
100
AcDbLine
 62
7
  6
BYLAYER
 10
72.9020593502
 20
104.2001224762
 11
72.9256899356
 21
104.1864796599
  0
LINE
  5
2A6
100
AcDbEntity
  8
0
100
AcDbLine
 62
7
  6
BYLAYER
 10
72.9017326245
 20
104.212780002
 11
72.9256899356
 21
104.1864796599
  0
LINE
  5
2A7
100
AcDbEntity
  8
0
100
AcDbLine
 62
7
  6
BYLAYER
 10
75.0692957103
 20
103.4316738815
 11
72.8581514791
 21
105.9011365519
  0
LWPOLYLINE
  5
2A8
100
AcDbEntity
  8
0
100
AcDbPolyline
 62
7
  6
BYLAYER
 90
4
 70
0
 10
73.8636870854
 20
99.5806595902
 10
73.8006299458
 20
99.657357464
 10
73.2707370724
 20
100.8213759558
 10
72.92679543
 20
103.2450588806
  0
LINE
  5
2A9
100
AcDbEntity
  8
0
100
AcDbLine
 62
7
  6
BYLAYER
 10
72.9089622972
 20
104.214238171
 11
72.9256899356
 21
104.1864796599
  0
LINE
  5
2AA
100
AcDbEntity
  8
0
100
AcDbLine
 62
7
  6
BYLAYER
 10
75.0687112718
 20
103.4326468872
 11
75.0692957103
 21
103.4316738815
  0
LINE
  5
2AB
100
AcDbEntity
  8
0
100
AcDbLine
 62
7
  6
BYLAYER
 10
89.7190143614
 20
80.677502794
 11
89.7190143614
 21
75.7478933346
  0
LINE
  5
2AC
100
AcDbEntity
  8
0
100
AcDbLine
 62
7
  6
BYLAYER
 10
90.0196325643
 20
80.8510637584
 11
90.0196325643
 21
81.7492813203
  0
LINE
  5
2AD
100
AcDbEntity
  8
0
100
AcDbLine
 62
7
  6
BYLAYER
 10
90.8690143614
 20
82.2396692022
 11
90.8690143614
 21
82.0349619465
  0
LINE
  5
2AE
100
AcDbEntity
  8
0
100
AcDbLine
 62
7
  6
BYLAYER
 10
93.2016269163
 20
83.5863956498
 11
93.2016269163
 21
84.6478487921
  0
LINE
  5
2AF
100
AcDbEntity
  8
0
100
AcDbLine
 62
7
  6
BYLAYER
 10
40.6183914784
 20
22.6085089028
 11
40.310142134
 21
22.4305421231
  0
LINE
  5
2B0
100
AcDbEntity
  8
0
100
AcDbLine
 62
7
  6
BYLAYER
 10
93.6258627229
 20
92.894440183
 11
75.1447159644
 21
103.5642938546
  0
LINE
  5
2B1
100
AcDbEntity
  8
0
100
AcDbLine
 62
7
  6
BYLAYER
 10
94.1258542394
 20
92.9439680675
 11
74.1158842755
 21
104.4964682602
  0
LINE
  5
2B2
100
AcDbEntity
  8
0
100
AcDbLine
 62
7
  6
BYLAYER
 10
40.6397689076
 20
126.3979555768
 11
40.3569250175
 21
126.5612518786
  0
LINE
  5
2B3
100
AcDbEntity
  8
0
100
AcDbLine
 62
7
  6
BYLAYER
 10
64.1767992029
 20
112.868133422
 11
40.6414924269
 21
126.4559416921
  0
LINE
  5
2B4
100
AcDbEntity
  8
0
100
AcDbLine
 62
7
  6
BYLAYER
 10
40.3586485369
 20
126.6192379939
 11
36.1981482312
 21
129.0212496772
  0
LINE
  5
2B5
100
AcDbEntity
  8
0
100
AcDbLine
 62
7
  6
BYLAYER
 10
94.3329842239
 20
86.5257668009
 11
94.3329842215
 21
90.0367271931
  0
LINE
  5
2B6
100
AcDbEntity
  8
0
100
AcDbLine
 62
7
  6
BYLAYER
 10
95.2116550485
 20
91.2614494581
 11
95.2116550485
 21
87.7504890644
  0
LINE
  5
2B7
100
AcDbEntity
  8
0
100
AcDbLine
 62
7
  6
BYLAYER
 10
95.4275930051
 20
87.7504785265
 11
95.4275930051
 21
86.6890253842
  0
LINE
  5
2B8
100
AcDbEntity
  8
0
100
AcDbLine
 62
7
  6
BYLAYER
 10
95.711792547
 20
50.6607530563
 11
95.711792547
 21
74.7475743616
  0
LINE
  5
2B9
100
AcDbEntity
  8
0
100
AcDbLine
 62
7
  6
BYLAYER
 10
40.3101509659
 20
21.2058147605
 11
36.5625006287
 21
19.042120745
  0
LINE
  5
2BA
100
AcDbEntity
  8
0
100
AcDbLine
 62
7
  6
BYLAYER
 10
40.310142134
 20
19.5727836632
 11
43.0933182837
 21
21.1796415708
  0
LINE
  5
2BB
100
AcDbEntity
  8
0
100
AcDbLine
 62
7
  6
BYLAYER
 10
40.3101509659
 20
18.3480563006
 11
36.5625006287
 21
16.1843622851
  0
LINE
  5
2BC
100
AcDbEntity
  8
0
100
AcDbLine
 62
7
  6
BYLAYER
 10
95.0046887097
 20
49.4360064853
 11
85.812338826
 21
44.128832485
  0
LINE
  5
2BD
100
AcDbEntity
  8
0
100
AcDbLine
 62
7
  6
BYLAYER
 10
44.8710266513
 20
20.4914959758
 11
54.0633765351
 21
25.7986699761
  0
LINE
  5
2BE
100
AcDbEntity
  8
0
100
AcDbLine
 62
7
  6
BYLAYER
 10
37.6114546605
 20
131.4132772851
 11
41.7719947142
 21
129.0112427064
  0
LINE
  5
2BF
100
AcDbEntity
  8
0
100
AcDbLine
 62
7
  6
BYLAYER
 10
42.0548386043
 20
128.8479464046
 11
65.5901940667
 21
115.2601099908
  0
LINE
  5
2C0
100
AcDbEntity
  8
0
100
AcDbLine
 62
7
  6
BYLAYER
 10
64.493123984
 20
117.1446722851
 11
43.1384102845
 21
129.4735430716
  0
LINE
  5
2C1
100
AcDbEntity
  8
0
100
AcDbLine
 62
7
  6
BYLAYER
 10
42.9969871619
 20
129.7184882042
 11
64.6345447514
 21
117.2263211159
  0
LINE
  5
2C2
100
AcDbEntity
  8
0
100
AcDbLine
 62
7
  6
BYLAYER
 10
67.0386977979
 20
118.614351239
 11
45.4011402084
 21
131.1065183273
  0
LINE
  5
2C3
100
AcDbEntity
  8
0
100
AcDbLine
 62
7
  6
BYLAYER
 10
45.8254048659
 20
131.0248708563
 11
67.1801185654
 21
118.6960000698
  0
LINE
  5
2C4
100
AcDbEntity
  8
0
100
AcDbLine
 62
7
  6
BYLAYER
 10
81.3575846515
 20
37.175521603
 11
82.4182404073
 21
38.4949996693
  0
LINE
  5
2C5
100
AcDbEntity
  8
0
100
AcDbLine
 62
7
  6
BYLAYER
 10
82.4182404073
 20
39.3931523281
 11
73.9683495526
 21
34.5146346894
  0
LINE
  5
2C6
100
AcDbEntity
  8
0
100
AcDbLine
 62
7
  6
BYLAYER
 10
65.9073658084
 20
29.6565257309
 11
57.4574749537
 21
24.7780080922
  0
LINE
  5
2C7
100
AcDbEntity
  8
0
100
AcDbLine
 62
7
  6
BYLAYER
 10
73.9683495526
 20
32.8816298551
 11
65.9073658084
 21
28.227646501
  0
LINE
  5
2C8
100
AcDbEntity
  8
0
100
AcDbLine
 62
7
  6
BYLAYER
 10
70.4443226229
 20
118.0626365283
 11
46.9089765462
 21
131.6504675233
  0
LINE
  5
2C9
100
AcDbEntity
  8
0
100
AcDbLine
 62
7
  6
BYLAYER
 10
46.6261326561
 20
131.8137638251
 11
42.4655841287
 21
134.215803296
  0
LINE
  5
2CA
100
AcDbEntity
  8
0
100
AcDbLine
 62
7
  6
BYLAYER
 10
71.4443074184
 20
118.1616912778
 11
47.9089595792
 21
131.7495232924
  0
LINE
  5
2CB
100
AcDbEntity
  8
0
100
AcDbLine
 62
7
  6
BYLAYER
 10
47.6261156891
 20
131.9128195942
 11
43.4656155129
 21
134.3148311502
  0
LINE
  5
2CC
100
AcDbEntity
  8
0
100
AcDbLine
 62
7
  6
BYLAYER
 10
85.812338826
 20
36.8619609725
 11
81.3575846515
 21
34.2900228031
  0
LINE
  5
2CD
100
AcDbEntity
  8
0
100
AcDbLine
 62
7
  6
BYLAYER
 10
57.4574749537
 20
20.4913704023
 11
54.0633765351
 21
18.5317984637
  0
LINE
  5
2CE
100
AcDbEntity
  8
0
100
AcDbLine
 62
7
  6
BYLAYER
 10
41.0692005176
 20
132.1712756749
 11
44.6742221186
 21
131.5310596035
  0
LINE
  5
2CF
100
AcDbEntity
  8
0
100
AcDbLine
 62
7
  6
BYLAYER
 10
44.6742221186
 20
131.9393108121
 11
41.0692005176
 21
132.5795268835
  0
ARC
  5
2D0
100
AcDbEntity
  8
0
100
AcDbCircle
 62
7
  6
BYLAYER
 10
59.2525804385
 20
132.427540023
 40
21.3710411748
100
AcDbArc
 50
299.5095363882
 51
299.9992466657
  0
ARC
  5
2D1
100
AcDbEntity
  8
0
100
AcDbCircle
 62
7
  6
BYLAYER
 10
84.8351714157
 20
71.8415546136
 40
5.6535252665
100
AcDbArc
 50
75.3531270834
 51
79.9392635542
  0
ARC
  5
2D2
100
AcDbEntity
  8
0
100
AcDbCircle
 62
7
  6
BYLAYER
 10
92.8995572276
 20
87.7504657928
 40
2.5280228028
100
AcDbArc
 50
0.0002886001
 51
1.5108755774
  0
ARC
  5
2D3
100
AcDbEntity
  8
0
100
AcDbCircle
 62
7
  6
BYLAYER
 10
15.1562179067
 20
87.750303431
 40
2.5280202076
100
AcDbArc
 50
178.4895432667
 51
179.9997142837
  0
ARC
  5
2D4
100
AcDbEntity
  8
0
100
AcDbCircle
 62
7
  6
BYLAYER
 10
86.9081675522
 20
75.444275437
 40
1.5773995826
100
AcDbArc
 50
330.1939449906
 51
335.1249267878
  0
ARC
  5
2D5
100
AcDbEntity
  8
0
100
AcDbCircle
 62
7
  6
BYLAYER
 10
66.2638330798
 20
118.568661589
 40
1.5499333131
100
AcDbArc
 50
299.9960760573
 51
301.3503382563
  0
ARC
  5
2D6
100
AcDbEntity
  8
0
100
AcDbCircle
 62
7
  6
BYLAYER
 10
40.7916796309
 20
131.7129594252
 40
0.4462575649
100
AcDbArc
 50
119.9862982583
 51
122.5981860081
  0
ARC
  5
2D7
100
AcDbEntity
  8
0
100
AcDbCircle
 62
7
  6
BYLAYER
 10
40.7681915621
 20
131.7490371142
 40
0.4032093083
100
AcDbArc
 50
122.5482611057
 51
128.0096249413
  0
SPLINE
  5
2D8
100
AcDbEntity
  8
0
100
AcDbSpline
 62
7
  6
BYLAYER
 70
0
 71
3
 72
11
 73
7
 74
0
 42
0.0000001
 43
0.0000001
 44
0.0000000001
 40
0.0
 40
0.0
 40
0.0
 40
0.0
 40
0.2372542275
 40
0.5000017852
 40
0.7627483734
 40
1.0
 40
1.0
 40
1.0
 40
1.0
 10
95.711792547
 20
50.6607530563
 30
0.0
 10
95.711792547
 20
50.5448271111
 30
0.0
 10
95.6683286391
 20
50.3003539772
 30
0.0
 10
95.5167242495
 20
49.9568770955
 30
0.0
 10
95.2950690001
 20
49.6538453294
 30
0.0
 10
95.1050825725
 20
49.493968563
 30
0.0
 10
95.0046887097
 20
49.4360064853
 30
0.0
  0
SPLINE
  5
2D9
100
AcDbEntity
  8
0
100
AcDbSpline
 62
7
  6
BYLAYER
 70
0
 71
3
 72
11
 73
7
 74
0
 42
0.0000001
 43
0.0000001
 44
0.0000000001
 40
0.0
 40
0.0
 40
0.0
 40
0.0
 40
0.2895396729
 40
0.5491163863
 40
0.7822545095
 40
1.0
 40
1.0
 40
1.0
 40
1.0
 10
44.8710266513
 20
20.4914959758
 30
0.0
 10
44.8271740161
 20
20.4661777962
 30
0.0
 10
44.7398642085
 20
20.4246975085
 30
0.0
 10
44.6057218004
 20
20.3922276807
 30
0.0
 10
44.4797919162
 20
20.3953900235
 30
0.0
 10
44.404042188
 20
20.4229764822
 30
0.0
 10
44.3710631112
 20
20.442016548
 30
0.0
  0
SPLINE
  5
2DA
100
AcDbEntity
  8
0
100
AcDbSpline
 62
7
  6
BYLAYER
 70
0
 71
3
 72
9
 73
5
 74
0
 42
0.0000001
 43
0.0000001
 44
0.0000000001
 40
0.0
 40
0.0
 40
0.0
 40
0.0
 40
0.521751783
 40
1.0
 40
1.0
 40
1.0
 40
1.0
 10
85.8228042407
 20
73.2708889379
 30
0.0
 10
86.1039493109
 20
73.3210186924
 30
0.0
 10
86.6368421739
 20
73.4556923372
 30
0.0
 10
87.1412473154
 20
73.6777308802
 30
0.0
 10
87.3679451881
 20
73.8086141695
 30
0.0
  0
SPLINE
  5
2DB
100
AcDbEntity
  8
0
100
AcDbSpline
 62
7
  6
BYLAYER
 70
0
 71
3
 72
15
 73
11
 74
0
 42
0.0000001
 43
0.0000001
 44
0.0000000001
 40
0.0
 40
0.0
 40
0.0
 40
0.0
 40
0.1141236058
 40
0.2373475862
 40
0.3669728832
 40
0.5000004526
 40
0.6330279586
 40
0.7626530685
 40
0.8858767805
 40
1.0
 40
1.0
 40
1.0
 40
1.0
 10
51.9774290472
 20
61.2553345144
 30
0.0
 10
52.1177712306
 20
61.1743097501
 30
0.0
 10
52.4247892609
 20
61.0314145926
 30
0.0
 10
52.9246344607
 20
60.8793964822
 30
0.0
 10
53.465886554
 20
60.7859387341
 30
0.0
 10
54.0280418883
 20
60.7543326965
 30
0.0
 10
54.5901968109
 20
60.785941338
 30
0.0
 10
55.1314477293
 20
60.879401617
 30
0.0
 10
55.6312909481
 20
61.0314221634
 30
0.0
 10
55.9383072539
 20
61.1743188704
 30
0.0
 10
56.078648378
 20
61.2553443725
 30
0.0
  0
SPLINE
  5
2DC
100
AcDbEntity
  8
0
100
AcDbSpline
 62
7
  6
BYLAYER
 70
0
 71
3
 72
11
 73
7
 74
0
 42
0.0000001
 43
0.0000001
 44
0.0000000001
 40
0.0
 40
0.0
 40
0.0
 40
0.0
 40
0.2897048043
 40
0.5490913404
 40
0.7822177947
 40
1.0
 40
1.0
 40
1.0
 40
1.0
 10
90.0196325643
 20
80.8510637584
 30
0.0
 10
90.1468805403
 20
80.924529973
 30
0.0
 10
90.3777404455
 20
81.0835391529
 30
0.0
 10
90.6536501967
 20
81.3735077298
 30
0.0
 10
90.8281816598
 20
81.6942832297
 30
0.0
 10
90.8689999112
 20
81.9245067132
 30
0.0
 10
90.8689998908
 20
82.0349619465
 30
0.0
  0
SPLINE
  5
2DD
100
AcDbEntity
  8
0
100
AcDbSpline
 62
7
  6
BYLAYER
 70
0
 71
3
 72
17
 73
13
 74
0
 42
0.0000001
 43
0.0000001
 44
0.0000000001
 40
0.0
 40
0.0
 40
0.0
 40
0.0
 40
0.042856216
 40
0.0874836211
 40
0.1353102614
 40
0.1872757815
 40
0.3045355265
 40
0.4381979082
 40
0.5825371072
 40
0.7296850391
 40
0.8713145374
 40
1.0
 40
1.0
 40
1.0
 40
1.0
 10
18.3368353307
 20
75.7477302087
 30
0.0
 10
18.3368344227
 20
75.6979168007
 30
0.0
 10
18.3500571353
 20
75.5957805866
 30
0.0
 10
18.4087238118
 20
75.4483735034
 30
0.0
 10
18.5036697391
 20
75.3085310609
 30
0.0
 10
18.6826542149
 20
75.1290512487
 30
0.0
 10
18.9874428021
 20
74.9434328414
 30
0.0
 10
19.4257691039
 20
74.7970153607
 30
0.0
 10
19.9176418038
 20
74.7279033445
 30
0.0
 10
20.4232734986
 20
74.7418333723
 30
0.0
 10
20.9013193781
 20
74.8375171628
 30
0.0
 10
21.1946685761
 20
74.9585211791
 30
0.0
 10
21.3242053871
 20
75.0333088453
 30
0.0
  0
SPLINE
  5
2DE
100
AcDbEntity
  8
0
100
AcDbSpline
 62
7
  6
BYLAYER
 70
0
 71
3
 72
9
 73
5
 74
0
 42
0.0000001
 43
0.0000001
 44
0.0000000001
 40
0.0
 40
0.0
 40
0.0
 40
0.0
 40
0.2223853466
 40
1.0
 40
1.0
 40
1.0
 40
1.0
 10
45.4109525458
 20
50.0615640912
 30
0.0
 10
45.4138733191
 20
50.0702004252
 30
0.0
 10
45.431861083
 20
50.1074582075
 30
0.0
 10
45.4656289003
 20
50.13487838
 30
0.0
 10
45.4932369008
 20
50.1508177714
 30
0.0
  0
SPLINE
  5
2DF
100
AcDbEntity
  8
0
100
AcDbSpline
 62
7
  6
BYLAYER
 70
0
 71
3
 72
11
 73
7
 74
0
 42
0.0000001
 43
0.0000001
 44
0.0000000001
 40
0.0
 40
0.0
 40
0.0
 40
0.0
 40
0.2274360529
 40
0.46495977
 40
0.7207255396
 40
1.0
 40
1.0
 40
1.0
 40
1.0
 10
41.302785765
 20
51.7429978505
 30
0.0
 10
41.3027857604
 20
51.6465882679
 30
0.0
 10
41.329822702
 20
51.4486093733
 30
0.0
 10
41.4479234315
 20
51.1637502073
 30
0.0
 10
41.6391731692
 20
50.895053229
 30
0.0
 10
41.8042031819
 20
50.7375719345
 30
0.0
 10
41.8957732866
 20
50.6625410769
 30
0.0
  0
SPLINE
  5
2E0
100
AcDbEntity
  8
0
100
AcDbSpline
 62
7
  6
BYLAYER
 70
0
 71
3
 72
9
 73
5
 74
0
 42
0.0000001
 43
0.0000001
 44
0.0000000001
 40
0.0
 40
0.0
 40
0.0
 40
0.0
 40
0.2453354782
 40
1.0
 40
1.0
 40
1.0
 40
1.0
 10
41.8957732866
 20
50.6625410769
 30
0.0
 10
41.910434122
 20
50.6505282583
 30
0.0
 10
41.9707871375
 20
50.6022919328
 30
0.0
 10
42.0334297562
 20
50.5569349732
 30
0.0
 10
42.0817265707
 20
50.5242752986
 30
0.0
  0
SPLINE
  5
2E1
100
AcDbEntity
  8
0
100
AcDbSpline
 62
7
  6
BYLAYER
 70
0
 71
3
 72
9
 73
5
 74
0
 42
0.0000001
 43
0.0000001
 44
0.0000000001
 40
0.0
 40
0.0
 40
0.0
 40
0.0
 40
0.2223853466
 40
1.0
 40
1.0
 40
1.0
 40
1.0
 10
34.8043066686
 20
56.185175409
 30
0.0
 10
34.8072274419
 20
56.193811743
 30
0.0
 10
34.8252152058
 20
56.2310695253
 30
0.0
 10
34.8589830231
 20
56.2584896978
 30
0.0
 10
34.8865910236
 20
56.2744290892
 30
0.0
  0
SPLINE
  5
2E2
100
AcDbEntity
  8
0
100
AcDbSpline
 62
7
  6
BYLAYER
 70
0
 71
3
 72
11
 73
7
 74
0
 42
0.0000001
 43
0.0000001
 44
0.0000000001
 40
0.0
 40
0.0
 40
0.0
 40
0.0
 40
0.2274360529
 40
0.46495977
 40
0.7207255396
 40
1.0
 40
1.0
 40
1.0
 40
1.0
 10
30.6961398878
 20
57.8666091683
 30
0.0
 10
30.6961398832
 20
57.7701995857
 30
0.0
 10
30.7231768248
 20
57.5722206911
 30
0.0
 10
30.8412775543
 20
57.2873615251
 30
0.0
 10
31.032527292
 20
57.0186645468
 30
0.0
 10
31.1975573047
 20
56.8611832523
 30
0.0
 10
31.2891274094
 20
56.7861523947
 30
0.0
  0
SPLINE
  5
2E3
100
AcDbEntity
  8
0
100
AcDbSpline
 62
7
  6
BYLAYER
 70
0
 71
3
 72
9
 73
5
 74
0
 42
0.0000001
 43
0.0000001
 44
0.0000000001
 40
0.0
 40
0.0
 40
0.0
 40
0.0
 40
0.2453354782
 40
1.0
 40
1.0
 40
1.0
 40
1.0
 10
31.2891274094
 20
56.7861523947
 30
0.0
 10
31.3037882448
 20
56.7741395761
 30
0.0
 10
31.3641412603
 20
56.7259032506
 30
0.0
 10
31.426783879
 20
56.680546291
 30
0.0
 10
31.4750806935
 20
56.6478866164
 30
0.0
  0
SPLINE
  5
2E4
100
AcDbEntity
  8
0
100
AcDbSpline
 62
7
  6
BYLAYER
 70
0
 71
3
 72
15
 73
11
 74
0
 42
0.0000001
 43
0.0000001
 44
0.0000000001
 40
0.0
 40
0.0
 40
0.0
 40
0.0
 40
0.1141549974
 40
0.2373268943
 40
0.3669765742
 40
0.5000005394
 40
0.633024429
 40
0.7626738905
 40
0.8858454396
 40
1.0
 40
1.0
 40
1.0
 40
1.0
 10
48.6540404235
 20
64.0722992597
 30
0.0
 10
49.0219364396
 20
63.8598992009
 30
0.0
 10
49.8264061392
 20
63.485294553
 30
0.0
 10
51.1364363242
 20
63.0871317543
 30
0.0
 10
52.5547465384
 20
62.8420501456
 30
0.0
 10
54.0280612145
 20
62.7593651055
 30
0.0
 10
55.5013746868
 20
62.8420571745
 30
0.0
 10
56.9196813252
 20
63.0871455498
 30
0.0
 10
58.2297057476
 20
63.4853145568
 30
0.0
 10
59.0341704214
 20
63.8599231962
 30
0.0
 10
59.4020634974
 20
64.0723250948
 30
0.0
  0
SPLINE
  5
2E5
100
AcDbEntity
  8
0
100
AcDbSpline
 62
7
  6
BYLAYER
 70
0
 71
3
 72
12
 73
8
 74
0
 42
0.0000001
 43
0.0000001
 44
0.0000000001
 40
0.0
 40
0.0
 40
0.0
 40
0.0
 40
0.2895826804
 40
0.5486365154
 40
0.7816380414
 40
0.8918389003
 40
1.0
 40
1.0
 40
1.0
 40
1.0
 10
93.2016269163
 20
83.5863956498
 30
0.0
 10
93.5352214321
 20
83.7789953837
 30
0.0
 10
94.1403271065
 20
84.1957412938
 30
0.0
 10
94.8632106353
 20
84.9550572962
 30
0.0
 10
95.2514029721
 20
85.6705442777
 30
0.0
 10
95.4025103643
 20
86.2540901205
 30
0.0
 10
95.4275800207
 20
86.5451501204
 30
0.0
 10
95.4275800304
 20
86.6890253842
 30
0.0
  0
SPLINE
  5
2E6
100
AcDbEntity
  8
0
100
AcDbSpline
 62
7
  6
BYLAYER
 70
0
 71
3
 72
9
 73
5
 74
0
 42
0.0000001
 43
0.0000001
 44
0.0000000001
 40
0.0
 40
0.0
 40
0.0
 40
0.0
 40
0.2223853466
 40
1.0
 40
1.0
 40
1.0
 40
1.0
 10
24.1976607914
 20
62.3087867268
 30
0.0
 10
24.2005815647
 20
62.3174230608
 30
0.0
 10
24.2185693286
 20
62.3546808431
 30
0.0
 10
24.2523371459
 20
62.3821010156
 30
0.0
 10
24.2799451464
 20
62.398040407
 30
0.0
  0
SPLINE
  5
2E7
100
AcDbEntity
  8
0
100
AcDbSpline
 62
7
  6
BYLAYER
 70
0
 71
3
 72
11
 73
7
 74
0
 42
0.0000001
 43
0.0000001
 44
0.0000000001
 40
0.0
 40
0.0
 40
0.0
 40
0.0
 40
0.2274360529
 40
0.46495977
 40
0.7207255396
 40
1.0
 40
1.0
 40
1.0
 40
1.0
 10
20.0894940106
 20
63.9902204861
 30
0.0
 10
20.089494006
 20
63.8938109035
 30
0.0
 10
20.1165309476
 20
63.6958320089
 30
0.0
 10
20.2346316771
 20
63.4109728429
 30
0.0
 10
20.4258814148
 20
63.1422758646
 30
0.0
 10
20.5909114275
 20
62.9847945701
 30
0.0
 10
20.6824815322
 20
62.9097637125
 30
0.0
  0
SPLINE
  5
2E8
100
AcDbEntity
  8
0
100
AcDbSpline
 62
7
  6
BYLAYER
 70
0
 71
3
 72
9
 73
5
 74
0
 42
0.0000001
 43
0.0000001
 44
0.0000000001
 40
0.0
 40
0.0
 40
0.0
 40
0.0
 40
0.2453354782
 40
1.0
 40
1.0
 40
1.0
 40
1.0
 10
20.6824815322
 20
62.9097637125
 30
0.0
 10
20.6971423676
 20
62.8977508939
 30
0.0
 10
20.7574953831
 20
62.8495145684
 30
0.0
 10
20.8201380018
 20
62.8041576088
 30
0.0
 10
20.8684348162
 20
62.7714979342
 30
0.0
  0
SPLINE
  5
2E9
100
AcDbEntity
  8
0
100
AcDbSpline
 62
7
  6
BYLAYER
 70
0
 71
3
 72
11
 73
7
 74
0
 42
0.0000001
 43
0.0000001
 44
0.0000000001
 40
0.0
 40
0.0
 40
0.0
 40
0.0
 40
0.2177817009
 40
0.4509079353
 40
0.7102947134
 40
1.0
 40
1.0
 40
1.0
 40
1.0
 10
25.4114612884
 20
30.5545361975
 30
0.0
 10
25.4114613032
 20
30.4745505286
 30
0.0
 10
25.4410199693
 20
30.3078350763
 30
0.0
 10
25.5674075533
 20
30.0755471084
 30
0.0
 10
25.7672083533
 20
29.8655683167
 30
0.0
 10
25.9343859418
 20
29.7504232562
 30
0.0
 10
26.0265327515
 20
29.6972234744
 30
0.0
  0
SPLINE
  5
2EA
100
AcDbEntity
  8
0
100
AcDbSpline
 62
7
  6
BYLAYER
 70
0
 71
3
 72
11
 73
7
 74
0
 42
0.0000001
 43
0.0000001
 44
0.0000000001
 40
0.0
 40
0.0
 40
0.0
 40
0.0
 40
0.2243223176
 40
0.4603966825
 40
0.7171989641
 40
1.0
 40
1.0
 40
1.0
 40
1.0
 10
23.5114802128
 20
30.5545361975
 30
0.0
 10
23.5114802112
 20
30.6838888527
 30
0.0
 10
23.5512405341
 20
30.9507670576
 30
0.0
 10
23.7244360614
 20
31.3312100992
 30
0.0
 10
24.0027480623
 20
31.6857702365
 30
0.0
 10
24.2405310784
 20
31.8893923216
 30
0.0
 10
24.3721679857
 20
31.9856458844
 30
0.0
  0
SPLINE
  5
2EB
100
AcDbEntity
  8
0
100
AcDbSpline
 62
7
  6
BYLAYER
 70
0
 71
3
 72
9
 73
5
 74
0
 42
0.0000001
 43
0.0000001
 44
0.0000000001
 40
0.0
 40
0.0
 40
0.0
 40
0.0
 40
0.2523912651
 40
1.0
 40
1.0
 40
1.0
 40
1.0
 10
95.3465715125
 20
88.3893670673
 30
0.0
 10
95.358589291
 20
88.3422045276
 30
0.0
 10
95.4011559392
 20
88.1540965784
 30
0.0
 10
95.4229005518
 20
87.9612356976
 30
0.0
 10
95.4267011334
 20
87.8171214051
 30
0.0
  0
SPLINE
  5
2EC
100
AcDbEntity
  8
0
100
AcDbSpline
 62
7
  6
BYLAYER
 70
0
 71
3
 72
11
 73
7
 74
0
 42
0.0000001
 43
0.0000001
 44
0.0000000001
 40
0.0
 40
0.0
 40
0.0
 40
0.0
 40
0.2177723091
 40
0.4509273687
 40
0.7102218233
 40
1.0
 40
1.0
 40
1.0
 40
1.0
 10
23.5114802128
 20
27.6967777376
 30
0.0
 10
23.5114802148
 20
27.544429564
 30
0.0
 10
23.5677437946
 20
27.2268507551
 30
0.0
 10
23.8085031464
 20
26.7844624979
 30
0.0
 10
24.1889982906
 20
26.3844203929
 30
0.0
 10
24.5074723129
 20
26.1651602597
 30
0.0
 10
24.6830354608
 20
26.0638011221
 30
0.0
  0
SPLINE
  5
2ED
100
AcDbEntity
  8
0
100
AcDbSpline
 62
7
  6
BYLAYER
 70
0
 71
3
 72
17
 73
13
 74
0
 42
0.0000001
 43
0.0000001
 44
0.0000000001
 40
0.0
 40
0.0
 40
0.0
 40
0.0
 40
0.042856216
 40
0.0874836211
 40
0.1353102614
 40
0.1872757815
 40
0.3045355265
 40
0.4381979082
 40
0.5825371072
 40
0.7296850391
 40
0.8713145374
 40
1.0
 40
1.0
 40
1.0
 40
1.0
 10
86.219086324
 20
75.7478933776
 30
0.0
 10
86.219085416
 20
75.6980799696
 30
0.0
 10
86.2323081287
 20
75.5959437555
 30
0.0
 10
86.2909748051
 20
75.4485366722
 30
0.0
 10
86.3859207324
 20
75.3086942298
 30
0.0
 10
86.5649052083
 20
75.1292144176
 30
0.0
 10
86.8696937954
 20
74.9435960102
 30
0.0
 10
87.3080200972
 20
74.7971785296
 30
0.0
 10
87.7998927971
 20
74.7280665133
 30
0.0
 10
88.3055244919
 20
74.7419965411
 30
0.0
 10
88.7835703714
 20
74.8376803316
 30
0.0
 10
89.0769195694
 20
74.9586843479
 30
0.0
 10
89.2064563804
 20
75.0334720142
 30
0.0
  0
SPLINE
  5
2EE
100
AcDbEntity
  8
0
100
AcDbSpline
 62
7
  6
BYLAYER
 70
0
 71
3
 72
17
 73
13
 74
0
 42
0.0000001
 43
0.0000001
 44
0.0000000001
 40
0.0
 40
0.0
 40
0.0
 40
0.0
 40
0.042856216
 40
0.0874836211
 40
0.1353102614
 40
0.1872757815
 40
0.3045355265
 40
0.4381979082
 40
0.5825371072
 40
0.7296850391
 40
0.8713145374
 40
1.0
 40
1.0
 40
1.0
 40
1.0
 10
52.2781021377
 20
56.1521739917
 30
0.0
 10
52.2781012297
 20
56.1023605837
 30
0.0
 10
52.2913239424
 20
56.0002243696
 30
0.0
 10
52.3499906189
 20
55.8528172864
 30
0.0
 10
52.4449365461
 20
55.712974844
 30
0.0
 10
52.623921022
 20
55.5334950317
 30
0.0
 10
52.9287096092
 20
55.3478766244
 30
0.0
 10
53.367035911
 20
55.2014591437
 30
0.0
 10
53.8589086109
 20
55.1323471275
 30
0.0
 10
54.3645403056
 20
55.1462771553
 30
0.0
 10
54.8425861851
 20
55.2419609458
 30
0.0
 10
55.1359353831
 20
55.3629649621
 30
0.0
 10
55.2654721941
 20
55.4377526283
 30
0.0
  0
SPLINE
  5
2EF
100
AcDbEntity
  8
0
100
AcDbSpline
 62
7
  6
BYLAYER
 70
0
 71
3
 72
9
 73
5
 74
0
 42
0.0000001
 43
0.0000001
 44
0.0000000001
 40
0.0
 40
0.0
 40
0.0
 40
0.0
 40
0.2467887033
 40
1.0
 40
1.0
 40
1.0
 40
1.0
 10
47.9089093258
 20
131.749436047
 30
0.0
 10
47.8901031637
 20
131.7602891577
 30
0.0
 10
47.8118038692
 20
131.800587152
 30
0.0
 10
47.7256517081
 20
131.8251468632
 30
0.0
 10
47.6600815698
 20
131.8347502757
 30
0.0
  0
SPLINE
  5
2F0
100
AcDbEntity
  8
0
100
AcDbSpline
 62
7
  6
BYLAYER
 70
0
 71
3
 72
10
 73
6
 74
0
 42
0.0000001
 43
0.0000001
 44
0.0000000001
 40
0.0
 40
0.0
 40
0.0
 40
0.0
 40
0.4599249302
 40
0.7198581799
 40
1.0
 40
1.0
 40
1.0
 40
1.0
 10
47.6600815698
 20
131.8347502757
 30
0.0
 10
47.5409922452
 20
131.8521921165
 30
0.0
 10
47.3472818627
 20
131.8349931445
 30
0.0
 10
47.0993737333
 20
131.7506737885
 30
0.0
 10
46.9724663209
 20
131.687123143
 30
0.0
 10
46.9089765462
 20
131.6504675233
 30
0.0
  0
SPLINE
  5
2F1
100
AcDbEntity
  8
0
100
AcDbSpline
 62
7
  6
BYLAYER
 70
0
 71
3
 72
11
 73
7
 74
0
 42
0.0000001
 43
0.0000001
 44
0.0000000001
 40
0.0
 40
0.0
 40
0.0
 40
0.0
 40
0.2895421522
 40
0.5491196247
 40
0.782256727
 40
1.0
 40
1.0
 40
1.0
 40
1.0
 10
67.0386977979
 20
118.614351239
 30
0.0
 10
67.1132493719
 20
118.5713098415
 30
0.0
 10
67.2485358665
 20
118.4780265967
 30
0.0
 10
67.4103654675
 20
118.3081345958
 30
0.0
 10
67.5127529908
 20
118.1200456853
 30
0.0
 10
67.536526169
 20
117.9850737904
 30
0.0
 10
67.5365261546
 20
117.9203361781
 30
0.0
  0
SPLINE
  5
2F2
100
AcDbEntity
  8
0
100
AcDbSpline
 62
7
  6
BYLAYER
 70
0
 71
3
 72
12
 73
8
 74
0
 42
0.0000001
 43
0.0000001
 44
0.0000000001
 40
0.0
 40
0.0
 40
0.0
 40
0.0
 40
0.202532546
 40
0.3268366346
 40
0.4622431026
 40
0.7434914067
 40
1.0
 40
1.0
 40
1.0
 40
1.0
 10
41.5478069581
 20
130.1349024387
 30
0.0
 10
41.5763975714
 20
130.0809127101
 30
0.0
 10
41.6587956949
 20
130.0145084438
 30
0.0
 10
41.7875128309
 20
129.9620949878
 30
0.0
 10
41.9478620157
 20
129.9267597414
 30
0.0
 10
42.1533289552
 20
129.9281489153
 30
0.0
 10
42.3125054657
 20
129.9764955178
 30
0.0
 10
42.37951359
 20
130.0151824455
 30
0.0
  0
SPLINE
  5
2F3
100
AcDbEntity
  8
0
100
AcDbSpline
 62
7
  6
BYLAYER
 70
0
 71
3
 72
11
 73
7
 74
0
 42
0.0000001
 43
0.0000001
 44
0.0000000001
 40
0.0
 40
0.0
 40
0.0
 40
0.0
 40
0.28902243
 40
0.5489778136
 40
0.7823276364
 40
1.0
 40
1.0
 40
1.0
 40
1.0
 10
44.8807746016
 20
131.4592775437
 30
0.0
 10
44.9026608222
 20
131.4719134837
 30
0.0
 10
44.942392003
 20
131.4993979046
 30
0.0
 10
44.9900623066
 20
131.5492986399
 30
0.0
 10
45.0201843084
 20
131.6046643358
 30
0.0
 10
45.0272166282
 20
131.6443648668
 30
0.0
 10
45.0272123194
 20
131.6633980411
 30
0.0
  0
SPLINE
  5
2F4
100
AcDbEntity
  8
0
100
AcDbSpline
 62
7
  6
BYLAYER
 70
0
 71
3
 72
11
 73
7
 74
0
 42
0.0000001
 43
0.0000001
 44
0.0000000001
 40
0.0
 40
0.0
 40
0.0
 40
0.0
 40
0.2502561321
 40
0.5004122001
 40
0.7502821961
 40
1.0
 40
1.0
 40
1.0
 40
1.0
 10
35.4657688384
 20
130.0389478142
 30
0.0
 10
35.4698923336
 20
130.2028822653
 30
0.0
 10
35.5157491232
 20
130.530948069
 30
0.0
 10
35.6930972529
 20
130.9937889517
 30
0.0
 10
35.9679226437
 20
131.4056875957
 30
0.0
 10
36.2061854111
 20
131.6343932812
 30
0.0
 10
36.3353264387
 20
131.7348847424
 30
0.0
  0
SPLINE
  5
2F5
100
AcDbEntity
  8
0
100
AcDbSpline
 62
7
  6
BYLAYER
 70
0
 71
3
 72
13
 73
9
 74
0
 42
0.0000001
 43
0.0000001
 44
0.0000000001
 40
0.0
 40
0.0
 40
0.0
 40
0.0
 40
0.1141762243
 40
0.2375705078
 40
0.5000006893
 40
0.7624304955
 40
0.8858242827
 40
1.0
 40
1.0
 40
1.0
 40
1.0
 10
64.493123984
 20
117.1446722851
 30
0.0
 10
64.5850319957
 20
117.0916103702
 30
0.0
 10
64.7862287798
 20
116.9980376736
 30
0.0
 10
65.2319183555
 20
116.8624415072
 30
0.0
 10
65.8366293692
 20
116.7969239005
 30
0.0
 10
66.4413396006
 20
116.8624444888
 30
0.0
 10
66.8870272294
 20
116.9980427029
 30
0.0
 10
67.0882225314
 20
117.0916164018
 30
0.0
 10
67.1801297524
 20
117.1446787439
 30
0.0
  0
SPLINE
  5
2F6
100
AcDbEntity
  8
0
100
AcDbSpline
 62
7
  6
BYLAYER
 70
0
 71
3
 72
11
 73
7
 74
0
 42
0.0000001
 43
0.0000001
 44
0.0000000001
 40
0.0
 40
0.0
 40
0.0
 40
0.0
 40
0.2830092503
 40
0.5429218095
 40
0.7802947761
 40
1.0
 40
1.0
 40
1.0
 40
1.0
 10
67.1801297524
 20
117.1446787439
 30
0.0
 10
67.2475554039
 20
117.1836067295
 30
0.0
 10
67.3722345295
 20
117.266937721
 30
0.0
 10
67.5305462056
 20
117.4135014159
 30
0.0
 10
67.6477379204
 20
117.5738552434
 30
0.0
 10
67.6974547815
 20
117.6910057217
 30
0.0
 10
67.7133701984
 20
117.7493139316
 30
0.0
  0
SPLINE
  5
2F7
100
AcDbEntity
  8
0
100
AcDbSpline
 62
7
  6
BYLAYER
 70
0
 71
3
 72
9
 73
5
 74
0
 42
0.0000001
 43
0.0000001
 44
0.0000000001
 40
0.0
 40
0.0
 40
0.0
 40
0.0
 40
0.2528464247
 40
1.0
 40
1.0
 40
1.0
 40
1.0
 10
67.7133701984
 20
117.7493139316
 30
0.0
 10
67.7172067176
 20
117.7633695213
 30
0.0
 10
67.7305855554
 20
117.8194318678
 30
0.0
 10
67.7365149774
 20
117.8772829159
 30
0.0
 10
67.7365149641
 20
117.9203361767
 30
0.0
  0
SPLINE
  5
2F8
100
AcDbEntity
  8
0
100
AcDbSpline
 62
7
  6
BYLAYER
 70
0
 71
3
 72
11
 73
7
 74
0
 42
0.0000001
 43
0.0000001
 44
0.0000000001
 40
0.0
 40
0.0
 40
0.0
 40
0.0
 40
0.2496603714
 40
0.4994737689
 40
0.749634938
 40
1.0
 40
1.0
 40
1.0
 40
1.0
 10
71.4443104526
 20
118.1616973045
 30
0.0
 10
71.6096108006
 20
118.0662490338
 30
0.0
 10
71.9194551606
 20
117.8357075068
 30
0.0
 10
72.2846256461
 20
117.3861511777
 30
0.0
 10
72.5233212796
 20
116.8574956954
 30
0.0
 10
72.584791155
 20
116.4743989331
 30
0.0
 10
72.5899147059
 20
116.2830503057
 30
0.0
  0
SPLINE
  5
2F9
100
AcDbEntity
  8
0
100
AcDbSpline
 62
7
  6
BYLAYER
 70
0
 71
3
 72
13
 73
9
 74
0
 42
0.0000001
 43
0.0000001
 44
0.0000000001
 40
0.0
 40
0.0
 40
0.0
 40
0.0
 40
0.1137558646
 40
0.236544633
 40
0.4978518824
 40
0.7603288329
 40
0.8844912213
 40
1.0
 40
1.0
 40
1.0
 40
1.0
 10
42.0548386043
 20
128.8479464046
 30
0.0
 10
41.9603269674
 20
128.7933804114
 30
0.0
 10
41.7734368342
 20
128.6628010711
 30
0.0
 10
41.4222829578
 20
128.3374275543
 30
0.0
 10
41.0488591997
 20
127.8350299067
 30
0.0
 10
40.7887754969
 20
127.2643467443
 30
0.0
 10
40.6708122868
 20
126.796174466
 30
0.0
 10
40.644784699
 20
126.5667069202
 30
0.0
 10
40.6414924269
 20
126.4559416921
 30
0.0
  0
SPLINE
  5
2FA
100
AcDbEntity
  8
0
100
AcDbSpline
 62
7
  6
BYLAYER
 70
0
 71
3
 72
11
 73
7
 74
0
 42
0.0000001
 43
0.0000001
 44
0.0000000001
 40
0.0
 40
0.0
 40
0.0
 40
0.0
 40
0.2496804007
 40
0.5005671716
 40
0.750962545
 40
1.0
 40
1.0
 40
1.0
 40
1.0
 10
41.0264579207
 20
134.4488543763
 30
0.0
 10
41.2195432844
 20
134.5315658737
 30
0.0
 10
41.6283530366
 20
134.6502856014
 30
0.0
 10
42.2639907705
 20
134.6865734597
 30
0.0
 10
42.8919302859
 20
134.5836702808
 30
0.0
 10
43.2841312994
 20
134.4196021372
 30
0.0
 10
43.4655843534
 20
134.3148596415
 30
0.0
  0
SPLINE
  5
2FB
100
AcDbEntity
  8
0
100
AcDbSpline
 62
7
  6
BYLAYER
 70
0
 71
3
 72
9
 73
5
 74
0
 42
0.0000001
 43
0.0000001
 44
0.0000000001
 40
0.0
 40
0.0
 40
0.0
 40
0.0
 40
0.514496935
 40
1.0
 40
1.0
 40
1.0
 40
1.0
 10
41.0264770183
 20
134.4488698348
 30
0.0
 10
40.1703273528
 20
134.0821782608
 30
0.0
 10
38.5431160544
 20
133.2787012776
 30
0.0
 10
37.0288688488
 20
132.2746514719
 30
0.0
 10
36.3352789422
 20
131.7348607574
 30
0.0
  0
SPLINE
  5
2FC
100
AcDbEntity
  8
0
100
AcDbSpline
 62
7
  6
BYLAYER
 70
0
 71
3
 72
11
 73
7
 74
0
 42
0.0000001
 43
0.0000001
 44
0.0000000001
 40
0.0
 40
0.0
 40
0.0
 40
0.0
 40
0.2895468475
 40
0.5491384346
 40
0.782278826
 40
1.0
 40
1.0
 40
1.0
 40
1.0
 10
55.2654721941
 20
55.4377526283
 30
0.0
 10
55.3422168482
 20
55.4820609106
 30
0.0
 10
55.4814847181
 20
55.578091008
 30
0.0
 10
55.6480794558
 20
55.7529858704
 30
0.0
 10
55.7534558373
 20
55.9466107468
 30
0.0
 10
55.7779569979
 20
56.0855394769
 30
0.0
 10
55.7779582125
 20
56.1521739058
 30
0.0
  0
SPLINE
  5
2FD
100
AcDbEntity
  8
0
100
AcDbSpline
 62
7
  6
BYLAYER
 70
0
 71
3
 72
11
 73
7
 74
0
 42
0.0000001
 43
0.0000001
 44
0.0000000001
 40
0.0
 40
0.0
 40
0.0
 40
0.0
 40
0.2895468475
 40
0.5491384346
 40
0.782278826
 40
1.0
 40
1.0
 40
1.0
 40
1.0
 10
89.2064563804
 20
75.0334720142
 30
0.0
 10
89.2832010345
 20
75.0777802964
 30
0.0
 10
89.4224689044
 20
75.1738103939
 30
0.0
 10
89.589063642
 20
75.3487052562
 30
0.0
 10
89.6944400236
 20
75.5423301327
 30
0.0
 10
89.7189411841
 20
75.6812588627
 30
0.0
 10
89.7189423987
 20
75.7478932916
 30
0.0
  0
SPLINE
  5
2FE
100
AcDbEntity
  8
0
100
AcDbSpline
 62
7
  6
BYLAYER
 70
0
 71
3
 72
11
 73
7
 74
0
 42
0.0000001
 43
0.0000001
 44
0.0000000001
 40
0.0
 40
0.0
 40
0.0
 40
0.0
 40
0.2550463361
 40
0.5043102758
 40
0.7520369707
 40
1.0
 40
1.0
 40
1.0
 40
1.0
 10
94.1258542394
 20
92.9439680675
 30
0.0
 10
94.2799880572
 20
92.8549808795
 30
0.0
 10
94.5696393465
 20
92.6501352708
 30
0.0
 10
94.9226162367
 20
92.254664511
 30
0.0
 10
95.1564615725
 20
91.7826703164
 30
0.0
 10
95.2116550485
 20
91.4344839541
 30
0.0
 10
95.2116550485
 20
91.2614494581
 30
0.0
  0
SPLINE
  5
2FF
100
AcDbEntity
  8
0
100
AcDbSpline
 62
7
  6
BYLAYER
 70
0
 71
3
 72
15
 73
11
 74
0
 42
0.0000001
 43
0.0000001
 44
0.0000000001
 40
0.0
 40
0.0
 40
0.0
 40
0.0
 40
0.1141236058
 40
0.2373475862
 40
0.3669728832
 40
0.5000004527
 40
0.6330279586
 40
0.7626530686
 40
0.8858767803
 40
1.0
 40
1.0
 40
1.0
 40
1.0
 10
20.6878546211
 20
62.8675561177
 30
0.0
 10
20.8693315824
 20
62.7627827155
 30
0.0
 10
21.2663376561
 20
62.5780044946
 30
0.0
 10
21.9126892076
 20
62.3814293518
 30
0.0
 10
22.6125841558
 20
62.2605788155
 30
0.0
 10
23.339509157
 20
62.2197089392
 30
0.0
 10
24.0664336259
 20
62.2605821832
 30
0.0
 10
24.7663270547
 20
62.3814359904
 30
0.0
 10
25.4126760447
 20
62.578014285
 30
0.0
 10
25.8096798856
 20
62.7627945132
 30
0.0
 10
25.9911554799
 20
62.8675688652
 30
0.0
  0
SPLINE
  5
300
100
AcDbEntity
  8
0
100
AcDbSpline
 62
7
  6
BYLAYER
 70
0
 71
3
 72
15
 73
11
 74
0
 42
0.0000001
 43
0.0000001
 44
0.0000000001
 40
0.0
 40
0.0
 40
0.0
 40
0.0
 40
0.1141236058
 40
0.2373475862
 40
0.3669728832
 40
0.5000004527
 40
0.6330279586
 40
0.7626530686
 40
0.8858767803
 40
1.0
 40
1.0
 40
1.0
 40
1.0
 10
31.2945004983
 20
56.7439447999
 30
0.0
 10
31.4759774597
 20
56.6391713977
 30
0.0
 10
31.8729835333
 20
56.4543931768
 30
0.0
 10
32.5193350848
 20
56.257818034
 30
0.0
 10
33.219230033
 20
56.1369674977
 30
0.0
 10
33.9461550342
 20
56.0960976214
 30
0.0
 10
34.6730795031
 20
56.1369708654
 30
0.0
 10
35.3729729319
 20
56.2578246726
 30
0.0
 10
36.0193219219
 20
56.4544029672
 30
0.0
 10
36.4163257628
 20
56.6391831954
 30
0.0
 10
36.5978013571
 20
56.7439575474
 30
0.0
  0
SPLINE
  5
301
100
AcDbEntity
  8
0
100
AcDbSpline
 62
7
  6
BYLAYER
 70
0
 71
3
 72
15
 73
11
 74
0
 42
0.0000001
 43
0.0000001
 44
0.0000000001
 40
0.0
 40
0.0
 40
0.0
 40
0.0
 40
0.1141236058
 40
0.2373475862
 40
0.3669728832
 40
0.5000004527
 40
0.6330279586
 40
0.7626530686
 40
0.8858767803
 40
1.0
 40
1.0
 40
1.0
 40
1.0
 10
41.9011463755
 20
50.6203334821
 30
0.0
 10
42.0826233369
 20
50.5155600798
 30
0.0
 10
42.4796294105
 20
50.330781859
 30
0.0
 10
43.125980962
 20
50.1342067162
 30
0.0
 10
43.8258759102
 20
50.0133561799
 30
0.0
 10
44.5528009114
 20
49.9724863036
 30
0.0
 10
45.2797253803
 20
50.0133595476
 30
0.0
 10
45.9796188092
 20
50.1342133548
 30
0.0
 10
46.6259677991
 20
50.3307916494
 30
0.0
 10
47.02297164
 20
50.5155718776
 30
0.0
 10
47.2044472343
 20
50.6203462296
 30
0.0
  0
SPLINE
  5
302
100
AcDbEntity
  8
0
100
AcDbSpline
 62
7
  6
BYLAYER
 70
0
 71
3
 72
11
 73
7
 74
0
 42
0.0000001
 43
0.0000001
 44
0.0000000001
 40
0.0
 40
0.0
 40
0.0
 40
0.0
 40
0.2372518718
 40
0.4999985497
 40
0.7627460178
 40
1.0
 40
1.0
 40
1.0
 40
1.0
 10
13.0510890197
 20
64.5821560688
 30
0.0
 10
12.9506950531
 20
64.5241939312
 30
0.0
 10
12.7607085195
 20
64.3643170214
 30
0.0
 10
12.5390532749
 20
64.0612851034
 30
0.0
 10
12.3874490192
 20
63.7178082935
 30
0.0
 10
12.3439851825
 20
63.4733353232
 30
0.0
 10
12.3439851825
 20
63.3574094978
 30
0.0
  0
SPLINE
  5
303
100
AcDbEntity
  8
0
100
AcDbSpline
 62
7
  6
BYLAYER
 70
0
 71
3
 72
11
 73
7
 74
0
 42
0.0000001
 43
0.0000001
 44
0.0000000001
 40
0.0
 40
0.0
 40
0.0
 40
0.0
 40
0.2895411595
 40
0.5491183966
 40
0.7822559144
 40
1.0
 40
1.0
 40
1.0
 40
1.0
 10
12.3439851825
 20
39.2705881925
 30
0.0
 10
12.3439851825
 20
39.2199493406
 30
0.0
 10
12.3517172239
 20
39.1235924882
 30
0.0
 10
12.3906703321
 20
38.991181325
 30
0.0
 10
12.4563768966
 20
38.8837001881
 30
0.0
 10
12.5181452983
 20
38.8318911814
 30
0.0
 10
12.5511254789
 20
38.8128505018
 30
0.0
  0
SPLINE
  5
304
100
AcDbEntity
  8
0
100
AcDbSpline
 62
7
  6
BYLAYER
 70
0
 71
3
 72
11
 73
7
 74
0
 42
0.0000001
 43
0.0000001
 44
0.0000000001
 40
0.0
 40
0.0
 40
0.0
 40
0.0
 40
0.2479491859
 40
0.4956850196
 40
0.7449575083
 40
1.0
 40
1.0
 40
1.0
 40
1.0
 10
12.844122681
 20
91.2612658931
 30
0.0
 10
12.844122681
 20
91.4342889479
 30
0.0
 10
12.8993203275
 20
91.782465613
 30
0.0
 10
13.1331429399
 20
92.2544684176
 30
0.0
 10
13.4861293969
 20
92.6499384083
 30
0.0
 10
13.7757762027
 20
92.8547880561
 30
0.0
 10
13.9299054691
 20
92.9437740983
 30
0.0
  0
SPLINE
  5
305
100
AcDbEntity
  8
0
100
AcDbSpline
 62
7
  6
BYLAYER
 70
0
 71
3
 72
11
 73
7
 74
0
 42
0.0000001
 43
0.0000001
 44
0.0000000001
 40
0.0
 40
0.0
 40
0.0
 40
0.0
 40
0.2315658356
 40
0.4874218378
 40
0.749987891
 40
1.0
 40
1.0
 40
1.0
 40
1.0
 10
26.0265327515
 20
29.6972234744
 30
0.0
 10
26.2046516391
 20
29.5943888131
 30
0.0
 10
26.612799221
 20
29.434601204
 30
0.0
 10
27.2742631275
 20
29.3280625408
 30
0.0
 10
27.9603091416
 20
29.347832546
 30
0.0
 10
28.4083920505
 20
29.4490746629
 30
0.0
 10
28.6174582448
 20
29.5239105177
 30
0.0
  0
SPLINE
  5
306
100
AcDbEntity
  8
0
100
AcDbSpline
 62
7
  6
BYLAYER
 70
0
 71
3
 72
12
 73
8
 74
0
 42
0.0000001
 43
0.0000001
 44
0.0000000001
 40
0.0
 40
0.0
 40
0.0
 40
0.0
 40
0.108160862
 40
0.2183615194
 40
0.4513628574
 40
0.7104168543
 40
1.0
 40
1.0
 40
1.0
 40
1.0
 10
12.6281976991
 20
86.6888628952
 30
0.0
 10
12.6281976894
 20
86.5449860921
 30
0.0
 10
12.6532679189
 20
86.253922913
 30
0.0
 10
12.804378599
 20
85.6703707061
 30
0.0
 10
13.1925794728
 20
84.9548765306
 30
0.0
 10
13.9154776741
 20
84.1955549342
 30
0.0
 10
14.5205948187
 20
83.7788074472
 30
0.0
 10
14.8541955615
 20
83.5862073258
 30
0.0
  0
SPLINE
  5
307
100
AcDbEntity
  8
0
100
AcDbSpline
 62
7
  6
BYLAYER
 70
0
 71
3
 72
9
 73
5
 74
0
 42
0.0000001
 43
0.0000001
 44
0.0000000001
 40
0.0
 40
0.0
 40
0.0
 40
0.0
 40
0.2485108944
 40
1.0
 40
1.0
 40
1.0
 40
1.0
 10
12.6290761079
 20
87.816940501
 30
0.0
 10
12.6303391424
 20
87.8648468055
 30
0.0
 10
12.6408791709
 20
88.0574470205
 30
0.0
 10
12.6734210935
 20
88.248768102
 30
0.0
 10
12.7092045993
 20
88.3891982289
 30
0.0
  0
SPLINE
  5
308
100
AcDbEntity
  8
0
100
AcDbSpline
 62
7
  6
BYLAYER
 70
0
 71
3
 72
15
 73
11
 74
0
 42
0.0000001
 43
0.0000001
 44
0.0000000001
 40
0.0
 40
0.0
 40
0.0
 40
0.0
 40
0.1141469224
 40
0.2373360366
 40
0.366976904
 40
0.5000005214
 40
0.6330240662
 40
0.7626647219
 40
0.8858535023
 40
1.0
 40
1.0
 40
1.0
 40
1.0
 10
24.6830354608
 20
26.0638011221
 30
0.0
 10
24.8766508871
 20
25.9520197324
 30
0.0
 10
25.3000808044
 20
25.7548756906
 30
0.0
 10
25.9895582738
 20
25.5452755827
 30
0.0
 10
26.7360612261
 20
25.416337911
 30
0.0
 10
27.5114673555
 20
25.3727839175
 30
0.0
 10
28.286872865
 20
25.4163415912
 30
0.0
 10
29.0333739861
 20
25.5452828074
 30
0.0
 10
29.7228484872
 20
25.7548861929
 30
0.0
 10
30.1462758104
 20
25.9520323495
 30
0.0
 10
30.3398897103
 20
26.0638147195
 30
0.0
  0
SPLINE
  5
309
100
AcDbEntity
  8
0
100
AcDbSpline
 62
7
  6
BYLAYER
 70
0
 71
3
 72
9
 73
5
 74
0
 42
0.0000001
 43
0.0000001
 44
0.0000000001
 40
0.0
 40
0.0
 40
0.0
 40
0.0
 40
0.2454099967
 40
1.0
 40
1.0
 40
1.0
 40
1.0
 10
32.1430044952
 20
27.1048373118
 30
0.0
 10
32.17201913
 20
27.1215888191
 30
0.0
 10
32.2909804028
 20
27.1885753187
 30
0.0
 10
32.4127429235
 20
27.2505615596
 30
0.0
 10
32.5058338825
 20
27.2946792082
 30
0.0
  0
SPLINE
  5
30A
100
AcDbEntity
  8
0
100
AcDbSpline
 62
7
  6
BYLAYER
 70
0
 71
3
 72
11
 73
7
 74
0
 42
0.0000001
 43
0.0000001
 44
0.0000000001
 40
0.0
 40
0.0
 40
0.0
 40
0.0
 40
0.2177817009
 40
0.4509079353
 40
0.7102947134
 40
1.0
 40
1.0
 40
1.0
 40
1.0
 10
17.1867778387
 20
82.0347987777
 30
0.0
 10
17.1867778591
 20
81.9243423778
 30
0.0
 10
17.2275969693
 20
81.694116277
 30
0.0
 10
17.4021322045
 20
81.3733376546
 30
0.0
 10
17.678047595
 20
81.0833669423
 30
0.0
 10
17.9089118838
 20
80.9243570968
 30
0.0
 10
18.0361622401
 20
80.8508907314
 30
0.0
  0
SPLINE
  5
30B
100
AcDbEntity
  8
0
100
AcDbSpline
 62
7
  6
BYLAYER
 70
0
 71
3
 72
11
 73
7
 74
0
 42
0.0000001
 43
0.0000001
 44
0.0000000001
 40
0.0
 40
0.0
 40
0.0
 40
0.0
 40
0.2177442246
 40
0.4508817658
 40
0.7104588047
 40
1.0
 40
1.0
 40
1.0
 40
1.0
 10
95.5046522499
 20
75.2053120527
 30
0.0
 10
95.5376324419
 20
75.186271343
 30
0.0
 10
95.5994008861
 20
75.1344623409
 30
0.0
 10
95.665107396
 20
75.0269811734
 30
0.0
 10
95.7040605659
 20
74.894570056
 30
0.0
 10
95.711792547
 20
74.7982132206
 30
0.0
 10
95.711792547
 20
74.7475743616
 30
0.0
  0
SPLINE
  5
30C
100
AcDbEntity
  8
0
100
AcDbSpline
 62
7
  6
BYLAYER
 70
0
 71
3
 72
9
 73
5
 74
0
 42
0.0000001
 43
0.0000001
 44
0.0000000001
 40
0.0
 40
0.0
 40
0.0
 40
0.0
 40
0.2546982602
 40
1.0
 40
1.0
 40
1.0
 40
1.0
 10
87.1873619619
 20
73.71255611
 30
0.0
 10
87.2036562651
 20
73.7235749808
 30
0.0
 10
87.2671585562
 20
73.7675301547
 30
0.0
 10
87.3287287568
 20
73.8142930961
 30
0.0
 10
87.373252014
 20
73.8507728174
 30
0.0
  0
SPLINE
  5
30D
100
AcDbEntity
  8
0
100
AcDbSpline
 62
7
  6
BYLAYER
 70
0
 71
3
 72
11
 73
7
 74
0
 42
0.0000001
 43
0.0000001
 44
0.0000000001
 40
0.0
 40
0.0
 40
0.0
 40
0.0
 40
0.2767933483
 40
0.5331162987
 40
0.7724019556
 40
1.0
 40
1.0
 40
1.0
 40
1.0
 10
87.373252014
 20
73.8507728174
 30
0.0
 10
87.4529658829
 20
73.9160856428
 30
0.0
 10
87.5985115511
 20
74.0522818405
 30
0.0
 10
87.7751240699
 20
74.2810279413
 30
0.0
 10
87.898158079
 20
74.5224451899
 30
0.0
 10
87.9430147015
 20
74.6921224611
 30
0.0
 10
87.9551003076
 20
74.7759938493
 30
0.0
  0
SPLINE
  5
30E
100
AcDbEntity
  8
0
100
AcDbSpline
 62
7
  6
BYLAYER
 70
0
 71
3
 72
9
 73
5
 74
0
 42
0.0000001
 43
0.0000001
 44
0.0000000001
 40
0.0
 40
0.0
 40
0.0
 40
0.0
 40
0.2546982602
 40
1.0
 40
1.0
 40
1.0
 40
1.0
 10
25.8105722538
 20
62.7715108057
 30
0.0
 10
25.8268665569
 20
62.7825296765
 30
0.0
 10
25.8903688481
 20
62.8264848505
 30
0.0
 10
25.9519390486
 20
62.8732477918
 30
0.0
 10
25.9964623059
 20
62.9097275131
 30
0.0
  0
SPLINE
  5
30F
100
AcDbEntity
  8
0
100
AcDbSpline
 62
7
  6
BYLAYER
 70
0
 71
3
 72
11
 73
7
 74
0
 42
0.0000001
 43
0.0000001
 44
0.0000000001
 40
0.0
 40
0.0
 40
0.0
 40
0.0
 40
0.2792760531
 40
0.5350422531
 40
0.7725652949
 40
1.0
 40
1.0
 40
1.0
 40
1.0
 10
25.9964623059
 20
62.9097275131
 30
0.0
 10
26.0880388579
 20
62.9847599188
 30
0.0
 10
26.2530806934
 20
63.1422448965
 30
0.0
 10
26.444344883
 20
63.4109505201
 30
0.0
 10
26.5624549015
 20
63.6958202173
 30
0.0
 10
26.589494006
 20
63.8938071642
 30
0.0
 10
26.5894940106
 20
63.9902204861
 30
0.0
  0
SPLINE
  5
310
100
AcDbEntity
  8
0
100
AcDbSpline
 62
7
  6
BYLAYER
 70
0
 71
3
 72
9
 73
5
 74
0
 42
0.0000001
 43
0.0000001
 44
0.0000000001
 40
0.0
 40
0.0
 40
0.0
 40
0.0
 40
0.2832457828
 40
1.0
 40
1.0
 40
1.0
 40
1.0
 10
22.3990411085
 20
62.3980358858
 30
0.0
 10
22.4090746442
 20
62.3922431524
 30
0.0
 10
22.4430382896
 20
62.3698305878
 30
0.0
 10
22.4719232927
 20
62.3365708562
 30
0.0
 10
22.4813207777
 20
62.3088002571
 30
0.0
  0
SPLINE
  5
311
100
AcDbEntity
  8
0
100
AcDbSpline
 62
7
  6
BYLAYER
 70
0
 71
3
 72
9
 73
5
 74
0
 42
0.0000001
 43
0.0000001
 44
0.0000000001
 40
0.0
 40
0.0
 40
0.0
 40
0.0
 40
0.2546982602
 40
1.0
 40
1.0
 40
1.0
 40
1.0
 10
36.417218131
 20
56.6478994879
 30
0.0
 10
36.4335124341
 20
56.6589183587
 30
0.0
 10
36.4970147253
 20
56.7028735327
 30
0.0
 10
36.5585849258
 20
56.749636474
 30
0.0
 10
36.6031081831
 20
56.7861161953
 30
0.0
  0
SPLINE
  5
312
100
AcDbEntity
  8
0
100
AcDbSpline
 62
7
  6
BYLAYER
 70
0
 71
3
 72
11
 73
7
 74
0
 42
0.0000001
 43
0.0000001
 44
0.0000000001
 40
0.0
 40
0.0
 40
0.0
 40
0.0
 40
0.2792760531
 40
0.5350422531
 40
0.7725652949
 40
1.0
 40
1.0
 40
1.0
 40
1.0
 10
36.6031081831
 20
56.7861161953
 30
0.0
 10
36.6946847351
 20
56.861148601
 30
0.0
 10
36.8597265706
 20
57.0186335787
 30
0.0
 10
37.0509907602
 20
57.2873392023
 30
0.0
 10
37.1691007787
 20
57.5722088995
 30
0.0
 10
37.1961398832
 20
57.7701958464
 30
0.0
 10
37.1961398878
 20
57.8666091683
 30
0.0
  0
SPLINE
  5
313
100
AcDbEntity
  8
0
100
AcDbSpline
 62
7
  6
BYLAYER
 70
0
 71
3
 72
9
 73
5
 74
0
 42
0.0000001
 43
0.0000001
 44
0.0000000001
 40
0.0
 40
0.0
 40
0.0
 40
0.0
 40
0.2832457828
 40
1.0
 40
1.0
 40
1.0
 40
1.0
 10
33.0056869857
 20
56.274424568
 30
0.0
 10
33.0157205214
 20
56.2686318345
 30
0.0
 10
33.0496841668
 20
56.24621927
 30
0.0
 10
33.0785691699
 20
56.2129595384
 30
0.0
 10
33.0879666549
 20
56.1851889393
 30
0.0
  0
SPLINE
  5
314
100
AcDbEntity
  8
0
100
AcDbSpline
 62
7
  6
BYLAYER
 70
0
 71
3
 72
9
 73
5
 74
0
 42
0.0000001
 43
0.0000001
 44
0.0000000001
 40
0.0
 40
0.0
 40
0.0
 40
0.0
 40
0.2546982602
 40
1.0
 40
1.0
 40
1.0
 40
1.0
 10
47.0238640082
 20
50.5242881701
 30
0.0
 10
47.0401583113
 20
50.5353070409
 30
0.0
 10
47.1036606025
 20
50.5792622148
 30
0.0
 10
47.165230803
 20
50.6260251562
 30
0.0
 10
47.2097540603
 20
50.6625048775
 30
0.0
  0
SPLINE
  5
315
100
AcDbEntity
  8
0
100
AcDbSpline
 62
7
  6
BYLAYER
 70
0
 71
3
 72
11
 73
7
 74
0
 42
0.0000001
 43
0.0000001
 44
0.0000000001
 40
0.0
 40
0.0
 40
0.0
 40
0.0
 40
0.2792760531
 40
0.5350422531
 40
0.7725652949
 40
1.0
 40
1.0
 40
1.0
 40
1.0
 10
47.2097540603
 20
50.6625048775
 30
0.0
 10
47.3013306123
 20
50.7375372832
 30
0.0
 10
47.4663724478
 20
50.8950222609
 30
0.0
 10
47.6576366374
 20
51.1637278845
 30
0.0
 10
47.7757466559
 20
51.4485975817
 30
0.0
 10
47.8027857604
 20
51.6465845286
 30
0.0
 10
47.802785765
 20
51.7429978505
 30
0.0
  0
SPLINE
  5
316
100
AcDbEntity
  8
0
100
AcDbSpline
 62
7
  6
BYLAYER
 70
0
 71
3
 72
9
 73
5
 74
0
 42
0.0000001
 43
0.0000001
 44
0.0000000001
 40
0.0
 40
0.0
 40
0.0
 40
0.0
 40
0.2832457828
 40
1.0
 40
1.0
 40
1.0
 40
1.0
 10
43.6123328629
 20
50.1508132502
 30
0.0
 10
43.6223663986
 20
50.1450205167
 30
0.0
 10
43.656330044
 20
50.1226079522
 30
0.0
 10
43.6852150471
 20
50.0893482206
 30
0.0
 10
43.6946125321
 20
50.0615776215
 30
0.0
  0
SPLINE
  5
317
100
AcDbEntity
  8
0
100
AcDbSpline
 62
7
  6
BYLAYER
 70
0
 71
3
 72
11
 73
7
 74
0
 42
0.0000001
 43
0.0000001
 44
0.0000000001
 40
0.0
 40
0.0
 40
0.0
 40
0.0
 40
0.2895468475
 40
0.5491384346
 40
0.782278826
 40
1.0
 40
1.0
 40
1.0
 40
1.0
 10
21.3242053871
 20
75.0333088453
 30
0.0
 10
21.4009500412
 20
75.0776171275
 30
0.0
 10
21.5402179111
 20
75.173647225
 30
0.0
 10
21.7068126487
 20
75.3485420874
 30
0.0
 10
21.8121890303
 20
75.5421669638
 30
0.0
 10
21.8366901908
 20
75.6810956939
 30
0.0
 10
21.8366914054
 20
75.7477301227
 30
0.0
  0
SPLINE
  5
318
100
AcDbEntity
  8
0
100
AcDbSpline
 62
7
  6
BYLAYER
 70
0
 71
3
 72
11
 73
7
 74
0
 42
0.0000001
 43
0.0000001
 44
0.0000000001
 40
0.0
 40
0.0
 40
0.0
 40
0.0
 40
0.2895396729
 40
0.5491163863
 40
0.7822545095
 40
1.0
 40
1.0
 40
1.0
 40
1.0
 10
95.0046887097
 20
75.1558326249
 30
0.0
 10
95.048541345
 20
75.1811508045
 30
0.0
 10
95.1358511526
 20
75.2226310921
 30
0.0
 10
95.2699935606
 20
75.25510092
 30
0.0
 10
95.3959234448
 20
75.2519385772
 30
0.0
 10
95.4716731731
 20
75.2243521185
 30
0.0
 10
95.5046522499
 20
75.2053120527
 30
0.0
  0
SPLINE
  5
319
100
AcDbEntity
  8
0
100
AcDbSpline
 62
7
  6
BYLAYER
 70
0
 71
3
 72
9
 73
5
 74
0
 42
0.0000001
 43
0.0000001
 44
0.0000000001
 40
0.0
 40
0.0
 40
0.0
 40
0.0
 40
0.2354281955
 40
1.0
 40
1.0
 40
1.0
 40
1.0
 10
20.4829009689
 20
63.1704245419
 30
0.0
 10
20.5209216691
 20
63.2108838461
 30
0.0
 10
20.6899833731
 20
63.3756130375
 30
0.0
 10
20.8852364404
 20
63.5121946018
 30
0.0
 10
21.0413874039
 20
63.6023478623
 30
0.0
  0
SPLINE
  5
31A
100
AcDbEntity
  8
0
100
AcDbSpline
 62
7
  6
BYLAYER
 70
0
 71
3
 72
11
 73
7
 74
0
 42
0.0000001
 43
0.0000001
 44
0.0000000001
 40
0.0
 40
0.0
 40
0.0
 40
0.0
 40
0.2177842323
 40
0.4509131322
 40
0.7102976887
 40
1.0
 40
1.0
 40
1.0
 40
1.0
 10
26.5894940106
 20
63.9902204861
 30
0.0
 10
26.5894940166
 20
64.1140099768
 30
0.0
 10
26.5437450207
 20
64.3720265516
 30
0.0
 10
26.3481362352
 20
64.7315194093
 30
0.0
 10
26.0389176013
 20
65.0564849232
 30
0.0
 10
25.7801889895
 20
65.2346813657
 30
0.0
 10
25.6375814816
 20
65.3170139862
 30
0.0
  0
SPLINE
  5
31B
100
AcDbEntity
  8
0
100
AcDbSpline
 62
7
  6
BYLAYER
 70
0
 71
3
 72
9
 73
5
 74
0
 42
0.0000001
 43
0.0000001
 44
0.0000000001
 40
0.0
 40
0.0
 40
0.0
 40
0.0
 40
0.2561442338
 40
1.0
 40
1.0
 40
1.0
 40
1.0
 10
87.3679451881
 20
73.8086141695
 30
0.0
 10
87.3963476979
 20
73.8250122674
 30
0.0
 10
87.5063220037
 20
73.8905871247
 30
0.0
 10
87.6125705417
 20
73.9624754108
 30
0.0
 10
87.6887359213
 20
74.0196586118
 30
0.0
  0
SPLINE
  5
31C
100
AcDbEntity
  8
0
100
AcDbSpline
 62
7
  6
BYLAYER
 70
0
 71
3
 72
9
 73
5
 74
0
 42
0.0000001
 43
0.0000001
 44
0.0000000001
 40
0.0
 40
0.0
 40
0.0
 40
0.0
 40
0.2691354304
 40
1.0
 40
1.0
 40
1.0
 40
1.0
 10
87.6887359213
 20
74.0196586118
 30
0.0
 10
87.7513545096
 20
74.0666711961
 30
0.0
 10
87.9766912857
 20
74.2503725708
 30
0.0
 10
88.1712603479
 20
74.4756621814
 30
0.0
 10
88.2768975633
 20
74.6602042668
 30
0.0
  0
SPLINE
  5
31D
100
AcDbEntity
  8
0
100
AcDbSpline
 62
7
  6
BYLAYER
 70
0
 71
3
 72
21
 73
17
 74
0
 42
0.0000001
 43
0.0000001
 44
0.0000000001
 40
0.0
 40
0.0
 40
0.0
 40
0.0
 40
0.0513402466
 40
0.1020283904
 40
0.1530152222
 40
0.2053565692
 40
0.3178649799
 40
0.3795054812
 40
0.4448282735
 40
0.5134313029
 40
0.5844275267
 40
0.7291794436
 40
0.8006440933
 40
0.8701489605
 40
0.9368456413
 40
1.0
 40
1.0
 40
1.0
 40
1.0
 10
35.1300879221
 20
96.6258898666
 30
0.0
 10
34.932552732
 20
96.8930582858
 30
0.0
 10
34.5671752507
 20
97.4449747635
 30
0.0
 10
34.1201835379
 20
98.3313113836
 30
0.0
 10
33.7858518195
 20
99.2732483064
 30
0.0
 10
33.4877259521
 20
100.6413946102
 30
0.0
 10
33.4445310186
 20
102.1197093987
 30
0.0
 10
33.599155516
 20
103.6621198108
 30
0.0
 10
33.8079153253
 20
104.9113834527
 30
0.0
 10
34.088805398
 20
106.207747587
 30
0.0
 10
34.5263829845
 20
107.9952944605
 30
0.0
 10
34.9935461087
 20
109.7946307982
 30
0.0
 10
35.393147498
 20
111.6003693033
 30
0.0
 10
35.6345066704
 20
112.9229785073
 30
0.0
 10
35.7984299977
 20
114.2033837518
 30
0.0
 10
35.8519977603
 20
115.0428994622
 30
0.0
 10
35.8614991048
 20
115.4515111634
 30
0.0
  0
SPLINE
  5
31E
100
AcDbEntity
  8
0
100
AcDbSpline
 62
7
  6
BYLAYER
 70
0
 71
3
 72
16
 73
12
 74
0
 42
0.0000001
 43
0.0000001
 44
0.0000000001
 40
0.0
 40
0.0
 40
0.0
 40
0.0
 40
0.1113612032
 40
0.1701064569
 40
0.2302881358
 40
0.3533143257
 40
0.4787664518
 40
0.6064227824
 40
0.7364535535
 40
0.8681664368
 40
1.0
 40
1.0
 40
1.0
 40
1.0
 10
63.7090334864
 20
99.3740934035
 30
0.0
 10
63.6793821025
 20
98.5560490355
 30
0.0
 10
63.4774588898
 20
97.3075401402
 30
0.0
 10
62.9394042805
 20
95.7001677965
 30
0.0
 10
62.1861229312
 20
94.0852750438
 30
0.0
 10
60.860224935
 20
92.2122448306
 30
0.0
 10
58.6967379086
 20
90.4348332486
 30
0.0
 10
56.0848449798
 20
89.2945447659
 30
0.0
 10
53.2381587275
 20
88.8197519373
 30
0.0
 10
50.3326664763
 20
88.9109586722
 30
0.0
 10
48.4212058489
 20
89.2637789544
 30
0.0
 10
47.4802893128
 20
89.4956581054
 30
0.0
  0
SPLINE
  5
31F
100
AcDbEntity
  8
0
100
AcDbSpline
 62
7
  6
BYLAYER
 70
0
 71
3
 72
13
 73
9
 74
0
 42
0.0000001
 43
0.0000001
 44
0.0000000001
 40
0.0
 40
0.0
 40
0.0
 40
0.0
 40
0.2884116428
 40
0.4244941501
 40
0.5540205336
 40
0.6764396256
 40
0.7915038141
 40
1.0
 40
1.0
 40
1.0
 40
1.0
 10
47.4802897612
 20
89.495658712
 30
0.0
 10
46.1010805403
 20
89.7715467501
 30
0.0
 10
44.0929617625
 20
90.3155784837
 30
0.0
 10
41.5875722607
 20
91.3337910175
 30
0.0
 10
39.9011189914
 20
92.1978584172
 30
0.0
 10
38.3919435054
 20
93.1673546695
 30
0.0
 10
36.6998257198
 20
94.5360986136
 30
0.0
 10
35.6533121297
 20
95.7540436815
 30
0.0
 10
35.1300877938
 20
96.625889835
 30
0.0
  0
SPLINE
  5
320
100
AcDbEntity
  8
0
100
AcDbSpline
 62
7
  6
BYLAYER
 70
0
 71
3
 72
11
 73
7
 74
0
 42
0.0000001
 43
0.0000001
 44
0.0000000001
 40
0.0
 40
0.0
 40
0.0
 40
0.0
 40
0.2895649585
 40
0.5491125837
 40
0.7822453718
 40
1.0
 40
1.0
 40
1.0
 40
1.0
 10
46.6261326561
 20
131.8137638251
 30
0.0
 10
46.7138458683
 20
131.8644047695
 30
0.0
 10
46.8884592111
 20
131.9473809713
 30
0.0
 10
47.1567476802
 20
132.0122932492
 30
0.0
 10
47.4085993589
 20
132.0059774064
 30
0.0
 10
47.560097637
 20
131.9508026568
 30
0.0
 10
47.62606543
 20
131.9127323411
 30
0.0
  0
SPLINE
  5
321
100
AcDbEntity
  8
0
100
AcDbSpline
 62
7
  6
BYLAYER
 70
0
 71
3
 72
18
 73
14
 74
0
 42
0.0000001
 43
0.0000001
 44
0.0000000001
 40
0.0
 40
0.0
 40
0.0
 40
0.0
 40
0.1928050509
 40
0.3704495955
 40
0.5304822559
 40
0.6700712104
 40
0.7866066517
 40
0.8356467837
 40
0.8783787634
 40
0.9150737092
 40
0.946472866
 40
0.9739928701
 40
1.0
 40
1.0
 40
1.0
 40
1.0
 10
72.9256897736
 20
104.18647962
 30
0.0
 10
73.1244256956
 20
103.9176875282
 30
0.0
 10
73.4862538103
 20
103.3859642687
 30
0.0
 10
73.9371287367
 20
102.5829631535
 30
0.0
 10
74.2718257489
 20
101.8245208651
 30
0.0
 10
74.488940737
 20
101.1348294377
 30
0.0
 10
74.5766513284
 20
100.6101234681
 30
0.0
 10
74.5808752601
 20
100.2482767712
 30
0.0
 10
74.5552058265
 20
100.0262472294
 30
0.0
 10
74.5017041941
 20
99.8405350157
 30
0.0
 10
74.4216238262
 20
99.6933867207
 30
0.0
 10
74.3147456075
 20
99.5881533248
 30
0.0
 10
74.2266338266
 20
99.5512385718
 30
0.0
 10
74.182498468
 20
99.542005241
 30
0.0
  0
SPLINE
  5
322
100
AcDbEntity
  8
0
100
AcDbSpline
 62
7
  6
BYLAYER
 70
0
 71
3
 72
9
 73
5
 74
0
 42
0.0000001
 43
0.0000001
 44
0.0000000001
 40
0.0
 40
0.0
 40
0.0
 40
0.0
 40
0.4612374451
 40
1.0
 40
1.0
 40
1.0
 40
1.0
 10
74.182498468
 20
99.542005241
 30
0.0
 10
74.1300001397
 20
99.5310223364
 30
0.0
 10
74.0104602629
 20
99.5327078453
 30
0.0
 10
73.8997130129
 20
99.5731985756
 30
0.0
 10
73.8434740358
 20
99.6008062029
 30
0.0
  0
SPLINE
  5
323
100
AcDbEntity
  8
0
100
AcDbSpline
 62
7
  6
BYLAYER
 70
0
 71
3
 72
11
 73
7
 74
0
 42
0.0000001
 43
0.0000001
 44
0.0000000001
 40
0.0
 40
0.0
 40
0.0
 40
0.0
 40
0.2177137991
 40
0.4508430819
 40
0.7104430589
 40
1.0
 40
1.0
 40
1.0
 40
1.0
 10
43.4655360641
 20
134.3147774838
 30
0.0
 10
43.3995857421
 20
134.3528447945
 30
0.0
 10
43.2481015813
 20
134.4079980504
 30
0.0
 10
42.9962550866
 20
134.4143285915
 30
0.0
 10
42.7279703831
 20
134.3493705928
 30
0.0
 10
42.5533405536
 20
134.2664133588
 30
0.0
 10
42.4656324799
 20
134.2157753811
 30
0.0
  0
SPLINE
  5
324
100
AcDbEntity
  8
0
100
AcDbSpline
 62
7
  6
BYLAYER
 70
0
 71
3
 72
9
 73
5
 74
0
 42
0.0000001
 43
0.0000001
 44
0.0000000001
 40
0.0
 40
0.0
 40
0.0
 40
0.0
 40
0.2646601633
 40
1.0
 40
1.0
 40
1.0
 40
1.0
 10
44.6742221186
 20
131.5310596035
 30
0.0
 10
44.6932654184
 20
131.5276777024
 30
0.0
 10
44.7646452886
 20
131.5121853682
 30
0.0
 10
44.8342319766
 20
131.4861438624
 30
0.0
 10
44.8807697693
 20
131.4592729685
 30
0.0
  0
SPLINE
  5
325
100
AcDbEntity
  8
0
100
AcDbSpline
 62
7
  6
BYLAYER
 70
0
 71
3
 72
9
 73
5
 74
0
 42
0.0000001
 43
0.0000001
 44
0.0000000001
 40
0.0
 40
0.0
 40
0.0
 40
0.0
 40
0.2575332496
 40
1.0
 40
1.0
 40
1.0
 40
1.0
 10
44.8807697693
 20
131.4592729685
 30
0.0
 10
44.8850781493
 20
131.4567853125
 30
0.0
 10
44.9016517484
 20
131.4468603856
 30
0.0
 10
44.9175861824
 20
131.4358528011
 30
0.0
 10
44.9289008814
 20
131.4270382823
 30
0.0
  0
SPLINE
  5
326
100
AcDbEntity
  8
0
100
AcDbSpline
 62
7
  6
BYLAYER
 70
0
 71
3
 72
11
 73
7
 74
0
 42
0.0000001
 43
0.0000001
 44
0.0000000001
 40
0.0
 40
0.0
 40
0.0
 40
0.0
 40
0.2800843216
 40
0.5392202215
 40
0.7781261243
 40
1.0
 40
1.0
 40
1.0
 40
1.0
 10
14.8541955615
 20
84.647660468
 30
0.0
 10
14.6112705402
 20
84.7879101216
 30
0.0
 10
14.1586713228
 20
85.0857063606
 30
0.0
 10
13.5717602944
 20
85.6028953764
 30
0.0
 10
13.1143905481
 20
86.1649314133
 30
0.0
 10
12.8961984885
 20
86.576129382
 30
0.0
 10
12.8151748264
 20
86.7830371957
 30
0.0
  0
SPLINE
  5
327
100
AcDbEntity
  8
0
100
AcDbSpline
 62
7
  6
BYLAYER
 70
0
 71
3
 72
9
 73
5
 74
0
 42
0.0000001
 43
0.0000001
 44
0.0000000001
 40
0.0
 40
0.0
 40
0.0
 40
0.0
 40
0.5059347374
 40
1.0
 40
1.0
 40
1.0
 40
1.0
 10
12.8151748264
 20
86.7830371957
 30
0.0
 10
12.7543253992
 20
86.9384266411
 30
0.0
 10
12.6604472913
 20
87.2567684831
 30
0.0
 10
12.6281977029
 20
87.5873522992
 30
0.0
 10
12.6281976991
 20
87.7503160375
 30
0.0
  0
SPLINE
  5
328
100
AcDbEntity
  8
0
100
AcDbSpline
 62
7
  6
BYLAYER
 70
0
 71
3
 72
25
 73
21
 74
0
 42
0.0000001
 43
0.0000001
 44
0.0000000001
 40
0.0
 40
0.0
 40
0.0
 40
0.0
 40
0.0213321187
 40
0.0428927505
 40
0.0648979691
 40
0.0875430291
 40
0.1353181513
 40
0.1872189177
 40
0.2436562955
 40
0.3046038675
 40
0.369691379
 40
0.4382885288
 40
0.5095749619
 40
0.5825992602
 40
0.6563312663
 40
0.7297076304
 40
0.8016841442
 40
0.8712751014
 40
0.9376185773
 40
1.0
 40
1.0
 40
1.0
 40
1.0
 10
31.5279294337
 20
92.0778598932
 30
0.0
 10
31.5279086066
 20
91.7586681651
 30
0.0
 10
31.5691114422
 20
91.1161210478
 30
0.0
 10
31.7537603008
 20
90.1603385665
 30
0.0
 10
32.0599423215
 20
89.2155503423
 30
0.0
 10
32.6377285436
 20
87.9561138148
 30
0.0
 10
33.6743507589
 20
86.4306412604
 30
0.0
 10
35.3303896182
 20
84.7680006763
 30
0.0
 10
37.382667202
 20
83.2682644309
 30
0.0
 10
39.7872322209
 20
81.9604852762
 30
0.0
 10
42.4938076493
 20
80.8700996274
 30
0.0
 10
45.4455083161
 20
80.0194414377
 30
0.0
 10
48.5799398252
 20
79.4262254541
 30
0.0
 10
51.8305173851
 20
79.1029796763
 30
0.0
 10
55.1279560915
 20
79.0566011573
 30
0.0
 10
58.4019433564
 20
79.28802236
 30
0.0
 10
61.5825812385
 20
79.792403126
 30
0.0
 10
64.602547021
 20
80.5589845953
 30
0.0
 10
67.3970820508
 20
81.571598121
 30
0.0
 10
69.1294988408
 20
82.4257397082
 30
0.0
 10
69.9378576805
 20
82.892443116
 30
0.0
  0
SPLINE
  5
329
100
AcDbEntity
  8
0
100
AcDbSpline
 62
7
  6
BYLAYER
 70
0
 71
3
 72
9
 73
5
 74
0
 42
0.0000001
 43
0.0000001
 44
0.0000000001
 40
0.0
 40
0.0
 40
0.0
 40
0.0
 40
0.2356587575
 40
1.0
 40
1.0
 40
1.0
 40
1.0
 10
40.5686432755
 20
132.0994831611
 30
0.0
 10
40.5795067708
 20
132.1057551656
 30
0.0
 10
40.6266893488
 20
132.1304800507
 30
0.0
 10
40.6773523222
 20
132.1482621951
 30
0.0
 10
40.7167215691
 20
132.1585281699
 30
0.0
  0
SPLINE
  5
32A
100
AcDbEntity
  8
0
100
AcDbSpline
 62
7
  6
BYLAYER
 70
0
 71
3
 72
9
 73
5
 74
0
 42
0.0000001
 43
0.0000001
 44
0.0000000001
 40
0.0
 40
0.0
 40
0.0
 40
0.0
 40
0.2451651578
 40
1.0
 40
1.0
 40
1.0
 40
1.0
 10
40.7167215691
 20
132.1585281699
 30
0.0
 10
40.7447307583
 20
132.1658318816
 30
0.0
 10
40.860676169
 20
132.1886956703
 30
0.0
 10
40.9814527731
 20
132.1868588038
 30
0.0
 10
41.0692005176
 20
132.1712756749
 30
0.0
  0
SPLINE
  5
32B
100
AcDbEntity
  8
0
100
AcDbSpline
 62
7
  6
BYLAYER
 70
0
 71
3
 72
15
 73
11
 74
0
 42
0.0000001
 43
0.0000001
 44
0.0000000001
 40
0.0
 40
0.0
 40
0.0
 40
0.0
 40
0.1141545727
 40
0.2373261359
 40
0.366975604
 40
0.4999994966
 40
0.6330234588
 40
0.7626731321
 40
0.8858450149
 40
1.0
 40
1.0
 40
1.0
 40
1.0
 10
59.4020634974
 20
65.133778237
 30
0.0
 10
59.0341703818
 20
64.9213763156
 30
0.0
 10
58.2297056109
 20
64.5467676496
 30
0.0
 10
56.9196810654
 20
64.1485986236
 30
0.0
 10
55.501374331
 20
63.9035102805
 30
0.0
 10
54.0280608325
 20
63.8208182478
 30
0.0
 10
52.5547461826
 20
63.9035033242
 30
0.0
 10
51.1364360644
 20
64.148584965
 30
0.0
 10
49.8264060025
 20
64.5467477447
 30
0.0
 10
49.0219363999
 20
64.9213523661
 30
0.0
 10
48.6540404235
 20
65.133752402
 30
0.0
  0
SPLINE
  5
32C
100
AcDbEntity
  8
0
100
AcDbSpline
 62
7
  6
BYLAYER
 70
0
 71
3
 72
11
 73
7
 74
0
 42
0.0000001
 43
0.0000001
 44
0.0000000001
 40
0.0
 40
0.0
 40
0.0
 40
0.0
 40
0.217784692
 40
0.450913785
 40
0.7102981701
 40
1.0
 40
1.0
 40
1.0
 40
1.0
 10
95.2116550485
 20
91.2614494581
 30
0.0
 10
95.211655043
 20
91.1471834666
 30
0.0
 10
95.1694261926
 20
90.9090170664
 30
0.0
 10
94.9888681255
 20
90.5771807201
 30
0.0
 10
94.7034413387
 20
90.2772147763
 30
0.0
 10
94.46461946
 20
90.1127263799
 30
0.0
 10
94.3329842227
 20
90.0367271938
 30
0.0
  0
SPLINE
  5
32D
100
AcDbEntity
  8
0
100
AcDbSpline
 62
7
  6
BYLAYER
 70
0
 71
3
 72
11
 73
7
 74
0
 42
0.0000001
 43
0.0000001
 44
0.0000000001
 40
0.0
 40
0.0
 40
0.0
 40
0.0
 40
0.2897048043
 40
0.5490913404
 40
0.7822177947
 40
1.0
 40
1.0
 40
1.0
 40
1.0
 10
94.3329842239
 20
86.5257668009
 30
0.0
 10
94.4646200611
 20
86.6017663332
 30
0.0
 10
94.7034406528
 20
86.7662585883
 30
0.0
 10
94.9888645333
 20
87.0662260816
 30
0.0
 10
95.1694143227
 20
87.3980628057
 30
0.0
 10
95.2116401
 20
87.63622503
 30
0.0
 10
95.2116400789
 20
87.7504890644
 30
0.0
  0
SPLINE
  5
32E
100
AcDbEntity
  8
0
100
AcDbSpline
 62
7
  6
BYLAYER
 70
0
 71
3
 72
15
 73
11
 74
0
 42
0.0000001
 43
0.0000001
 44
0.0000000001
 40
0.0
 40
0.0
 40
0.0
 40
0.0
 40
0.1518380543
 40
0.2927371998
 40
0.4227708462
 40
0.5435605746
 40
0.6578489414
 40
0.7692898782
 40
0.882039554
 40
1.0
 40
1.0
 40
1.0
 40
1.0
 10
20.6878325413
 20
65.9293745241
 30
0.0
 10
20.5702682868
 20
65.8614991791
 30
0.0
 10
20.3508562911
 20
65.7173271148
 30
0.0
 10
20.0650987798
 20
65.4678711836
 30
0.0
 10
19.8407316022
 20
65.1966258396
 30
0.0
 10
19.6825728516
 20
64.9084944417
 30
0.0
 10
19.5949927711
 20
64.6084994408
 30
0.0
 10
19.5808848263
 20
64.3032088779
 30
0.0
 10
19.6411174501
 20
64.0004848704
 30
0.0
 10
19.7264796477
 20
63.8107017883
 30
0.0
 10
19.7788719889
 20
63.7191732697
 30
0.0
  0
SPLINE
  5
32F
100
AcDbEntity
  8
0
100
AcDbSpline
 62
7
  6
BYLAYER
 70
0
 71
3
 72
10
 73
6
 74
0
 42
0.0000001
 43
0.0000001
 44
0.0000000001
 40
0.0
 40
0.0
 40
0.0
 40
0.0
 40
0.2260108834
 40
0.5941843423
 40
1.0
 40
1.0
 40
1.0
 40
1.0
 10
19.7788719889
 20
63.7191732697
 30
0.0
 10
19.8259586341
 20
63.6369137108
 30
0.0
 10
19.968691381
 20
63.431179006
 30
0.0
 10
20.270303514
 20
63.1356118335
 30
0.0
 10
20.5404005859
 20
62.9526912282
 30
0.0
 10
20.6877867234
 20
62.8675953186
 30
0.0
  0
SPLINE
  5
330
100
AcDbEntity
  8
0
100
AcDbSpline
 62
7
  6
BYLAYER
 70
0
 71
3
 72
9
 73
5
 74
0
 42
0.0000001
 43
0.0000001
 44
0.0000000001
 40
0.0
 40
0.0
 40
0.0
 40
0.0
 40
0.2561442338
 40
1.0
 40
1.0
 40
1.0
 40
1.0
 10
25.9911554799
 20
62.8675688652
 30
0.0
 10
26.0195579897
 20
62.8839669631
 30
0.0
 10
26.1295322955
 20
62.9495418204
 30
0.0
 10
26.2357808335
 20
63.0214301065
 30
0.0
 10
26.3119462131
 20
63.0786133075
 30
0.0
  0
SPLINE
  5
331
100
AcDbEntity
  8
0
100
AcDbSpline
 62
7
  6
BYLAYER
 70
0
 71
3
 72
9
 73
5
 74
0
 42
0.0000001
 43
0.0000001
 44
0.0000000001
 40
0.0
 40
0.0
 40
0.0
 40
0.0
 40
0.2691354304
 40
1.0
 40
1.0
 40
1.0
 40
1.0
 10
26.3119462131
 20
63.0786133075
 30
0.0
 10
26.3745648015
 20
63.1256258918
 30
0.0
 10
26.5999015775
 20
63.3093272665
 30
0.0
 10
26.7944706397
 20
63.5346168771
 30
0.0
 10
26.9001078551
 20
63.7191589625
 30
0.0
  0
SPLINE
  5
332
100
AcDbEntity
  8
0
100
AcDbSpline
 62
7
  6
BYLAYER
 70
0
 71
3
 72
15
 73
11
 74
0
 42
0.0000001
 43
0.0000001
 44
0.0000000001
 40
0.0
 40
0.0
 40
0.0
 40
0.0
 40
0.1179605077
 40
0.2307100605
 40
0.342150772
 40
0.4564389116
 40
0.5772285176
 40
0.7072622214
 40
0.8481616145
 40
1.0
 40
1.0
 40
1.0
 40
1.0
 10
26.9001078551
 20
63.7191589625
 30
0.0
 10
26.9525019626
 20
63.8106884278
 30
0.0
 10
27.0378672737
 20
64.0004736339
 30
0.0
 10
27.0981030398
 20
64.3032017327
 30
0.0
 10
27.0839960103
 20
64.6084966713
 30
0.0
 10
26.9964148989
 20
64.9084959815
 30
0.0
 10
26.8382530358
 20
65.196631285
 30
0.0
 10
26.6138810014
 20
65.4678799892
 30
0.0
 10
26.3281170592
 20
65.7173384441
 30
0.0
 10
26.1087002315
 20
65.8615115655
 30
0.0
 10
25.9911334002
 20
65.9293872717
 30
0.0
  0
SPLINE
  5
333
100
AcDbEntity
  8
0
100
AcDbSpline
 62
7
  6
BYLAYER
 70
0
 71
3
 72
15
 73
11
 74
0
 42
0.0000001
 43
0.0000001
 44
0.0000000001
 40
0.0
 40
0.0
 40
0.0
 40
0.0
 40
0.1141236058
 40
0.2373475862
 40
0.3669728832
 40
0.5000004527
 40
0.6330279586
 40
0.7626530686
 40
0.8858767803
 40
1.0
 40
1.0
 40
1.0
 40
1.0
 10
25.9911334002
 20
65.9293872717
 30
0.0
 10
25.8096564388
 20
66.0341606739
 30
0.0
 10
25.4126503652
 20
66.2189388948
 30
0.0
 10
24.7662988137
 20
66.4155140375
 30
0.0
 10
24.0664038655
 20
66.5363645738
 30
0.0
 10
23.3394788643
 20
66.5772344502
 30
0.0
 10
22.6125543953
 20
66.5363612061
 30
0.0
 10
21.9126609665
 20
66.415507399
 30
0.0
 10
21.2663119766
 20
66.2189291044
 30
0.0
 10
20.8693081357
 20
66.0341488761
 30
0.0
 10
20.6878325413
 20
65.9293745241
 30
0.0
  0
SPLINE
  5
334
100
AcDbEntity
  8
0
100
AcDbSpline
 62
7
  6
BYLAYER
 70
0
 71
3
 72
15
 73
11
 74
0
 42
0.0000001
 43
0.0000001
 44
0.0000000001
 40
0.0
 40
0.0
 40
0.0
 40
0.0
 40
0.1518380543
 40
0.2927371998
 40
0.4227708462
 40
0.5435605746
 40
0.6578489414
 40
0.7692898782
 40
0.882039554
 40
1.0
 40
1.0
 40
1.0
 40
1.0
 10
31.2944784185
 20
59.8057632063
 30
0.0
 10
31.176914164
 20
59.7378878612
 30
0.0
 10
30.9575021683
 20
59.593715797
 30
0.0
 10
30.671744657
 20
59.3442598658
 30
0.0
 10
30.4473774794
 20
59.0730145218
 30
0.0
 10
30.2892187288
 20
58.7848831239
 30
0.0
 10
30.2016386483
 20
58.4848881229
 30
0.0
 10
30.1875307035
 20
58.1795975601
 30
0.0
 10
30.2477633273
 20
57.8768735526
 30
0.0
 10
30.3331255249
 20
57.6870904705
 30
0.0
 10
30.3855178661
 20
57.5955619519
 30
0.0
  0
SPLINE
  5
335
100
AcDbEntity
  8
0
100
AcDbSpline
 62
7
  6
BYLAYER
 70
0
 71
3
 72
10
 73
6
 74
0
 42
0.0000001
 43
0.0000001
 44
0.0000000001
 40
0.0
 40
0.0
 40
0.0
 40
0.0
 40
0.2260108834
 40
0.5941843423
 40
1.0
 40
1.0
 40
1.0
 40
1.0
 10
30.3855178661
 20
57.5955619519
 30
0.0
 10
30.4326045113
 20
57.5133023929
 30
0.0
 10
30.5753372582
 20
57.3075676882
 30
0.0
 10
30.8769493912
 20
57.0120005157
 30
0.0
 10
31.1470464631
 20
56.8290799104
 30
0.0
 10
31.2944326006
 20
56.7439840008
 30
0.0
  0
SPLINE
  5
336
100
AcDbEntity
  8
0
100
AcDbSpline
 62
7
  6
BYLAYER
 70
0
 71
3
 72
15
 73
11
 74
0
 42
0.0000001
 43
0.0000001
 44
0.0000000001
 40
0.0
 40
0.0
 40
0.0
 40
0.0
 40
0.1141236058
 40
0.2373475862
 40
0.3669728832
 40
0.5000004526
 40
0.6330279586
 40
0.7626530685
 40
0.8858767805
 40
1.0
 40
1.0
 40
1.0
 40
1.0
 10
51.9067363273
 20
64.4805722938
 30
0.0
 10
52.0519178963
 20
64.3967535719
 30
0.0
 10
52.3695227553
 20
64.2489309953
 30
0.0
 10
52.8866039964
 20
64.0916708811
 30
0.0
 10
53.446519955
 20
63.994990452
 30
0.0
 10
54.028059956
 20
63.9622945511
 30
0.0
 10
54.6095995311
 20
63.9949931457
 30
0.0
 10
55.1695142743
 20
64.091676193
 30
0.0
 10
55.6865934662
 20
64.2489388272
 30
0.0
 10
56.0041965412
 20
64.3967630069
 30
0.0
 10
56.1493770143
 20
64.4805824918
 30
0.0
  0
SPLINE
  5
337
100
AcDbEntity
  8
0
100
AcDbSpline
 62
7
  6
BYLAYER
 70
0
 71
3
 72
9
 73
5
 74
0
 42
0.0000001
 43
0.0000001
 44
0.0000000001
 40
0.0
 40
0.0
 40
0.0
 40
0.0
 40
0.2561442338
 40
1.0
 40
1.0
 40
1.0
 40
1.0
 10
36.5978013571
 20
56.7439575474
 30
0.0
 10
36.626203867
 20
56.7603556453
 30
0.0
 10
36.7361781727
 20
56.8259305026
 30
0.0
 10
36.8424267107
 20
56.8978187887
 30
0.0
 10
36.9185920903
 20
56.9550019897
 30
0.0
  0
SPLINE
  5
338
100
AcDbEntity
  8
0
100
AcDbSpline
 62
7
  6
BYLAYER
 70
0
 71
3
 72
9
 73
5
 74
0
 42
0.0000001
 43
0.0000001
 44
0.0000000001
 40
0.0
 40
0.0
 40
0.0
 40
0.0
 40
0.2691354304
 40
1.0
 40
1.0
 40
1.0
 40
1.0
 10
36.9185920903
 20
56.9550019897
 30
0.0
 10
36.9812106787
 20
57.002014574
 30
0.0
 10
37.2065474547
 20
57.1857159487
 30
0.0
 10
37.4011165169
 20
57.4110055593
 30
0.0
 10
37.5067537323
 20
57.5955476447
 30
0.0
  0
SPLINE
  5
339
100
AcDbEntity
  8
0
100
AcDbSpline
 62
7
  6
BYLAYER
 70
0
 71
3
 72
15
 73
11
 74
0
 42
0.0000001
 43
0.0000001
 44
0.0000000001
 40
0.0
 40
0.0
 40
0.0
 40
0.0
 40
0.1179605077
 40
0.2307100605
 40
0.342150772
 40
0.4564389116
 40
0.5772285176
 40
0.7072622214
 40
0.8481616145
 40
1.0
 40
1.0
 40
1.0
 40
1.0
 10
37.5067537323
 20
57.5955476447
 30
0.0
 10
37.5591478398
 20
57.68707711
 30
0.0
 10
37.6445131509
 20
57.8768623161
 30
0.0
 10
37.704748917
 20
58.1795904149
 30
0.0
 10
37.6906418875
 20
58.4848853535
 30
0.0
 10
37.6030607761
 20
58.7848846637
 30
0.0
 10
37.444898913
 20
59.0730199672
 30
0.0
 10
37.2205268786
 20
59.3442686714
 30
0.0
 10
36.9347629364
 20
59.5937271262
 30
0.0
 10
36.7153461088
 20
59.7379002477
 30
0.0
 10
36.5977792774
 20
59.8057759539
 30
0.0
  0
SPLINE
  5
33A
100
AcDbEntity
  8
0
100
AcDbSpline
 62
7
  6
BYLAYER
 70
0
 71
3
 72
15
 73
11
 74
0
 42
0.0000001
 43
0.0000001
 44
0.0000000001
 40
0.0
 40
0.0
 40
0.0
 40
0.0
 40
0.1141236058
 40
0.2373475862
 40
0.3669728832
 40
0.5000004527
 40
0.6330279586
 40
0.7626530686
 40
0.8858767803
 40
1.0
 40
1.0
 40
1.0
 40
1.0
 10
36.5977792774
 20
59.8057759539
 30
0.0
 10
36.416302316
 20
59.9105493561
 30
0.0
 10
36.0192962424
 20
60.095327577
 30
0.0
 10
35.3729446909
 20
60.2919027197
 30
0.0
 10
34.6730497427
 20
60.412753256
 30
0.0
 10
33.9461247415
 20
60.4536231324
 30
0.0
 10
33.2192002725
 20
60.4127498883
 30
0.0
 10
32.5193068437
 20
60.2918960812
 30
0.0
 10
31.8729578538
 20
60.0953177865
 30
0.0
 10
31.4759540129
 20
59.9105375583
 30
0.0
 10
31.2944784185
 20
59.8057632063
 30
0.0
  0
SPLINE
  5
33B
100
AcDbEntity
  8
0
100
AcDbSpline
 62
7
  6
BYLAYER
 70
0
 71
3
 72
15
 73
11
 74
0
 42
0.0000001
 43
0.0000001
 44
0.0000000001
 40
0.0
 40
0.0
 40
0.0
 40
0.0
 40
0.1518380543
 40
0.2927371998
 40
0.4227708462
 40
0.5435605746
 40
0.6578489414
 40
0.7692898782
 40
0.882039554
 40
1.0
 40
1.0
 40
1.0
 40
1.0
 10
41.9011242957
 20
53.6821518885
 30
0.0
 10
41.7835600412
 20
53.6142765434
 30
0.0
 10
41.5641480455
 20
53.4701044792
 30
0.0
 10
41.2783905342
 20
53.2206485479
 30
0.0
 10
41.0540233566
 20
52.9494032039
 30
0.0
 10
40.895864606
 20
52.6612718061
 30
0.0
 10
40.8082845255
 20
52.3612768051
 30
0.0
 10
40.7941765807
 20
52.0559862423
 30
0.0
 10
40.8544092045
 20
51.7532622348
 30
0.0
 10
40.9397714021
 20
51.5634791527
 30
0.0
 10
40.9921637433
 20
51.4719506341
 30
0.0
  0
SPLINE
  5
33C
100
AcDbEntity
  8
0
100
AcDbSpline
 62
7
  6
BYLAYER
 70
0
 71
3
 72
10
 73
6
 74
0
 42
0.0000001
 43
0.0000001
 44
0.0000000001
 40
0.0
 40
0.0
 40
0.0
 40
0.0
 40
0.2260108834
 40
0.5941843423
 40
1.0
 40
1.0
 40
1.0
 40
1.0
 10
40.9921637433
 20
51.4719506341
 30
0.0
 10
41.0392503885
 20
51.3896910751
 30
0.0
 10
41.1819831354
 20
51.1839563704
 30
0.0
 10
41.4835952684
 20
50.8883891979
 30
0.0
 10
41.7536923403
 20
50.7054685926
 30
0.0
 10
41.9010784778
 20
50.6203726829
 30
0.0
  0
SPLINE
  5
33D
100
AcDbEntity
  8
0
100
AcDbSpline
 62
7
  6
BYLAYER
 70
0
 71
3
 72
9
 73
5
 74
0
 42
0.0000001
 43
0.0000001
 44
0.0000000001
 40
0.0
 40
0.0
 40
0.0
 40
0.0
 40
0.2561442338
 40
1.0
 40
1.0
 40
1.0
 40
1.0
 10
47.2044472343
 20
50.6203462296
 30
0.0
 10
47.2328497442
 20
50.6367443275
 30
0.0
 10
47.3428240499
 20
50.7023191848
 30
0.0
 10
47.4490725879
 20
50.7742074709
 30
0.0
 10
47.5252379675
 20
50.8313906719
 30
0.0
  0
SPLINE
  5
33E
100
AcDbEntity
  8
0
100
AcDbSpline
 62
7
  6
BYLAYER
 70
0
 71
3
 72
9
 73
5
 74
0
 42
0.0000001
 43
0.0000001
 44
0.0000000001
 40
0.0
 40
0.0
 40
0.0
 40
0.0
 40
0.2691354304
 40
1.0
 40
1.0
 40
1.0
 40
1.0
 10
47.5252379675
 20
50.8313906719
 30
0.0
 10
47.5878565559
 20
50.8784032562
 30
0.0
 10
47.813193332
 20
51.0621046309
 30
0.0
 10
48.0077623941
 20
51.2873942415
 30
0.0
 10
48.1133996095
 20
51.4719363269
 30
0.0
  0
SPLINE
  5
33F
100
AcDbEntity
  8
0
100
AcDbSpline
 62
7
  6
BYLAYER
 70
0
 71
3
 72
15
 73
11
 74
0
 42
0.0000001
 43
0.0000001
 44
0.0000000001
 40
0.0
 40
0.0
 40
0.0
 40
0.0
 40
0.1179605077
 40
0.2307100605
 40
0.342150772
 40
0.4564389116
 40
0.5772285176
 40
0.7072622214
 40
0.8481616145
 40
1.0
 40
1.0
 40
1.0
 40
1.0
 10
48.1133996095
 20
51.4719363269
 30
0.0
 10
48.165793717
 20
51.5634657922
 30
0.0
 10
48.2511590281
 20
51.7532509983
 30
0.0
 10
48.3113947942
 20
52.0559790971
 30
0.0
 10
48.2972877647
 20
52.3612740357
 30
0.0
 10
48.2097066533
 20
52.6612733459
 30
0.0
 10
48.0515447902
 20
52.9494086494
 30
0.0
 10
47.8271727558
 20
53.2206573536
 30
0.0
 10
47.5414088136
 20
53.4701158084
 30
0.0
 10
47.321991986
 20
53.6142889299
 30
0.0
 10
47.2044251546
 20
53.6821646361
 30
0.0
  0
SPLINE
  5
340
100
AcDbEntity
  8
0
100
AcDbSpline
 62
7
  6
BYLAYER
 70
0
 71
3
 72
15
 73
11
 74
0
 42
0.0000001
 43
0.0000001
 44
0.0000000001
 40
0.0
 40
0.0
 40
0.0
 40
0.0
 40
0.1141236058
 40
0.2373475862
 40
0.3669728832
 40
0.5000004527
 40
0.6330279586
 40
0.7626530686
 40
0.8858767803
 40
1.0
 40
1.0
 40
1.0
 40
1.0
 10
47.2044251546
 20
53.6821646361
 30
0.0
 10
47.0229481932
 20
53.7869380383
 30
0.0
 10
46.6259421196
 20
53.9717162592
 30
0.0
 10
45.9795905681
 20
54.1682914019
 30
0.0
 10
45.2796956199
 20
54.2891419382
 30
0.0
 10
44.5527706187
 20
54.3300118146
 30
0.0
 10
43.8258461497
 20
54.2891385705
 30
0.0
 10
43.1259527209
 20
54.1682847634
 30
0.0
 10
42.479603731
 20
53.9717064687
 30
0.0
 10
42.0825998901
 20
53.7869262405
 30
0.0
 10
41.9011242957
 20
53.6821518885
 30
0.0
  0
SPLINE
  5
341
100
AcDbEntity
  8
0
100
AcDbSpline
 62
7
  6
BYLAYER
 70
0
 71
3
 72
11
 73
7
 74
0
 42
0.0000001
 43
0.0000001
 44
0.0000000001
 40
0.0
 40
0.0
 40
0.0
 40
0.0
 40
0.2177817009
 40
0.4509079353
 40
0.7102947134
 40
1.0
 40
1.0
 40
1.0
 40
1.0
 10
12.8441376506
 20
87.7503054995
 30
0.0
 10
12.8441376717
 20
87.6360402582
 30
0.0
 10
12.8863643375
 20
87.3978753264
 30
0.0
 10
13.066918029
 20
87.0660353722
 30
0.0
 10
13.3523477433
 20
86.7660656698
 30
0.0
 10
13.5911728697
 20
86.6015727263
 30
0.0
 10
13.7228111693
 20
86.5255730379
 30
0.0
  0
SPLINE
  5
342
100
AcDbEntity
  8
0
100
AcDbSpline
 62
7
  6
BYLAYER
 70
0
 71
3
 72
9
 73
5
 74
0
 42
0.0000001
 43
0.0000001
 44
0.0000000001
 40
0.0
 40
0.0
 40
0.0
 40
0.0
 40
0.2613471197
 40
1.0
 40
1.0
 40
1.0
 40
1.0
 10
93.6258627229
 20
92.894440183
 30
0.0
 10
93.6521779844
 20
92.8792474034
 30
0.0
 10
93.7514090599
 20
92.818673195
 30
0.0
 10
93.844721507
 20
92.748021772
 30
0.0
 10
93.9078153407
 20
92.6897575407
 30
0.0
  0
SPLINE
  5
343
100
AcDbEntity
  8
0
100
AcDbSpline
 62
7
  6
BYLAYER
 70
0
 71
3
 72
15
 73
11
 74
0
 42
0.0000001
 43
0.0000001
 44
0.0000000001
 40
0.0
 40
0.0
 40
0.0
 40
0.0
 40
0.1317258854
 40
0.2519436264
 40
0.3646333843
 40
0.4753364799
 40
0.5901036783
 40
0.7140093288
 40
0.8503515716
 40
1.0
 40
1.0
 40
1.0
 40
1.0
 10
93.9078153407
 20
92.6897575407
 30
0.0
 10
93.96431793
 20
92.6375800182
 30
0.0
 10
94.0639764469
 20
92.5277736283
 30
0.0
 10
94.1692374999
 20
92.3403115872
 30
0.0
 10
94.2182726662
 20
92.1429477998
 30
0.0
 10
94.2076915884
 20
91.9428859561
 30
0.0
 10
94.1384484377
 20
91.748308252
 30
0.0
 10
94.0144486684
 20
91.5654635918
 30
0.0
 10
93.840692915
 20
91.3988809381
 30
0.0
 10
93.7015422847
 20
91.305156922
 30
0.0
 10
93.6258744987
 20
91.2614703662
 30
0.0
  0
SPLINE
  5
344
100
AcDbEntity
  8
0
100
AcDbSpline
 62
7
  6
BYLAYER
 70
0
 71
3
 72
11
 73
7
 74
0
 42
0.0000001
 43
0.0000001
 44
0.0000000001
 40
0.0
 40
0.0
 40
0.0
 40
0.0
 40
0.2372398078
 40
0.4999994051
 40
0.7627593222
 40
1.0
 40
1.0
 40
1.0
 40
1.0
 10
55.4422672892
 20
69.2162860571
 30
0.0
 10
55.2414891222
 20
69.1003674203
 30
0.0
 10
54.7745820796
 20
68.9312147218
 30
0.0
 10
54.028056122
 20
68.8501717615
 30
0.0
 10
53.2815289297
 20
68.9312112511
 30
0.0
 10
52.8146199036
 20
69.1003616444
 30
0.0
 10
52.6138401645
 20
69.2162792584
 30
0.0
  0
SPLINE
  5
345
100
AcDbEntity
  8
0
100
AcDbSpline
 62
7
  6
BYLAYER
 70
0
 71
3
 72
15
 73
11
 74
0
 42
0.0000001
 43
0.0000001
 44
0.0000000001
 40
0.0
 40
0.0
 40
0.0
 40
0.0
 40
0.1496489443
 40
0.2859916569
 40
0.4098977344
 40
0.5246651841
 40
0.6353682408
 40
0.7480576523
 40
0.8682748075
 40
1.0
 40
1.0
 40
1.0
 40
1.0
 10
14.4299150065
 20
91.2612800025
 30
0.0
 10
14.3542465938
 20
91.3049661927
 30
0.0
 10
14.2150946523
 20
91.3986894762
 30
0.0
 10
14.0413366444
 20
91.5652711713
 30
0.0
 10
13.9173342744
 20
91.7481150086
 30
0.0
 10
13.8480881951
 20
91.9426921884
 30
0.0
 10
13.8375040952
 20
92.1427539176
 30
0.0
 10
13.8865361906
 20
92.3401180415
 30
0.0
 10
13.9917944894
 20
92.527580748
 30
0.0
 10
14.0914514382
 20
92.637387712
 30
0.0
 10
14.1479532745
 20
92.6895655299
 30
0.0
  0
SPLINE
  5
346
100
AcDbEntity
  8
0
100
AcDbSpline
 62
7
  6
BYLAYER
 70
0
 71
3
 72
9
 73
5
 74
0
 42
0.0000001
 43
0.0000001
 44
0.0000000001
 40
0.0
 40
0.0
 40
0.0
 40
0.0
 40
0.2388449767
 40
1.0
 40
1.0
 40
1.0
 40
1.0
 10
14.1479532745
 20
92.6895655299
 30
0.0
 10
14.1683559636
 20
92.7084068254
 30
0.0
 10
14.2563005712
 20
92.7845490938
 30
0.0
 10
14.3532571673
 20
92.8499984581
 30
0.0
 10
14.4299032307
 20
92.8942498193
 30
0.0
  0
SPLINE
  5
347
100
AcDbEntity
  8
0
100
AcDbSpline
 62
7
  6
BYLAYER
 70
0
 71
3
 72
15
 73
11
 74
0
 42
0.0000001
 43
0.0000001
 44
0.0000000001
 40
0.0
 40
0.0
 40
0.0
 40
0.0
 40
0.148564841
 40
0.2895093482
 40
0.4227286048
 40
0.5486396418
 40
0.6680018453
 40
0.7819381682
 40
0.8919859772
 40
1.0
 40
1.0
 40
1.0
 40
1.0
 10
69.9378576805
 20
82.892443116
 30
0.0
 10
70.4452387104
 20
83.1853779417
 30
0.0
 10
71.4109953275
 20
83.7975894659
 30
0.0
 10
72.7314290512
 20
84.8194773365
 30
0.0
 10
73.873522542
 20
85.9126842254
 30
0.0
 10
74.8257624154
 20
87.0670423537
 30
0.0
 10
75.5787735876
 20
88.2722109442
 30
0.0
 10
76.1236799449
 20
89.5175446903
 30
0.0
 10
76.4539128599
 20
90.7902313624
 30
0.0
 10
76.5278205021
 20
91.6519020331
 30
0.0
 10
76.5278482957
 20
92.0778602923
 30
0.0
  0
SPLINE
  5
348
100
AcDbEntity
  8
0
100
AcDbSpline
 62
7
  6
BYLAYER
 70
0
 71
3
 72
11
 73
7
 74
0
 42
0.0000001
 43
0.0000001
 44
0.0000000001
 40
0.0
 40
0.0
 40
0.0
 40
0.0
 40
0.2177508335
 40
0.4508940037
 40
0.710465094
 40
1.0
 40
1.0
 40
1.0
 40
1.0
 10
13.929928698
 20
92.9437338644
 30
0.0
 10
13.9629092059
 20
92.9627750599
 30
0.0
 10
14.0386628548
 20
92.9903626828
 30
0.0
 10
14.1645965107
 20
92.9935204377
 30
0.0
 10
14.2987409803
 20
92.961050498
 30
0.0
 10
14.3860501333
 20
92.9195678441
 30
0.0
 10
14.4299032307
 20
92.8942498193
 30
0.0
  0
SPLINE
  5
349
100
AcDbEntity
  8
0
100
AcDbSpline
 62
7
  6
BYLAYER
 70
0
 71
3
 72
11
 73
7
 74
0
 42
0.0000001
 43
0.0000001
 44
0.0000000001
 40
0.0
 40
0.0
 40
0.0
 40
0.0
 40
0.2177442246
 40
0.4508817658
 40
0.7104588047
 40
1.0
 40
1.0
 40
1.0
 40
1.0
 10
44.3710631112
 20
20.442016548
 30
0.0
 10
44.3380829191
 20
20.4610572576
 30
0.0
 10
44.2763144749
 20
20.5128662598
 30
0.0
 10
44.2106079651
 20
20.6203474273
 30
0.0
 10
44.1716547952
 20
20.7527585446
 30
0.0
 10
44.1639228141
 20
20.8491153801
 30
0.0
 10
44.1639228141
 20
20.8997542391
 30
0.0
  0
SPLINE
  5
34A
100
AcDbEntity
  8
0
100
AcDbSpline
 62
7
  6
BYLAYER
 70
0
 71
3
 72
11
 73
7
 74
0
 42
0.0000001
 43
0.0000001
 44
0.0000000001
 40
0.0
 40
0.0
 40
0.0
 40
0.0
 40
0.2372460005
 40
0.4999983822
 40
0.7627516439
 40
1.0
 40
1.0
 40
1.0
 40
1.0
 10
14.4299150065
 20
91.2612800025
 30
0.0
 10
14.3295233298
 20
91.2033191869
 30
0.0
 10
14.1395338773
 20
91.043445901
 30
0.0
 10
13.9178732496
 20
90.7404127451
 30
0.0
 10
13.7662704795
 20
90.3969305825
 30
0.0
 10
13.7228111693
 20
90.1524567327
 30
0.0
 10
13.7228111693
 20
90.0365334315
 30
0.0
  0
SPLINE
  5
34B
100
AcDbEntity
  8
0
100
AcDbSpline
 62
7
  6
BYLAYER
 70
0
 71
3
 72
9
 73
5
 74
0
 42
0.0000001
 43
0.0000001
 44
0.0000000001
 40
0.0
 40
0.0
 40
0.0
 40
0.0
 40
0.4940652878
 40
1.0
 40
1.0
 40
1.0
 40
1.0
 10
95.4275800304
 20
87.7504785265
 30
0.0
 10
95.4275800342
 20
87.5875150706
 30
0.0
 10
95.3953305482
 20
87.2569318468
 30
0.0
 10
95.3014527751
 20
86.9385905316
 30
0.0
 10
95.2406035575
 20
86.7832013327
 30
0.0
  0
SPLINE
  5
34C
100
AcDbEntity
  8
0
100
AcDbSpline
 62
7
  6
BYLAYER
 70
0
 71
3
 72
11
 73
7
 74
0
 42
0.0000001
 43
0.0000001
 44
0.0000000001
 40
0.0
 40
0.0
 40
0.0
 40
0.0
 40
0.2218742919
 40
0.460780341
 40
0.7199160749
 40
1.0
 40
1.0
 40
1.0
 40
1.0
 10
95.2406035575
 20
86.7832013327
 30
0.0
 10
95.1595812158
 20
86.5762965071
 30
0.0
 10
94.9413934608
 20
86.1651044555
 30
0.0
 10
94.4840336149
 20
85.6030754167
 30
0.0
 10
93.8971357417
 20
85.0858917726
 30
0.0
 10
93.4445465586
 20
84.7880976758
 30
0.0
 10
93.2016269163
 20
84.6478487921
 30
0.0
  0
SPLINE
  5
34D
100
AcDbEntity
  8
0
100
AcDbSpline
 62
7
  6
BYLAYER
 70
0
 71
3
 72
11
 73
7
 74
0
 42
0.0000001
 43
0.0000001
 44
0.0000000001
 40
0.0
 40
0.0
 40
0.0
 40
0.0
 40
0.2897023113
 40
0.5490868678
 40
0.7822157677
 40
1.0
 40
1.0
 40
1.0
 40
1.0
 10
13.7228111693
 20
90.0365334315
 30
0.0
 10
13.5911734697
 20
90.1125327735
 30
0.0
 10
13.3523470589
 20
90.2770217974
 30
0.0
 10
13.0669144736
 20
90.5769899641
 30
0.0
 10
12.8863525178
 20
90.908829525
 30
0.0
 10
12.8441226755
 20
91.146998671
 30
0.0
 10
12.844122681
 20
91.2612658931
 30
0.0
  0
SPLINE
  5
34E
100
AcDbEntity
  8
0
100
AcDbSpline
 62
7
  6
BYLAYER
 70
0
 71
3
 72
12
 73
8
 74
0
 42
0.0000001
 43
0.0000001
 44
0.0000000001
 40
0.0
 40
0.0
 40
0.0
 40
0.0
 40
0.2440078028
 40
0.5066401793
 40
0.7655628354
 40
0.8870215025
 40
1.0
 40
1.0
 40
1.0
 40
1.0
 10
29.9902670751
 20
28.7421082414
 30
0.0
 10
29.584929415
 20
28.5573296825
 30
0.0
 10
28.6858643599
 20
28.2962011212
 30
0.0
 10
27.283358213
 20
28.2005117065
 30
0.0
 10
26.1095182617
 20
28.3588075748
 30
0.0
 10
25.2500962884
 20
28.6344206213
 30
0.0
 10
24.861660228
 20
28.8184328577
 30
0.0
 10
24.6830354608
 20
28.921559582
 30
0.0
  0
SPLINE
  5
34F
100
AcDbEntity
  8
0
100
AcDbSpline
 62
7
  6
BYLAYER
 70
0
 71
3
 72
11
 73
7
 74
0
 42
0.0000001
 43
0.0000001
 44
0.0000000001
 40
0.0
 40
0.0
 40
0.0
 40
0.0
 40
0.2897781767
 40
0.5490726313
 40
0.7822276909
 40
1.0
 40
1.0
 40
1.0
 40
1.0
 10
24.6830354608
 20
28.921559582
 30
0.0
 10
24.5074723129
 20
29.0229187197
 30
0.0
 10
24.1889982906
 20
29.2421788529
 30
0.0
 10
23.8085031464
 20
29.6422209579
 30
0.0
 10
23.5677437946
 20
30.0846092151
 30
0.0
 10
23.5114802148
 20
30.402188024
 30
0.0
 10
23.5114802128
 20
30.5545361975
 30
0.0
  0
SPLINE
  5
350
100
AcDbEntity
  8
0
100
AcDbSpline
 62
7
  6
BYLAYER
 70
0
 71
3
 72
11
 73
7
 74
0
 42
0.0000001
 43
0.0000001
 44
0.0000000001
 40
0.0
 40
0.0
 40
0.0
 40
0.0
 40
0.2372465045
 40
0.4999989083
 40
0.7627519059
 40
1.0
 40
1.0
 40
1.0
 40
1.0
 10
55.4422672892
 20
69.2162860571
 30
0.0
 10
55.5426596543
 20
69.1583258094
 30
0.0
 10
55.7326505943
 20
68.9984536337
 30
0.0
 10
55.9543132107
 20
68.6954214444
 30
0.0
 10
56.1059173465
 20
68.3519398651
 30
0.0
 10
56.1493770143
 20
68.1074661246
 30
0.0
 10
56.1493770143
 20
67.9915428855
 30
0.0
  0
SPLINE
  5
351
100
AcDbEntity
  8
0
100
AcDbSpline
 62
7
  6
BYLAYER
 70
0
 71
3
 72
10
 73
6
 74
0
 42
0.0000001
 43
0.0000001
 44
0.0000000001
 40
0.0
 40
0.0
 40
0.0
 40
0.0
 40
0.5289839658
 40
0.7687234106
 40
1.0
 40
1.0
 40
1.0
 40
1.0
 10
25.7263209932
 20
31.1930730897
 30
0.0
 10
25.632139992
 20
31.1053707797
 30
0.0
 10
25.5109729376
 20
30.9554807399
 30
0.0
 10
25.4256314684
 20
30.7258480324
 30
0.0
 10
25.411461278
 20
30.6108017204
 30
0.0
 10
25.4114612884
 20
30.5545361975
 30
0.0
  0
SPLINE
  5
352
100
AcDbEntity
  8
0
100
AcDbSpline
 62
7
  6
BYLAYER
 70
0
 71
3
 72
15
 73
11
 74
0
 42
0.0000001
 43
0.0000001
 44
0.0000000001
 40
0.0
 40
0.0
 40
0.0
 40
0.0
 40
0.1141216057
 40
0.2373437885
 40
0.3669699918
 40
0.4999994787
 40
0.633029038
 40
0.7626554531
 40
0.8858779697
 40
1.0
 40
1.0
 40
1.0
 40
1.0
 10
56.1493770143
 20
67.9915428855
 30
0.0
 10
56.0041984358
 20
67.9077244944
 30
0.0
 10
55.6866010757
 20
67.7598984124
 30
0.0
 10
55.1695247257
 20
67.6026343454
 30
0.0
 10
54.6096079659
 20
67.5059462468
 30
0.0
 10
54.0280602475
 20
67.4732456005
 30
0.0
 10
53.446512064
 20
67.5059434868
 30
0.0
 10
52.8865939308
 20
67.6026289271
 30
0.0
 10
52.3695153543
 20
67.7598905362
 30
0.0
 10
52.0519160491
 20
67.9077150321
 30
0.0
 10
51.9067363261
 20
67.9915326881
 30
0.0
  0
SPLINE
  5
353
100
AcDbEntity
  8
0
100
AcDbSpline
 62
7
  6
BYLAYER
 70
0
 71
3
 72
11
 73
7
 74
0
 42
0.0000001
 43
0.0000001
 44
0.0000000001
 40
0.0
 40
0.0
 40
0.0
 40
0.0
 40
0.2372483561
 40
0.5000016178
 40
0.7627539995
 40
1.0
 40
1.0
 40
1.0
 40
1.0
 10
51.9067363273
 20
67.9915326874
 30
0.0
 10
51.9067363273
 20
68.1074559886
 30
0.0
 10
51.9501956374
 20
68.3519298384
 30
0.0
 10
52.1017984076
 20
68.695412001
 30
0.0
 10
52.3234590352
 20
68.9984451569
 30
0.0
 10
52.5134484877
 20
69.1583184428
 30
0.0
 10
52.6138401645
 20
69.2162792584
 30
0.0
  0
SPLINE
  5
354
100
AcDbEntity
  8
0
100
AcDbSpline
 62
7
  6
BYLAYER
 70
0
 71
3
 72
11
 73
7
 74
0
 42
0.0000001
 43
0.0000001
 44
0.0000000001
 40
0.0
 40
0.0
 40
0.0
 40
0.0
 40
0.2895353844
 40
0.5491065881
 40
0.7822495581
 40
1.0
 40
1.0
 40
1.0
 40
1.0
 10
93.6258627229
 20
92.894440183
 30
0.0
 10
93.6697151977
 20
92.91975827
 30
0.0
 10
93.7570231001
 20
92.9612411526
 30
0.0
 10
93.8911657923
 20
92.9937118527
 30
0.0
 10
94.0170979211
 20
92.9905552099
 30
0.0
 10
94.0928508111
 20
92.9629685358
 30
0.0
 10
94.1258310107
 20
92.9439278335
 30
0.0
  0
SPLINE
  5
355
100
AcDbEntity
  8
0
100
AcDbSpline
 62
7
  6
BYLAYER
 70
0
 71
3
 72
11
 73
7
 74
0
 42
0.0000001
 43
0.0000001
 44
0.0000000001
 40
0.0
 40
0.0
 40
0.0
 40
0.0
 40
0.2372480941
 40
0.5000010917
 40
0.7627534955
 40
1.0
 40
1.0
 40
1.0
 40
1.0
 10
94.3329842239
 20
90.0367271945
 30
0.0
 10
94.3329842239
 20
90.1526504337
 30
0.0
 10
94.289524556
 20
90.3971241741
 30
0.0
 10
94.1379204203
 20
90.7406057535
 30
0.0
 10
93.9162578038
 20
91.0436379427
 30
0.0
 10
93.7262668638
 20
91.2035101184
 30
0.0
 10
93.6258744987
 20
91.2614703662
 30
0.0
  0
SPLINE
  5
356
100
AcDbEntity
  8
0
100
AcDbSpline
 62
7
  6
BYLAYER
 70
0
 71
3
 72
9
 73
5
 74
0
 42
0.0000001
 43
0.0000001
 44
0.0000000001
 40
0.0
 40
0.0
 40
0.0
 40
0.0
 40
0.5000680723
 40
1.0
 40
1.0
 40
1.0
 40
1.0
 10
72.0984161196
 20
115.3654233909
 30
0.0
 10
72.1622765186
 20
113.1968505975
 30
0.0
 10
72.291237899
 20
108.8603320762
 30
0.0
 10
72.4151039155
 20
104.5236650194
 30
0.0
 10
72.477559394
 20
102.3556422091
 30
0.0
  0
SPLINE
  5
357
100
AcDbEntity
  8
0
100
AcDbSpline
 62
7
  6
BYLAYER
 70
0
 71
3
 72
22
 73
18
 74
0
 42
0.0000001
 43
0.0000001
 44
0.0000000001
 40
0.0
 40
0.0
 40
0.0
 40
0.0
 40
0.2105251601
 40
0.3040299974
 40
0.3891926247
 40
0.4658196341
 40
0.533859756
 40
0.5934749306
 40
0.6451641457
 40
0.6899533422
 40
0.729615656
 40
0.7667434557
 40
0.8043568907
 40
0.8451176746
 40
0.8908048455
 40
0.9423315276
 40
1.0
 40
1.0
 40
1.0
 40
1.0
 10
72.477559394
 20
102.3556422091
 30
0.0
 10
72.4960767339
 20
101.708966887
 30
0.0
 10
72.5878460034
 20
100.7731022774
 30
0.0
 10
72.8749359667
 20
99.6104158853
 30
0.0
 10
73.1415038903
 20
98.8708479922
 30
0.0
 10
73.4574143816
 20
98.2371655427
 30
0.0
 10
73.8107905545
 20
97.7157212435
 30
0.0
 10
74.1888645752
 20
97.3110883028
 30
0.0
 10
74.578931664
 20
97.0260194195
 30
0.0
 10
74.9690311469
 20
96.862232712
 30
0.0
 10
75.3470015481
 20
96.8222801715
 30
0.0
 10
75.6956805563
 20
96.9081034487
 30
0.0
 10
75.9946287273
 20
97.111763253
 30
0.0
 10
76.2318136908
 20
97.4165113541
 30
0.0
 10
76.4034470778
 20
97.8079058467
 30
0.0
 10
76.5070205809
 20
98.2748198813
 30
0.0
 10
76.5278047508
 20
98.611038185
 30
0.0
 10
76.5278822956
 20
98.788252444
 30
0.0
  0
SPLINE
  5
358
100
AcDbEntity
  8
0
100
AcDbSpline
 62
7
  6
BYLAYER
 70
0
 71
3
 72
9
 73
5
 74
0
 42
0.0000001
 43
0.0000001
 44
0.0000000001
 40
0.0
 40
0.0
 40
0.0
 40
0.0
 40
0.2426964861
 40
1.0
 40
1.0
 40
1.0
 40
1.0
 10
72.0984161196
 20
115.3654233909
 30
0.0
 10
71.9323667073
 20
115.2361943896
 30
0.0
 10
71.2381843453
 20
114.7166224194
 30
0.0
 10
70.5064552426
 20
114.2478129629
 30
0.0
 10
69.9378576805
 20
113.919534967
 30
0.0
  0
SPLINE
  5
359
100
AcDbEntity
  8
0
100
AcDbSpline
 62
7
  6
BYLAYER
 70
0
 71
3
 72
9
 73
5
 74
0
 42
0.0000001
 43
0.0000001
 44
0.0000000001
 40
0.0
 40
0.0
 40
0.0
 40
0.0
 40
0.2441049485
 40
1.0
 40
1.0
 40
1.0
 40
1.0
 10
69.7792803484
 20
113.8288844291
 30
0.0
 10
69.5940177878
 20
113.7240246315
 30
0.0
 10
68.8287209177
 20
113.3057278509
 30
0.0
 10
68.0394498394
 20
112.9316772581
 30
0.0
 10
67.4334876572
 20
112.672141764
 30
0.0
  0
SPLINE
  5
35A
100
AcDbEntity
  8
0
100
AcDbSpline
 62
7
  6
BYLAYER
 70
0
 71
3
 72
11
 73
7
 74
0
 42
0.0000001
 43
0.0000001
 44
0.0000000001
 40
0.0
 40
0.0
 40
0.0
 40
0.0
 40
0.1950670564
 40
0.421885037
 40
0.6926904082
 40
1.0
 40
1.0
 40
1.0
 40
1.0
 10
45.0272123194
 20
131.6633980411
 30
0.0
 10
45.0272052484
 20
131.6946324276
 30
0.0
 10
45.0063175111
 20
131.7627288813
 30
0.0
 10
44.9273656181
 20
131.8442959761
 30
0.0
 10
44.8126904715
 20
131.9060448313
 30
0.0
 10
44.7226708613
 20
131.930706796
 30
0.0
 10
44.6742221186
 20
131.9393108121
 30
0.0
  0
SPLINE
  5
35B
100
AcDbEntity
  8
0
100
AcDbSpline
 62
7
  6
BYLAYER
 70
0
 71
3
 72
9
 73
5
 74
0
 42
0.0000001
 43
0.0000001
 44
0.0000000001
 40
0.0
 40
0.0
 40
0.0
 40
0.0
 40
0.4999192022
 40
1.0
 40
1.0
 40
1.0
 40
1.0
 10
66.9066937153
 20
99.1393206088
 30
0.0
 10
66.9950212395
 20
101.394405189
 30
0.0
 10
67.1725091197
 20
105.905272022
 30
0.0
 10
67.3461753097
 20
110.4162876032
 30
0.0
 10
67.4334876572
 20
112.672141764
 30
0.0
  0
SPLINE
  5
35C
100
AcDbEntity
  8
0
100
AcDbSpline
 62
7
  6
BYLAYER
 70
0
 71
3
 72
11
 73
7
 74
0
 42
0.0000001
 43
0.0000001
 44
0.0000000001
 40
0.0
 40
0.0
 40
0.0
 40
0.0
 40
0.2372542275
 40
0.5000017852
 40
0.7627483734
 40
1.0
 40
1.0
 40
1.0
 40
1.0
 10
44.1639228141
 20
44.9865755444
 30
0.0
 10
44.1639228141
 20
45.1025014896
 30
0.0
 10
44.2073867219
 20
45.3469746234
 30
0.0
 10
44.3589911116
 20
45.6904515052
 30
0.0
 10
44.580646361
 20
45.9934832712
 30
0.0
 10
44.7706327885
 20
46.1533600377
 30
0.0
 10
44.8710266513
 20
46.2113221154
 30
0.0
  0
SPLINE
  5
35D
100
AcDbEntity
  8
0
100
AcDbSpline
 62
7
  6
BYLAYER
 70
0
 71
3
 72
9
 73
5
 74
0
 42
0.0000001
 43
0.0000001
 44
0.0000000001
 40
0.0
 40
0.0
 40
0.0
 40
0.0
 40
0.2484377739
 40
1.0
 40
1.0
 40
1.0
 40
1.0
 10
67.7365149641
 20
117.9203361767
 30
0.0
 10
67.7365149596
 20
117.9346582703
 30
0.0
 10
67.7345802276
 20
117.9922946213
 30
0.0
 10
67.7247638267
 20
118.0496343869
 30
0.0
 10
67.713350475
 20
118.0914305932
 30
0.0
  0
SPLINE
  5
35E
100
AcDbEntity
  8
0
100
AcDbSpline
 62
7
  6
BYLAYER
 70
0
 71
3
 72
11
 73
7
 74
0
 42
0.0000001
 43
0.0000001
 44
0.0000000001
 40
0.0
 40
0.0
 40
0.0
 40
0.0
 40
0.2197066901
 40
0.4570811882
 40
0.7169934381
 40
1.0
 40
1.0
 40
1.0
 40
1.0
 10
67.713350475
 20
118.0914305932
 30
0.0
 10
67.6974297234
 20
118.1497331006
 30
0.0
 10
67.6477055808
 20
118.2668706374
 30
0.0
 10
67.5305130798
 20
118.4272059952
 30
0.0
 10
67.3722090345
 20
118.5737532989
 30
0.0
 10
67.2475388376
 20
118.6570758381
 30
0.0
 10
67.1801185654
 20
118.6960000698
 30
0.0
  0
SPLINE
  5
35F
100
AcDbEntity
  8
0
100
AcDbSpline
 62
7
  6
BYLAYER
 70
0
 71
3
 72
9
 73
5
 74
0
 42
0.0000001
 43
0.0000001
 44
0.0000000001
 40
0.0
 40
0.0
 40
0.0
 40
0.0
 40
0.5486607368
 40
1.0
 40
1.0
 40
1.0
 40
1.0
 10
41.8139051007
 20
134.2434012068
 30
0.0
 10
41.7222297948
 20
134.3147328482
 30
0.0
 10
41.5422980891
 20
134.4300698436
 30
0.0
 10
41.3318831253
 20
134.4864588549
 30
0.0
 10
41.2363463785
 20
134.4882467975
 30
0.0
  0
SPLINE
  5
360
100
AcDbEntity
  8
0
100
AcDbSpline
 62
7
  6
BYLAYER
 70
0
 71
3
 72
9
 73
5
 74
0
 42
0.0000001
 43
0.0000001
 44
0.0000000001
 40
0.0
 40
0.0
 40
0.0
 40
0.0
 40
0.2583535517
 40
1.0
 40
1.0
 40
1.0
 40
1.0
 10
41.2363463785
 20
134.4882467975
 30
0.0
 10
41.2178839642
 20
134.4885923162
 30
0.0
 10
41.1464191885
 20
134.4865731954
 30
0.0
 10
41.0752177075
 20
134.4697084222
 30
0.0
 10
41.0264833414
 20
134.4488545956
 30
0.0
  0
SPLINE
  5
361
100
AcDbEntity
  8
0
100
AcDbSpline
 62
7
  6
BYLAYER
 70
0
 71
3
 72
9
 73
5
 74
0
 42
0.0000001
 43
0.0000001
 44
0.0000000001
 40
0.0
 40
0.0
 40
0.0
 40
0.0
 40
0.2354281955
 40
1.0
 40
1.0
 40
1.0
 40
1.0
 10
41.6961927233
 20
50.9232019063
 30
0.0
 10
41.7342134235
 20
50.9636612105
 30
0.0
 10
41.9032751275
 20
51.1283904018
 30
0.0
 10
42.0985281948
 20
51.2649719662
 30
0.0
 10
42.2546791583
 20
51.3551252267
 30
0.0
  0
SPLINE
  5
362
100
AcDbEntity
  8
0
100
AcDbSpline
 62
7
  6
BYLAYER
 70
0
 71
3
 72
11
 73
7
 74
0
 42
0.0000001
 43
0.0000001
 44
0.0000000001
 40
0.0
 40
0.0
 40
0.0
 40
0.0
 40
0.2177842323
 40
0.4509131322
 40
0.7102976887
 40
1.0
 40
1.0
 40
1.0
 40
1.0
 10
47.802785765
 20
51.7429978505
 30
0.0
 10
47.802785771
 20
51.8667873412
 30
0.0
 10
47.7570367751
 20
52.124803916
 30
0.0
 10
47.5614279896
 20
52.4842967737
 30
0.0
 10
47.2522093557
 20
52.8092622876
 30
0.0
 10
46.9934807439
 20
52.9874587301
 30
0.0
 10
46.850873236
 20
53.0697913506
 30
0.0
  0
SPLINE
  5
363
100
AcDbEntity
  8
0
100
AcDbSpline
 62
7
  6
BYLAYER
 70
0
 71
3
 72
13
 73
9
 74
0
 42
0.0000001
 43
0.0000001
 44
0.0000000001
 40
0.0
 40
0.0
 40
0.0
 40
0.0
 40
0.1141757996
 40
0.2375697486
 40
0.4999996443
 40
0.7624297362
 40
0.885823858
 40
1.0
 40
1.0
 40
1.0
 40
1.0
 10
67.0387078074
 20
117.2263268948
 30
0.0
 10
66.9564749714
 20
117.1788500282
 30
0.0
 10
66.7764578984
 20
117.0951261901
 30
0.0
 10
66.3776845107
 20
116.9738013422
 30
0.0
 10
65.8366278071
 20
116.9151778244
 30
0.0
 10
65.2955707651
 20
116.9737990074
 30
0.0
 10
64.8967961277
 20
117.095121763
 30
0.0
 10
64.7167781763
 20
117.1788446999
 30
0.0
 10
64.6345447514
 20
117.2263211159
 30
0.0
  0
SPLINE
  5
364
100
AcDbEntity
  8
0
100
AcDbSpline
 62
7
  6
BYLAYER
 70
0
 71
3
 72
12
 73
8
 74
0
 42
0.0000001
 43
0.0000001
 44
0.0000000001
 40
0.0
 40
0.0
 40
0.0
 40
0.0
 40
0.2825063311
 40
0.5155306026
 40
0.6258633777
 40
0.740289846
 40
1.0
 40
1.0
 40
1.0
 40
1.0
 10
37.6114546605
 20
131.4132772851
 30
0.0
 10
37.5735350797
 20
131.4351821348
 30
0.0
 10
37.5082555812
 20
131.4846095451
 30
0.0
 10
37.4631079755
 20
131.576565216
 30
0.0
 10
37.4653104453
 20
131.6487315311
 30
0.0
 10
37.4904018616
 20
131.7205395438
 30
0.0
 10
37.5318902239
 20
131.7648386665
 30
0.0
 10
37.5636680167
 20
131.7895547446
 30
0.0
  0
SPLINE
  5
365
100
AcDbEntity
  8
0
100
AcDbSpline
 62
7
  6
BYLAYER
 70
0
 71
3
 72
9
 73
5
 74
0
 42
0.0000001
 43
0.0000001
 44
0.0000000001
 40
0.0
 40
0.0
 40
0.0
 40
0.0
 40
0.2566151337
 40
1.0
 40
1.0
 40
1.0
 40
1.0
 10
87.3494967093
 20
74.31639639
 30
0.0
 10
87.3693475588
 20
74.3005539032
 30
0.0
 10
87.445695587
 20
74.2375718718
 30
0.0
 10
87.5179042648
 20
74.1695142698
 30
0.0
 10
87.5684686822
 20
74.1160690786
 30
0.0
  0
SPLINE
  5
366
100
AcDbEntity
  8
0
100
AcDbSpline
 62
7
  6
BYLAYER
 70
0
 71
3
 72
9
 73
5
 74
0
 42
0.0000001
 43
0.0000001
 44
0.0000000001
 40
0.0
 40
0.0
 40
0.0
 40
0.0
 40
0.2422365612
 40
1.0
 40
1.0
 40
1.0
 40
1.0
 10
37.5636680167
 20
131.7895547446
 30
0.0
 10
37.7252622105
 20
131.915316444
 30
0.0
 10
38.4027669742
 20
132.4210495481
 30
0.0
 10
39.119174973
 20
132.8739668924
 30
0.0
 10
39.6766210684
 20
133.1894849578
 30
0.0
  0
SPLINE
  5
367
100
AcDbEntity
  8
0
100
AcDbSpline
 62
7
  6
BYLAYER
 70
0
 71
3
 72
9
 73
5
 74
0
 42
0.0000001
 43
0.0000001
 44
0.0000000001
 40
0.0
 40
0.0
 40
0.0
 40
0.0
 40
0.2441050127
 40
1.0
 40
1.0
 40
1.0
 40
1.0
 10
39.6766210684
 20
133.1894849578
 30
0.0
 10
39.8454127429
 20
133.2850221282
 30
0.0
 10
40.5426701794
 20
133.6661299179
 30
0.0
 10
41.2617697716
 20
134.0069265989
 30
0.0
 10
41.8138583071
 20
134.2433878419
 30
0.0
  0
SPLINE
  5
368
100
AcDbEntity
  8
0
100
AcDbSpline
 62
7
  6
BYLAYER
 70
0
 71
3
 72
11
 73
7
 74
0
 42
0.0000001
 43
0.0000001
 44
0.0000000001
 40
0.0
 40
0.0
 40
0.0
 40
0.0
 40
0.2457308138
 40
0.5084452916
 40
0.7666401934
 40
1.0
 40
1.0
 40
1.0
 40
1.0
 10
41.8138583071
 20
134.2433878419
 30
0.0
 10
41.8644188171
 20
134.2650550534
 30
0.0
 10
41.9754317723
 20
134.2953841224
 30
0.0
 10
42.1478287617
 20
134.3053744008
 30
0.0
 10
42.3160699057
 20
134.2815745113
 30
0.0
 10
42.42033709
 20
134.2419096968
 30
0.0
 10
42.4655841287
 20
134.215803296
 30
0.0
  0
SPLINE
  5
369
100
AcDbEntity
  8
0
100
AcDbSpline
 62
7
  6
BYLAYER
 70
0
 71
3
 72
9
 73
5
 74
0
 42
0.0000001
 43
0.0000001
 44
0.0000000001
 40
0.0
 40
0.0
 40
0.0
 40
0.0
 40
0.5219312254
 40
1.0
 40
1.0
 40
1.0
 40
1.0
 10
41.0692005176
 20
132.5795268835
 30
0.0
 10
40.9813790889
 20
132.595123098
 30
0.0
 10
40.8079024218
 20
132.5977916548
 30
0.0
 10
40.6393973643
 20
132.548584018
 30
0.0
 10
40.5686432755
 20
132.5077343697
 30
0.0
  0
SPLINE
  5
36A
100
AcDbEntity
  8
0
100
AcDbSpline
 62
7
  6
BYLAYER
 70
0
 71
3
 72
11
 73
7
 74
0
 42
0.0000001
 43
0.0000001
 44
0.0000000001
 40
0.0
 40
0.0
 40
0.0
 40
0.0
 40
0.2892992611
 40
0.5490232734
 40
0.7821458825
 40
1.0
 40
1.0
 40
1.0
 40
1.0
 10
40.5686432755
 20
132.5077343697
 30
0.0
 10
40.5467352292
 20
132.4950858287
 30
0.0
 10
40.5069793811
 20
132.4676225267
 30
0.0
 10
40.4593447286
 20
132.4177066858
 30
0.0
 10
40.4292130177
 20
132.3623745775
 30
0.0
 10
40.4222023334
 20
132.3226638824
 30
0.0
 10
40.4222326388
 20
132.3036140891
 30
0.0
  0
SPLINE
  5
36B
100
AcDbEntity
  8
0
100
AcDbSpline
 62
7
  6
BYLAYER
 70
0
 71
3
 72
9
 73
5
 74
0
 42
0.0000001
 43
0.0000001
 44
0.0000000001
 40
0.0
 40
0.0
 40
0.0
 40
0.0
 40
0.258220054
 40
1.0
 40
1.0
 40
1.0
 40
1.0
 10
85.8426879622
 20
74.9766738666
 30
0.0
 10
85.9113123491
 20
74.9620352467
 30
0.0
 10
86.1757987464
 20
74.8996790375
 30
0.0
 10
86.4351740245
 20
74.8145674807
 30
0.0
 10
86.6211736924
 20
74.7368843672
 30
0.0
  0
SPLINE
  5
36C
100
AcDbEntity
  8
0
100
AcDbSpline
 62
7
  6
BYLAYER
 70
0
 71
3
 72
11
 73
7
 74
0
 42
0.0000001
 43
0.0000001
 44
0.0000000001
 40
0.0
 40
0.0
 40
0.0
 40
0.0
 40
0.2191938996
 40
0.4529191412
 40
0.7118640126
 40
1.0
 40
1.0
 40
1.0
 40
1.0
 10
67.5365261546
 20
117.9203361781
 30
0.0
 10
67.5365261407
 20
117.857829229
 30
0.0
 10
67.5144760125
 20
117.7278264353
 30
0.0
 10
67.4190509153
 20
117.5456307351
 30
0.0
 10
67.2676041118
 20
117.3797960987
 30
0.0
 10
67.1403842038
 20
117.2877690021
 30
0.0
 10
67.0702162828
 20
117.2450153354
 30
0.0
  0
SPLINE
  5
36D
100
AcDbEntity
  8
0
100
AcDbSpline
 62
7
  6
BYLAYER
 70
0
 71
3
 72
11
 73
7
 74
0
 42
0.0000001
 43
0.0000001
 44
0.0000000001
 40
0.0
 40
0.0
 40
0.0
 40
0.0
 40
0.2231888558
 40
0.4592212829
 40
0.717157521
 40
1.0
 40
1.0
 40
1.0
 40
1.0
 10
36.3353370774
 20
131.7348712805
 30
0.0
 10
36.4108446399
 20
131.793659718
 30
0.0
 10
36.5882114215
 20
131.8884829473
 30
0.0
 10
36.8953102874
 20
131.9420586004
 30
0.0
 10
37.2300749417
 20
131.9099153619
 30
0.0
 10
37.4521670481
 20
131.8372771507
 30
0.0
 10
37.5636407509
 20
131.7895228758
 30
0.0
  0
SPLINE
  5
36E
100
AcDbEntity
  8
0
100
AcDbSpline
 62
7
  6
BYLAYER
 70
0
 71
3
 72
9
 73
5
 74
0
 42
0.0000001
 43
0.0000001
 44
0.0000000001
 40
0.0
 40
0.0
 40
0.0
 40
0.0
 40
0.2460941973
 40
1.0
 40
1.0
 40
1.0
 40
1.0
 10
86.2715642576
 20
76.5788327787
 30
0.0
 10
86.2361819057
 20
76.5899673829
 30
0.0
 10
86.0918340838
 20
76.6333809132
 30
0.0
 10
85.9453458264
 20
76.6696200109
 30
0.0
 10
85.8341715181
 20
76.6931342256
 30
0.0
  0
SPLINE
  5
36F
100
AcDbEntity
  8
0
100
AcDbSpline
 62
7
  6
BYLAYER
 70
0
 71
3
 72
11
 73
7
 74
0
 42
0.0000001
 43
0.0000001
 44
0.0000000001
 40
0.0
 40
0.0
 40
0.0
 40
0.0
 40
0.2635870468
 40
0.5139244534
 40
0.7572699621
 40
1.0
 40
1.0
 40
1.0
 40
1.0
 10
31.527895081
 20
98.788918808
 30
0.0
 10
31.5279300164
 20
98.3586629454
 30
0.0
 10
31.5747854376
 20
97.5185780563
 30
0.0
 10
31.8073834693
 20
96.3005842439
 30
0.0
 10
32.2001077411
 20
95.1602231003
 30
0.0
 10
32.5639810579
 20
94.4518251333
 30
0.0
 10
32.7678626596
 20
94.1120969287
 30
0.0
  0
SPLINE
  5
370
100
AcDbEntity
  8
0
100
AcDbSpline
 62
7
  6
BYLAYER
 70
0
 71
3
 72
12
 73
8
 74
0
 42
0.0000001
 43
0.0000001
 44
0.0000000001
 40
0.0
 40
0.0
 40
0.0
 40
0.0
 40
0.2573710923
 40
0.3876445029
 40
0.5168619308
 40
0.7655160352
 40
1.0
 40
1.0
 40
1.0
 40
1.0
 10
72.9256899342
 20
104.1864796623
 30
0.0
 10
73.1286515335
 20
104.2270798728
 30
0.0
 10
73.4427442617
 20
104.2557107403
 30
0.0
 10
73.8575683235
 20
104.2148793852
 30
0.0
 10
74.2553309903
 20
104.1166148116
 30
0.0
 10
74.704160499
 20
103.8910243804
 30
0.0
 10
74.9708431395
 20
103.5938396006
 30
0.0
 10
75.0684756849
 20
103.4325048001
 30
0.0
  0
SPLINE
  5
371
100
AcDbEntity
  8
0
100
AcDbSpline
 62
7
  6
BYLAYER
 70
0
 71
3
 72
11
 73
7
 74
0
 42
0.0000001
 43
0.0000001
 44
0.0000000001
 40
0.0
 40
0.0
 40
0.0
 40
0.0
 40
0.2896008509
 40
0.5491402412
 40
0.7822375356
 40
1.0
 40
1.0
 40
1.0
 40
1.0
 10
70.4442833217
 20
118.0626592183
 30
0.0
 10
70.5320084256
 20
118.1133070283
 30
0.0
 10
70.7066345062
 20
118.1962826702
 30
0.0
 10
70.9749201153
 20
118.2612092282
 30
0.0
 10
71.2267637202
 20
118.2548833827
 30
0.0
 10
71.3782501588
 20
118.1997086953
 30
0.0
 10
71.4442262697
 20
118.1616455399
 30
0.0
  0
SPLINE
  5
372
100
AcDbEntity
  8
0
100
AcDbSpline
 62
7
  6
BYLAYER
 70
0
 71
3
 72
11
 73
7
 74
0
 42
0.0000001
 43
0.0000001
 44
0.0000000001
 40
0.0
 40
0.0
 40
0.0
 40
0.0
 40
0.2328625918
 40
0.4909653659
 40
0.7540621948
 40
1.0
 40
1.0
 40
1.0
 40
1.0
 10
72.098405321
 20
115.3654282998
 30
0.0
 10
72.0984053735
 20
115.5948396488
 30
0.0
 10
71.999978147
 20
116.0792500957
 30
0.0
 10
71.6515017252
 20
116.74382807
 30
0.0
 10
71.1423010106
 20
117.3122867274
 30
0.0
 10
70.7148536244
 20
117.5909807688
 30
0.0
 10
70.4921368853
 20
117.6863906379
 30
0.0
  0
SPLINE
  5
373
100
AcDbEntity
  8
0
100
AcDbSpline
 62
7
  6
BYLAYER
 70
0
 71
3
 72
11
 73
7
 74
0
 42
0.0000001
 43
0.0000001
 44
0.0000000001
 40
0.0
 40
0.0
 40
0.0
 40
0.0
 40
0.245730797
 40
0.5084452642
 40
0.76664018
 40
1.0
 40
1.0
 40
1.0
 40
1.0
 10
66.241919112
 20
115.2325255747
 30
0.0
 10
66.1913586655
 20
115.2108583952
 30
0.0
 10
66.0803458559
 20
115.1805293508
 30
0.0
 10
65.9079490808
 20
115.1705390957
 30
0.0
 10
65.7397081329
 20
115.1943388839
 30
0.0
 10
65.6354410535
 20
115.2340036218
 30
0.0
 10
65.5901940667
 20
115.2601099908
 30
0.0
  0
SPLINE
  5
374
100
AcDbEntity
  8
0
100
AcDbSpline
 62
7
  6
BYLAYER
 70
0
 71
3
 72
11
 73
7
 74
0
 42
0.0000001
 43
0.0000001
 44
0.0000000001
 40
0.0
 40
0.0
 40
0.0
 40
0.0
 40
0.289701831
 40
0.5490862157
 40
0.7822153087
 40
1.0
 40
1.0
 40
1.0
 40
1.0
 10
21.0413874311
 20
65.317002954
 30
0.0
 10
20.8987825879
 20
65.2346705002
 30
0.0
 10
20.6400588789
 20
65.0564747381
 30
0.0
 10
20.330846517
 20
64.7315116296
 30
0.0
 10
20.1352419394
 20
64.3720222496
 30
0.0
 10
20.0894940166
 20
64.1140086454
 30
0.0
 10
20.0894940106
 20
63.9902204861
 30
0.0
  0
SPLINE
  5
375
100
AcDbEntity
  8
0
100
AcDbSpline
 62
7
  6
BYLAYER
 70
0
 71
3
 72
15
 73
11
 74
0
 42
0.0000001
 43
0.0000001
 44
0.0000000001
 40
0.0
 40
0.0
 40
0.0
 40
0.0
 40
0.1141220301
 40
0.2373445466
 40
0.3669709615
 40
0.5000005207
 40
0.6330300074
 40
0.7626562109
 40
0.8858783938
 40
1.0
 40
1.0
 40
1.0
 40
1.0
 10
25.6375814816
 20
65.3170139862
 30
0.0
 10
25.4803034496
 20
65.4078164461
 30
0.0
 10
25.1362375384
 20
65.5679596488
 30
0.0
 10
24.5760690854
 20
65.7383263912
 30
0.0
 10
23.969491113
 20
65.8430689519
 30
0.0
 10
23.3394805861
 20
65.8784916634
 30
0.0
 10
22.7094705621
 20
65.8430659664
 30
0.0
 10
22.102894076
 20
65.7383205284
 30
0.0
 10
21.5427280316
 20
65.5679511283
 30
0.0
 10
21.1986642238
 20
65.4078062113
 30
0.0
 10
21.0413874311
 20
65.317002954
 30
0.0
  0
SPLINE
  5
376
100
AcDbEntity
  8
0
100
AcDbSpline
 62
7
  6
BYLAYER
 70
0
 71
3
 72
12
 73
8
 74
0
 42
0.0000001
 43
0.0000001
 44
0.0000000001
 40
0.0
 40
0.0
 40
0.0
 40
0.0
 40
0.1125722399
 40
0.2334371112
 40
0.4911451727
 40
0.7537221967
 40
1.0
 40
1.0
 40
1.0
 40
1.0
 10
21.0413874039
 20
63.6023478623
 30
0.0
 10
21.1821522563
 20
63.6836180007
 30
0.0
 10
21.4876441213
 20
63.8292157728
 30
0.0
 10
22.1630146459
 20
64.0500073197
 30
0.0
 10
23.0870997022
 20
64.1835159565
 30
0.0
 10
24.1984382367
 20
64.1238382745
 30
0.0
 10
24.9162563792
 20
63.9328821785
 30
0.0
 10
25.2443839843
 20
63.7958390629
 30
0.0
  0
SPLINE
  5
377
100
AcDbEntity
  8
0
100
AcDbSpline
 62
7
  6
BYLAYER
 70
0
 71
3
 72
11
 73
7
 74
0
 42
0.0000001
 43
0.0000001
 44
0.0000000001
 40
0.0
 40
0.0
 40
0.0
 40
0.0
 40
0.2372428732
 40
0.4999994739
 40
0.7627563609
 40
1.0
 40
1.0
 40
1.0
 40
1.0
 10
23.5516221295
 20
62.8185283841
 30
0.0
 10
23.5215051338
 20
62.8011404323
 30
0.0
 10
23.4514681845
 20
62.7757704141
 30
0.0
 10
23.3394904287
 20
62.7636142638
 30
0.0
 10
23.2275125039
 20
62.7757699031
 30
0.0
 10
23.1574752791
 20
62.8011395736
 30
0.0
 10
23.1273580608
 20
62.8185273643
 30
0.0
  0
SPLINE
  5
378
100
AcDbEntity
  8
0
100
AcDbSpline
 62
7
  6
BYLAYER
 70
0
 71
3
 72
9
 73
5
 74
0
 42
0.0000001
 43
0.0000001
 44
0.0000000001
 40
0.0
 40
0.0
 40
0.0
 40
0.0
 40
0.2580680254
 40
1.0
 40
1.0
 40
1.0
 40
1.0
 10
21.8398492091
 20
63.5618541302
 30
0.0
 10
21.804370394
 20
63.5480666348
 30
0.0
 10
21.6678431361
 20
63.4922543013
 30
0.0
 10
21.5352180187
 20
63.4266706568
 30
0.0
 10
21.4404478652
 20
63.3719554097
 30
0.0
  0
SPLINE
  5
379
100
AcDbEntity
  8
0
100
AcDbSpline
 62
7
  6
BYLAYER
 70
0
 71
3
 72
9
 73
5
 74
0
 42
0.0000001
 43
0.0000001
 44
0.0000000001
 40
0.0
 40
0.0
 40
0.0
 40
0.0
 40
0.2599038149
 40
1.0
 40
1.0
 40
1.0
 40
1.0
 10
21.4404478652
 20
63.3719554097
 30
0.0
 10
21.4102860275
 20
63.3545415685
 30
0.0
 10
21.2956457157
 20
63.2851627616
 30
0.0
 10
21.1868091223
 20
63.2059309572
 30
0.0
 10
21.1115322567
 20
63.1413626517
 30
0.0
  0
SPLINE
  5
37A
100
AcDbEntity
  8
0
100
AcDbSpline
 62
7
  6
BYLAYER
 70
0
 71
3
 72
9
 73
5
 74
0
 42
0.0000001
 43
0.0000001
 44
0.0000000001
 40
0.0
 40
0.0
 40
0.0
 40
0.0
 40
0.2354281955
 40
1.0
 40
1.0
 40
1.0
 40
1.0
 10
31.0895468461
 20
57.0468132241
 30
0.0
 10
31.1275675463
 20
57.0872725283
 30
0.0
 10
31.2966292503
 20
57.2520017196
 30
0.0
 10
31.4918823176
 20
57.388583284
 30
0.0
 10
31.6480332811
 20
57.4787365445
 30
0.0
  0
SPLINE
  5
37B
100
AcDbEntity
  8
0
100
AcDbSpline
 62
7
  6
BYLAYER
 70
0
 71
3
 72
12
 73
8
 74
0
 42
0.0000001
 43
0.0000001
 44
0.0000000001
 40
0.0
 40
0.0
 40
0.0
 40
0.0
 40
0.2825063393
 40
0.5155306177
 40
0.62586338
 40
0.7402898493
 40
1.0
 40
1.0
 40
1.0
 40
1.0
 10
70.4443226229
 20
118.0626365283
 30
0.0
 10
70.4822422638
 20
118.0407316466
 30
0.0
 10
70.5475218576
 20
117.9913041719
 30
0.0
 10
70.5926696144
 20
117.899348391
 30
0.0
 10
70.5904671246
 20
117.8271819607
 30
0.0
 10
70.5653756324
 20
117.7553738542
 30
0.0
 10
70.5238872039
 20
117.7110746764
 30
0.0
 10
70.4921093666
 20
117.6863585562
 30
0.0
  0
SPLINE
  5
37C
100
AcDbEntity
  8
0
100
AcDbSpline
 62
7
  6
BYLAYER
 70
0
 71
3
 72
9
 73
5
 74
0
 42
0.0000001
 43
0.0000001
 44
0.0000000001
 40
0.0
 40
0.0
 40
0.0
 40
0.0
 40
0.242236561
 40
1.0
 40
1.0
 40
1.0
 40
1.0
 10
70.4921093666
 20
117.6863585562
 30
0.0
 10
70.3305152004
 20
117.5605968782
 30
0.0
 10
69.6530105459
 20
117.0548638669
 30
0.0
 10
68.9366026621
 20
116.6019466101
 30
0.0
 10
68.379156661
 20
116.286428598
 30
0.0
  0
SPLINE
  5
37D
100
AcDbEntity
  8
0
100
AcDbSpline
 62
7
  6
BYLAYER
 70
0
 71
3
 72
9
 73
5
 74
0
 42
0.0000001
 43
0.0000001
 44
0.0000000001
 40
0.0
 40
0.0
 40
0.0
 40
0.0
 40
0.2441050122
 40
1.0
 40
1.0
 40
1.0
 40
1.0
 10
68.379156661
 20
116.286428598
 30
0.0
 10
68.2103649628
 20
116.1908914142
 30
0.0
 10
67.5131074261
 20
115.809783571
 30
0.0
 10
66.7940077267
 20
115.4689868515
 30
0.0
 10
66.241919112
 20
115.2325255747
 30
0.0
  0
SPLINE
  5
37E
100
AcDbEntity
  8
0
100
AcDbSpline
 62
7
  6
BYLAYER
 70
0
 71
3
 72
13
 73
9
 74
0
 42
0.0000001
 43
0.0000001
 44
0.0000000001
 40
0.0
 40
0.0
 40
0.0
 40
0.0
 40
0.1084873718
 40
0.2285131996
 40
0.4905733359
 40
0.7577401773
 40
0.8837913952
 40
1.0
 40
1.0
 40
1.0
 40
1.0
 10
66.2418726764
 20
115.2325123262
 30
0.0
 10
66.3246735021
 20
115.1680858669
 30
0.0
 10
66.4872972943
 20
115.0170075207
 30
0.0
 10
66.7905824396
 20
114.6510020281
 30
0.0
 10
67.1076758501
 20
114.103863723
 30
0.0
 10
67.3227386824
 20
113.503484856
 30
0.0
 10
67.4160582522
 20
113.0189516608
 30
0.0
 10
67.4334815868
 20
112.7845261514
 30
0.0
 10
67.4334816727
 20
112.6721462727
 30
0.0
  0
SPLINE
  5
37F
100
AcDbEntity
  8
0
100
AcDbSpline
 62
7
  6
BYLAYER
 70
0
 71
3
 72
12
 73
8
 74
0
 42
0.0000001
 43
0.0000001
 44
0.0000000001
 40
0.0
 40
0.0
 40
0.0
 40
0.0
 40
0.2441822363
 40
0.5066530541
 40
0.7654421643
 40
0.8869858886
 40
1.0
 40
1.0
 40
1.0
 40
1.0
 10
67.4337734519
 20
112.6719133124
 30
0.0
 10
67.1801432157
 20
112.5705251605
 30
0.0
 10
66.6238062445
 20
112.433167235
 30
0.0
 10
65.7636419167
 20
112.4011617523
 30
0.0
 10
65.0474584418
 20
112.513685056
 30
0.0
 10
64.523464346
 20
112.6900759514
 30
0.0
 10
64.2862959703
 20
112.8046381049
 30
0.0
 10
64.1770619282
 20
112.8682744113
 30
0.0
  0
SPLINE
  5
380
100
AcDbEntity
  8
0
100
AcDbSpline
 62
7
  6
BYLAYER
 70
0
 71
3
 72
9
 73
5
 74
0
 42
0.0000001
 43
0.0000001
 44
0.0000000001
 40
0.0
 40
0.0
 40
0.0
 40
0.0
 40
0.2566151337
 40
1.0
 40
1.0
 40
1.0
 40
1.0
 10
25.9727070012
 20
63.3753510857
 30
0.0
 10
25.9925578507
 20
63.3595085989
 30
0.0
 10
26.0689058788
 20
63.2965265676
 30
0.0
 10
26.1411145566
 20
63.2284689655
 30
0.0
 10
26.1916789741
 20
63.1750237743
 30
0.0
  0
SPLINE
  5
381
100
AcDbEntity
  8
0
100
AcDbSpline
 62
7
  6
BYLAYER
 70
0
 71
3
 72
13
 73
9
 74
0
 42
0.0000001
 43
0.0000001
 44
0.0000000001
 40
0.0
 40
0.0
 40
0.0
 40
0.0
 40
0.1155077343
 40
0.2396464943
 40
0.5020709161
 40
0.7633980761
 40
0.8862255953
 40
1.0
 40
1.0
 40
1.0
 40
1.0
 10
64.1767990727
 20
112.8681334796
 30
0.0
 10
64.1800913207
 20
112.9788978966
 30
0.0
 10
64.2061169108
 20
113.2083416839
 30
0.0
 10
64.3240382905
 20
113.6764489447
 30
0.0
 10
64.5840865883
 20
114.2470859463
 30
0.0
 10
64.9574700898
 20
114.7495278472
 30
0.0
 10
65.3086951364
 20
115.0749343399
 30
0.0
 10
65.4956180465
 20
115.2055631944
 30
0.0
 10
65.5901452495
 20
115.2601381748
 30
0.0
  0
SPLINE
  5
382
100
AcDbEntity
  8
0
100
AcDbSpline
 62
7
  6
BYLAYER
 70
0
 71
3
 72
11
 73
7
 74
0
 42
0.0000001
 43
0.0000001
 44
0.0000000001
 40
0.0
 40
0.0
 40
0.0
 40
0.0
 40
0.289701831
 40
0.5490862157
 40
0.7822153087
 40
1.0
 40
1.0
 40
1.0
 40
1.0
 10
31.6480333083
 20
59.1933916362
 30
0.0
 10
31.5054284651
 20
59.1110591824
 30
0.0
 10
31.2467047561
 20
58.9328634203
 30
0.0
 10
30.9374923942
 20
58.6079003118
 30
0.0
 10
30.7418878167
 20
58.2484109317
 30
0.0
 10
30.6961398938
 20
57.9903973276
 30
0.0
 10
30.6961398878
 20
57.8666091683
 30
0.0
  0
SPLINE
  5
383
100
AcDbEntity
  8
0
100
AcDbSpline
 62
7
  6
BYLAYER
 70
0
 71
3
 72
21
 73
17
 74
0
 42
0.0000001
 43
0.0000001
 44
0.0000000001
 40
0.0
 40
0.0
 40
0.0
 40
0.0
 40
0.0549930433
 40
0.1126898942
 40
0.1726346069
 40
0.234289414
 40
0.2971383456
 40
0.3607480582
 40
0.4247957034
 40
0.4890675927
 40
0.5534369169
 40
0.6178301434
 40
0.6821915583
 40
0.7464559452
 40
0.8741750807
 40
1.0
 40
1.0
 40
1.0
 40
1.0
 10
66.9066937153
 20
99.1393206088
 30
0.0
 10
66.8868284146
 20
98.6355698733
 30
0.0
 10
66.7741677088
 20
97.605193852
 30
0.0
 10
66.408642031
 20
96.0617430723
 30
0.0
 10
65.844080001
 20
94.5140670488
 30
0.0
 10
65.0836187064
 20
92.9995849271
 30
0.0
 10
64.1331114942
 20
91.5558433704
 30
0.0
 10
63.0025750874
 20
90.219070582
 30
0.0
 10
61.7074116352
 20
89.0215099649
 30
0.0
 10
60.2685720641
 20
87.9890106147
 30
0.0
 10
58.7115938392
 20
87.1388700731
 30
0.0
 10
57.0645372512
 20
86.4788407457
 30
0.0
 10
55.355258118
 20
86.0077599434
 30
0.0
 10
53.0335960798
 20
85.6214730229
 30
0.0
 10
50.104996421
 20
85.5553532777
 30
0.0
 10
47.7929184029
 20
85.8643360472
 30
0.0
 10
46.6618398753
 20
86.0905869143
 30
0.0
  0
SPLINE
  5
384
100
AcDbEntity
  8
0
100
AcDbSpline
 62
7
  6
BYLAYER
 70
0
 71
3
 72
15
 73
11
 74
0
 42
0.0000001
 43
0.0000001
 44
0.0000000001
 40
0.0
 40
0.0
 40
0.0
 40
0.0
 40
0.1117682302
 40
0.2404155928
 40
0.3814557883
 40
0.5270030481
 40
0.6685330418
 40
0.7982455924
 40
0.9095585257
 40
1.0
 40
1.0
 40
1.0
 40
1.0
 10
46.661839868
 20
86.0905869157
 30
0.0
 10
46.661839868
 20
86.2222265933
 30
0.0
 10
46.6727041147
 20
86.5054173648
 30
0.0
 10
46.7166374399
 20
86.9527739995
 30
0.0
 10
46.7921658472
 20
87.4362135561
 30
0.0
 10
46.8957176361
 20
87.9299577549
 30
0.0
 10
47.0240301208
 20
88.4040539556
 30
0.0
 10
47.1666909145
 20
88.8317878167
 30
0.0
 10
47.3162744181
 20
89.1927362875
 30
0.0
 10
47.4254771489
 20
89.4043222742
 30
0.0
 10
47.4802897567
 20
89.4956587129
 30
0.0
  0
SPLINE
  5
385
100
AcDbEntity
  8
0
100
AcDbSpline
 62
7
  6
BYLAYER
 70
0
 71
3
 72
15
 73
11
 74
0
 42
0.0000001
 43
0.0000001
 44
0.0000000001
 40
0.0
 40
0.0
 40
0.0
 40
0.0
 40
0.1141220301
 40
0.2373445466
 40
0.3669709615
 40
0.5000005207
 40
0.6330300074
 40
0.7626562109
 40
0.8858783938
 40
1.0
 40
1.0
 40
1.0
 40
1.0
 10
36.2442273588
 20
59.1934026684
 30
0.0
 10
36.0869493268
 20
59.2842051283
 30
0.0
 10
35.7428834156
 20
59.444348331
 30
0.0
 10
35.1827149626
 20
59.6147150734
 30
0.0
 10
34.5761369902
 20
59.7194576341
 30
0.0
 10
33.9461264633
 20
59.7548803455
 30
0.0
 10
33.3161164393
 20
59.7194546486
 30
0.0
 10
32.7095399532
 20
59.6147092105
 30
0.0
 10
32.1493739088
 20
59.4443398105
 30
0.0
 10
31.805310101
 20
59.2841948935
 30
0.0
 10
31.6480333083
 20
59.1933916362
 30
0.0
  0
SPLINE
  5
386
100
AcDbEntity
  8
0
100
AcDbSpline
 62
7
  6
BYLAYER
 70
0
 71
3
 72
15
 73
11
 74
0
 42
0.0000001
 43
0.0000001
 44
0.0000000001
 40
0.0
 40
0.0
 40
0.0
 40
0.0
 40
0.1035236535
 40
0.2201474628
 40
0.3480787194
 40
0.4832998041
 40
0.6211441857
 40
0.7563030307
 40
0.8837126224
 40
1.0
 40
1.0
 40
1.0
 40
1.0
 10
63.7090327183
 20
99.3740938413
 30
0.0
 10
63.8072294017
 20
99.316673281
 30
0.0
 10
64.0246803263
 20
99.2090404157
 30
0.0
 10
64.3855739558
 20
99.0800775762
 30
0.0
 10
64.7924506727
 20
98.983874904
 30
0.0
 10
65.2300403462
 20
98.9260828177
 30
0.0
 10
65.6791990668
 20
98.9138463275
 30
0.0
 10
66.1188510705
 20
98.9451457386
 30
0.0
 10
66.5292960209
 20
99.0190958
 30
0.0
 10
66.7867662414
 20
99.0952234794
 30
0.0
 10
66.9066937143
 20
99.1393205936
 30
0.0
  0
SPLINE
  5
387
100
AcDbEntity
  8
0
100
AcDbSpline
 62
7
  6
BYLAYER
 70
0
 71
3
 72
12
 73
8
 74
0
 42
0.0000001
 43
0.0000001
 44
0.0000000001
 40
0.0
 40
0.0
 40
0.0
 40
0.0
 40
0.1125722399
 40
0.2334371112
 40
0.4911451727
 40
0.7537221967
 40
1.0
 40
1.0
 40
1.0
 40
1.0
 10
31.6480332811
 20
57.4787365445
 30
0.0
 10
31.7887981335
 20
57.5600066829
 30
0.0
 10
32.0942899985
 20
57.705604455
 30
0.0
 10
32.7696605231
 20
57.9263960019
 30
0.0
 10
33.6937455794
 20
58.0599046386
 30
0.0
 10
34.8050841139
 20
58.0002269567
 30
0.0
 10
35.5229022564
 20
57.8092708607
 30
0.0
 10
35.8510298615
 20
57.6722277451
 30
0.0
  0
SPLINE
  5
388
100
AcDbEntity
  8
0
100
AcDbSpline
 62
7
  6
BYLAYER
 70
0
 71
3
 72
11
 73
7
 74
0
 42
0.0000001
 43
0.0000001
 44
0.0000000001
 40
0.0
 40
0.0
 40
0.0
 40
0.0
 40
0.2372428732
 40
0.4999994739
 40
0.7627563609
 40
1.0
 40
1.0
 40
1.0
 40
1.0
 10
34.1582680067
 20
56.6949170663
 30
0.0
 10
34.128151011
 20
56.6775291145
 30
0.0
 10
34.0581140617
 20
56.6521590963
 30
0.0
 10
33.9461363059
 20
56.640002946
 30
0.0
 10
33.8341583811
 20
56.6521585852
 30
0.0
 10
33.7641211564
 20
56.6775282558
 30
0.0
 10
33.734003938
 20
56.6949160465
 30
0.0
  0
SPLINE
  5
389
100
AcDbEntity
  8
0
100
AcDbSpline
 62
7
  6
BYLAYER
 70
0
 71
3
 72
9
 73
5
 74
0
 42
0.0000001
 43
0.0000001
 44
0.0000000001
 40
0.0
 40
0.0
 40
0.0
 40
0.0
 40
0.2580680254
 40
1.0
 40
1.0
 40
1.0
 40
1.0
 10
32.4464950863
 20
57.4382428124
 30
0.0
 10
32.4110162712
 20
57.424455317
 30
0.0
 10
32.2744890133
 20
57.3686429835
 30
0.0
 10
32.1418638959
 20
57.303059339
 30
0.0
 10
32.0470937424
 20
57.2483440919
 30
0.0
  0
SPLINE
  5
38A
100
AcDbEntity
  8
0
100
AcDbSpline
 62
7
  6
BYLAYER
 70
0
 71
3
 72
9
 73
5
 74
0
 42
0.0000001
 43
0.0000001
 44
0.0000000001
 40
0.0
 40
0.0
 40
0.0
 40
0.0
 40
0.2599038149
 40
1.0
 40
1.0
 40
1.0
 40
1.0
 10
32.0470937424
 20
57.2483440919
 30
0.0
 10
32.0169319047
 20
57.2309302507
 30
0.0
 10
31.9022915929
 20
57.1615514438
 30
0.0
 10
31.7934549995
 20
57.0823196394
 30
0.0
 10
31.7181781339
 20
57.0177513339
 30
0.0
  0
SPLINE
  5
38B
100
AcDbEntity
  8
0
100
AcDbSpline
 62
7
  6
BYLAYER
 70
0
 71
3
 72
14
 73
10
 74
0
 42
0.0000001
 43
0.0000001
 44
0.0000000001
 40
0.0
 40
0.0
 40
0.0
 40
0.0
 40
0.1466730118
 40
0.288554272
 40
0.4246096155
 40
0.5541100989
 40
0.6765046421
 40
0.7915456956
 40
1.0
 40
1.0
 40
1.0
 40
1.0
 10
46.6618398753
 20
86.0905869143
 30
0.0
 10
45.8726033612
 20
86.248460651
 30
0.0
 10
44.3300081979
 20
86.6128884975
 30
0.0
 10
42.1061689725
 20
87.3156391293
 30
0.0
 10
40.032425145
 20
88.1585459354
 30
0.0
 10
38.1352889845
 20
89.1305399675
 30
0.0
 10
36.437436388
 20
90.2212440316
 30
0.0
 10
34.5338158476
 20
91.7610776604
 30
0.0
 10
33.3564898027
 20
93.1312703985
 30
0.0
 10
32.7678626596
 20
94.1120969287
 30
0.0
  0
SPLINE
  5
38C
100
AcDbEntity
  8
0
100
AcDbSpline
 62
7
  6
BYLAYER
 70
0
 71
3
 72
13
 73
9
 74
0
 42
0.0000001
 43
0.0000001
 44
0.0000000001
 40
0.0
 40
0.0
 40
0.0
 40
0.0
 40
0.2502289078
 40
0.386572699
 40
0.524002206
 40
0.6575487719
 40
0.7832128278
 40
1.0
 40
1.0
 40
1.0
 40
1.0
 10
35.1300877883
 20
96.6258898442
 30
0.0
 10
34.8275504901
 20
96.5653706229
 30
0.0
 10
34.3716106925
 20
96.396956044
 30
0.0
 10
33.828878921
 20
96.0434397909
 30
0.0
 10
33.4525060054
 20
95.7073868545
 30
0.0
 10
33.1475990778
 20
95.3215442267
 30
0.0
 10
32.8655575253
 20
94.8050590533
 30
0.0
 10
32.7678626535
 20
94.379394466
 30
0.0
 10
32.7678626535
 20
94.1120969389
 30
0.0
  0
SPLINE
  5
38D
100
AcDbEntity
  8
0
100
AcDbSpline
 62
7
  6
BYLAYER
 70
0
 71
3
 72
12
 73
8
 74
0
 42
0.0000001
 43
0.0000001
 44
0.0000000001
 40
0.0
 40
0.0
 40
0.0
 40
0.0
 40
0.275281793
 40
0.5348779372
 40
0.7745551235
 40
0.8883612069
 40
1.0
 40
1.0
 40
1.0
 40
1.0
 10
35.8614989555
 20
115.4515112483
 30
0.0
 10
35.7573526703
 20
115.5108670413
 30
0.0
 10
35.5628929336
 20
115.6413793328
 30
0.0
 10
35.3222454983
 20
115.8814550109
 30
0.0
 10
35.1872182726
 20
116.1171664875
 30
0.0
 10
35.1346811055
 20
116.313831018
 30
0.0
 10
35.1279622782
 20
116.4125056148
 30
0.0
 10
35.1292536081
 20
116.4611022377
 30
0.0
  0
SPLINE
  5
38E
100
AcDbEntity
  8
0
100
AcDbSpline
 62
7
  6
BYLAYER
 70
0
 71
3
 72
13
 73
9
 74
0
 42
0.0000001
 43
0.0000001
 44
0.0000000001
 40
0.0
 40
0.0
 40
0.0
 40
0.0
 40
0.1137554692
 40
0.2365219698
 40
0.4977759329
 40
0.7602704645
 40
0.884472196
 40
1.0
 40
1.0
 40
1.0
 40
1.0
 10
37.6114944077
 20
131.4132543376
 30
0.0
 10
37.5169829341
 20
131.3586884386
 30
0.0
 10
37.3301115628
 20
131.2281205018
 30
0.0
 10
36.9789933093
 20
130.9028146615
 30
0.0
 10
36.605594454
 20
130.400470917
 30
0.0
 10
36.3454542493
 20
129.8298037754
 30
0.0
 10
36.2274967756
 20
129.3615542875
 30
0.0
 10
36.2014410517
 20
129.1320333166
 30
0.0
 10
36.1981482311
 20
129.0212496509
 30
0.0
  0
SPLINE
  5
38F
100
AcDbEntity
  8
0
100
AcDbSpline
 62
7
  6
BYLAYER
 70
0
 71
3
 72
11
 73
7
 74
0
 42
0.0000001
 43
0.0000001
 44
0.0000000001
 40
0.0
 40
0.0
 40
0.0
 40
0.0
 40
0.2933193455
 40
0.5538105203
 40
0.7853919148
 40
1.0
 40
1.0
 40
1.0
 40
1.0
 10
36.1984286576
 20
129.0214038657
 30
0.0
 10
36.0870535573
 20
129.0851199189
 30
0.0
 10
35.8855278863
 20
129.2223825528
 30
0.0
 10
35.6451683482
 20
129.4721899053
 30
0.0
 10
35.495164777
 20
129.7476907911
 30
0.0
 10
35.4632925197
 20
129.9451336946
 30
0.0
 10
35.4655570187
 20
130.0389867962
 30
0.0
  0
SPLINE
  5
390
100
AcDbEntity
  8
0
100
AcDbSpline
 62
7
  6
BYLAYER
 70
0
 71
3
 72
13
 73
9
 74
0
 42
0.0000001
 43
0.0000001
 44
0.0000000001
 40
0.0
 40
0.0
 40
0.0
 40
0.0
 40
0.115508854
 40
0.2396713912
 40
0.5021484216
 40
0.763455589
 40
0.8862442101
 40
1.0
 40
1.0
 40
1.0
 40
1.0
 10
40.3586485369
 20
126.6192379939
 30
0.0
 10
40.3619408116
 20
126.7300032942
 30
0.0
 10
40.3879685165
 20
126.9594710439
 30
0.0
 10
40.5059317445
 20
127.4276436145
 30
0.0
 10
40.7660156885
 20
127.9983268515
 30
0.0
 10
41.1394394985
 20
128.5007242479
 30
0.0
 10
41.490593127
 20
128.8260976092
 30
0.0
 10
41.6774831394
 20
128.956676749
 30
0.0
 10
41.7719947142
 20
129.0112427064
 30
0.0
  0
SPLINE
  5
391
100
AcDbEntity
  8
0
100
AcDbSpline
 62
7
  6
BYLAYER
 70
0
 71
3
 72
9
 73
5
 74
0
 42
0.0000001
 43
0.0000001
 44
0.0000000001
 40
0.0
 40
0.0
 40
0.0
 40
0.0
 40
0.2566151337
 40
1.0
 40
1.0
 40
1.0
 40
1.0
 10
36.5793528784
 20
57.2517397679
 30
0.0
 10
36.5992037279
 20
57.2358972811
 30
0.0
 10
36.675551756
 20
57.1729152497
 30
0.0
 10
36.7477604338
 20
57.1048576477
 30
0.0
 10
36.7983248513
 20
57.0514124565
 30
0.0
  0
SPLINE
  5
392
100
AcDbEntity
  8
0
100
AcDbSpline
 62
7
  6
BYLAYER
 70
0
 71
3
 72
11
 73
7
 74
0
 42
0.0000001
 43
0.0000001
 44
0.0000000001
 40
0.0
 40
0.0
 40
0.0
 40
0.0
 40
0.2177842323
 40
0.4509131322
 40
0.7102976887
 40
1.0
 40
1.0
 40
1.0
 40
1.0
 10
37.1961398878
 20
57.8666091683
 30
0.0
 10
37.1961398938
 20
57.990398659
 30
0.0
 10
37.1503908979
 20
58.2484152338
 30
0.0
 10
36.9547821124
 20
58.6079080915
 30
0.0
 10
36.6455634785
 20
58.9328736054
 30
0.0
 10
36.3868348667
 20
59.1110700479
 30
0.0
 10
36.2442273588
 20
59.1934026684
 30
0.0
  0
SPLINE
  5
393
100
AcDbEntity
  8
0
100
AcDbSpline
 62
7
  6
BYLAYER
 70
0
 71
3
 72
11
 73
7
 74
0
 42
0.0000001
 43
0.0000001
 44
0.0000000001
 40
0.0
 40
0.0
 40
0.0
 40
0.0
 40
0.289701831
 40
0.5490862157
 40
0.7822153087
 40
1.0
 40
1.0
 40
1.0
 40
1.0
 10
42.2546791855
 20
53.0697803184
 30
0.0
 10
42.1120743423
 20
52.9874478646
 30
0.0
 10
41.8533506333
 20
52.8092521025
 30
0.0
 10
41.5441382714
 20
52.484288994
 30
0.0
 10
41.3485336939
 20
52.1247996139
 30
0.0
 10
41.302785771
 20
51.8667860098
 30
0.0
 10
41.302785765
 20
51.7429978505
 30
0.0
  0
SPLINE
  5
394
100
AcDbEntity
  8
0
100
AcDbSpline
 62
7
  6
BYLAYER
 70
0
 71
3
 72
11
 73
7
 74
0
 42
0.0000001
 43
0.0000001
 44
0.0000000001
 40
0.0
 40
0.0
 40
0.0
 40
0.0
 40
0.2272067755
 40
0.4647001808
 40
0.7209603725
 40
1.0
 40
1.0
 40
1.0
 40
1.0
 10
72.5901418623
 20
116.281673547
 30
0.0
 10
72.5922776906
 20
116.2002842553
 30
0.0
 10
72.5731176548
 20
116.032397093
 30
0.0
 10
72.4762515691
 20
115.7900933768
 30
0.0
 10
72.3156630656
 20
115.5619584854
 30
0.0
 10
72.1762685061
 20
115.4285002975
 30
0.0
 10
72.0988264525
 20
115.3652472414
 30
0.0
  0
SPLINE
  5
395
100
AcDbEntity
  8
0
100
AcDbSpline
 62
7
  6
BYLAYER
 70
0
 71
3
 72
15
 73
11
 74
0
 42
0.0000001
 43
0.0000001
 44
0.0000000001
 40
0.0
 40
0.0
 40
0.0
 40
0.0
 40
0.1141220301
 40
0.2373445466
 40
0.3669709615
 40
0.5000005207
 40
0.6330300074
 40
0.7626562109
 40
0.8858783938
 40
1.0
 40
1.0
 40
1.0
 40
1.0
 10
46.850873236
 20
53.0697913506
 30
0.0
 10
46.693595204
 20
53.1605938105
 30
0.0
 10
46.3495292928
 20
53.3207370132
 30
0.0
 10
45.7893608398
 20
53.4911037556
 30
0.0
 10
45.1827828674
 20
53.5958463163
 30
0.0
 10
44.5527723405
 20
53.6312690277
 30
0.0
 10
43.9227623165
 20
53.5958433308
 30
0.0
 10
43.3161858304
 20
53.4910978927
 30
0.0
 10
42.756019786
 20
53.3207284927
 30
0.0
 10
42.4119559782
 20
53.1605835757
 30
0.0
 10
42.2546791855
 20
53.0697803184
 30
0.0
  0
SPLINE
  5
396
100
AcDbEntity
  8
0
100
AcDbSpline
 62
7
  6
BYLAYER
 70
0
 71
3
 72
12
 73
8
 74
0
 42
0.0000001
 43
0.0000001
 44
0.0000000001
 40
0.0
 40
0.0
 40
0.0
 40
0.0
 40
0.1125722399
 40
0.2334371112
 40
0.4911451727
 40
0.7537221967
 40
1.0
 40
1.0
 40
1.0
 40
1.0
 10
42.2546791583
 20
51.3551252267
 30
0.0
 10
42.3954440107
 20
51.4363953651
 30
0.0
 10
42.7009358757
 20
51.5819931371
 30
0.0
 10
43.3763064003
 20
51.8027846841
 30
0.0
 10
44.3003914566
 20
51.9362933208
 30
0.0
 10
45.4117299911
 20
51.8766156389
 30
0.0
 10
46.1295481336
 20
51.6856595429
 30
0.0
 10
46.4576757387
 20
51.5486164273
 30
0.0
  0
SPLINE
  5
397
100
AcDbEntity
  8
0
100
AcDbSpline
 62
7
  6
BYLAYER
 70
0
 71
3
 72
11
 73
7
 74
0
 42
0.0000001
 43
0.0000001
 44
0.0000000001
 40
0.0
 40
0.0
 40
0.0
 40
0.0
 40
0.2372428732
 40
0.4999994739
 40
0.7627563609
 40
1.0
 40
1.0
 40
1.0
 40
1.0
 10
44.7649138839
 20
50.5713057485
 30
0.0
 10
44.7347968882
 20
50.5539177967
 30
0.0
 10
44.6647599389
 20
50.5285477785
 30
0.0
 10
44.5527821831
 20
50.5163916282
 30
0.0
 10
44.4408042583
 20
50.5285472674
 30
0.0
 10
44.3707670336
 20
50.553916938
 30
0.0
 10
44.3406498152
 20
50.5713047287
 30
0.0
  0
SPLINE
  5
398
100
AcDbEntity
  8
0
100
AcDbSpline
 62
7
  6
BYLAYER
 70
0
 71
3
 72
9
 73
5
 74
0
 42
0.0000001
 43
0.0000001
 44
0.0000000001
 40
0.0
 40
0.0
 40
0.0
 40
0.0
 40
0.2580680254
 40
1.0
 40
1.0
 40
1.0
 40
1.0
 10
43.0531409635
 20
51.3146314946
 30
0.0
 10
43.0176621484
 20
51.3008439992
 30
0.0
 10
42.8811348905
 20
51.2450316657
 30
0.0
 10
42.7485097731
 20
51.1794480212
 30
0.0
 10
42.6537396196
 20
51.1247327741
 30
0.0
  0
SPLINE
  5
399
100
AcDbEntity
  8
0
100
AcDbSpline
 62
7
  6
BYLAYER
 70
0
 71
3
 72
9
 73
5
 74
0
 42
0.0000001
 43
0.0000001
 44
0.0000000001
 40
0.0
 40
0.0
 40
0.0
 40
0.0
 40
0.2599038149
 40
1.0
 40
1.0
 40
1.0
 40
1.0
 10
42.6537396196
 20
51.1247327741
 30
0.0
 10
42.6235777819
 20
51.1073189329
 30
0.0
 10
42.5089374701
 20
51.037940126
 30
0.0
 10
42.4001008767
 20
50.9587083215
 30
0.0
 10
42.3248240111
 20
50.8941400161
 30
0.0
  0
SPLINE
  5
39A
100
AcDbEntity
  8
0
100
AcDbSpline
 62
7
  6
BYLAYER
 70
0
 71
3
 72
11
 73
7
 74
0
 42
0.0000001
 43
0.0000001
 44
0.0000000001
 40
0.0
 40
0.0
 40
0.0
 40
0.0
 40
0.2360386415
 40
0.4791590888
 40
0.7337763167
 40
1.0
 40
1.0
 40
1.0
 40
1.0
 10
72.9265682494
 20
103.2447807788
 30
0.0
 10
72.928383017
 20
103.1639918615
 30
0.0
 10
72.9098524244
 20
102.9987651715
 30
0.0
 10
72.8188928637
 20
102.7620399913
 30
0.0
 10
72.6714250748
 20
102.5438537355
 30
0.0
 10
72.5460605815
 20
102.4157645419
 30
0.0
 10
72.4775593948
 20
102.3556422099
 30
0.0
  0
SPLINE
  5
39B
100
AcDbEntity
  8
0
100
AcDbSpline
 62
7
  6
BYLAYER
 70
0
 71
3
 72
9
 73
5
 74
0
 42
0.0000001
 43
0.0000001
 44
0.0000000001
 40
0.0
 40
0.0
 40
0.0
 40
0.0
 40
0.2566151337
 40
1.0
 40
1.0
 40
1.0
 40
1.0
 10
47.1859987556
 20
51.1281284501
 30
0.0
 10
47.2058496051
 20
51.1122859633
 30
0.0
 10
47.2821976332
 20
51.0493039319
 30
0.0
 10
47.354406311
 20
50.9812463299
 30
0.0
 10
47.4049707285
 20
50.9278011387
 30
0.0
  0
ENDSEC
  0
SECTION
  2
OBJECTS
  0
DICTIONARY
  5
C
100
AcDbDictionary
280
0
281
1
  3
ACAD_GROUP
350
D
  3
ACAD_MLINESTYLE
350
17
  3
ACAD_LAYOUT
350
1A
  3
ACAD_PLOTSETTINGS
350
19
  3
ACAD_PLOTSTYLENAME
350
E
  0
DICTIONARY
  5
D
102
{ACAD_REACTORS
330
C
102
}
100
AcDbDictionary
280
0
281
1
  0
ACDBDICTIONARYWDFLT
  5
E
102
{ACAD_REACTORS
330
C
102
}
100
AcDbDictionary
281
1
  3
Normal
350
F
100
AcDbDictionaryWithDefault
340
F
  0
DICTIONARY
  5
17
102
{ACAD_REACTORS
330
C
102
}
100
AcDbDictionary
280
0
281
1
  3
Standard
350
18
  0
DICTIONARY
  5
19
102
{ACAD_REACTORS
330
C
102
}
100
AcDbDictionary
281
1
  0
DICTIONARY
  5
1A
102
{ACAD_REACTORS
330
C
102
}
100
AcDbDictionary
281
1
  3
Model
350
39C
  3
Layout1
350
39D
  0
ACDBPLACEHOLDER
  5
F
102
{ACAD_REACTORS
330
E
102
}
  0
MLINESTYLE
  5
18
102
{ACAD_REACTORS
330
17
102
}
100
AcDbMlineStyle
  2
STANDARD
 70
0
  3

 62
256
 51
90.0
 52
90.0
 71
2
 49
0.5
 62
256
  6
BYLAYER
 49
-0.5
 62
256
  6
BYLAYER
  0
LAYOUT
  5
39C
102
{ACAD_REACTORS
330
1A
102
}
100
AcDbPlotSettings
  1

  2
none_device
  4

  6

 40
0.0
 41
0.0
 42
0.0
 43
0.0
 44
210.0
 45
297.0
 46
0.0
 47
0.0
 48
0.0
 49
0.0
140
0.0
141
0.0
142
1.0
143
1.0
 70
1024
 72
1
 73
0
 74
0
  7

 75
0
147
1.0
148
0.0
149
0.0
100
AcDbLayout
  1
Model
 70
0
 71
0
 10
0.0
 20
0.0
 11
210.0
 21
297.0
 12
0.0
 22
0.0
 32
0.0
 14
0.0
 24
0.0
 34
0.0
 15
0.0
 25
0.0
 35
0.0
146
0.0
 13
0.0
 23
0.0
 33
0.0
 16
1.0
 26
0.0
 36
0.0
 17
0.0
 27
1.0
 37
0.0
 76
0
330
210
345
0
346
0
  0
LAYOUT
  5
39D
102
{ACAD_REACTORS
330
1A
102
}
100
AcDbPlotSettings
  1

  2
none_device
  4

  6

 40
0.0
 41
0.0
 42
0.0
 43
0.0
 44
210.0
 45
297.0
 46
0.0
 47
0.0
 48
0.0
 49
0.0
140
0.0
141
0.0
142
1.0
143
1.0
 70
0
 72
1
 73
0
 74
0
  7

 75
0
147
1.0
148
0.0
149
0.0
100
AcDbLayout
  1
Layout1
 70
0
 71
1
 10
0.0
 20
0.0
 11
210.0
 21
297.0
 12
0.0
 22
0.0
 32
0.0
 14
0.0
 24
0.0
 34
0.0
 15
0.0
 25
0.0
 35
0.0
146
0.0
 13
0.0
 23
0.0
 33
0.0
 16
1.0
 26
0.0
 36
0.0
 17
0.0
 27
1.0
 37
0.0
 76
0
330
211
345
0
346
0
  0
ENDSEC
  0
EOF
