999
DXF file: C:\Users\sesa63760\Dev\_Creo\CAD\MCADUE0002361_3D-CAD\drw0001_1.dxf
999
Pro/ENGINEER 2019471 by Parametric Technology Corporation
  0
SECTION
  2
HEADER
  9
$ACADVER
  1
AC1024
  9
$DWGCODEPAGE
  3
ANSI_1252
  9
$EXTMAX
 10
287.9591723159
 20
407.2565437039
 30
0.0
  9
$EXTMIN
 10
0.0
 20
0.0
 30
0.0
  9
$LIMMIN
 10
0.0
 20
0.0
  9
$LIMMAX
 10
287.9591723159
 20
407.2565437039
  9
$VIEWCTR
 10
143.9795861579
 20
203.628271852
  9
$VIEWSIZE
 40
407.2565437039
  9
$CLAYER
  8
0
  9
$LTSCALE
 40
26.5470932192
  9
$CELTYPE
  6
BYLAYER
  9
$DIMSCALE
 40
1.0
  9
$DIMASZ
 40
3.4280853847
  9
$DIMEXO
 40
1.0
  9
$DIMDLI
 40
18.3416280424
  9
$DIMEXE
 40
1.0
  9
$DIMCEN
 40
4.3440697995
  9
$DIMLFAC
 40
1.0
  9
$DIMBLK
  1
_FILLED
  9
$DIMALT
 70
0
  9
$DIMALTF
 40
0.0393700787
  9
$DIMTXT
 40
4.7993195386
  9
$DIMTOL
 70
1
  9
$DIMLIM
 70
0
  9
$DIMTFAC
 40
1.0
  9
$DIMTP
 40
0.01
  9
$DIMTM
 40
0.01
  9
$DIMGAP
 40
0.625
  9
$DIMDSEP
 70
46
  9
$AUNITS
 70
0
  9
$PDMODE
 70
3
  9
$PDSIZE
 40
0.3125
  9
$HANDSEED
  5
2D9
  9
$TILEMODE
 70
1
  9
$MEASUREMENT
 70
1
  9
$INSUNITS
 70
4
  0
ENDSEC
  0
SECTION
  2
CLASSES
  0
CLASS
  1
ACDBDICTIONARYWDFLT
  2
AcDbDictionaryWithDefault
  3
AutoCAD 2000
 90
0
 91
1
280
0
281
0
  0
CLASS
  1
ACDBPLACEHOLDER
  2
AcDbPlaceHolder
  3
AutoCAD 2000
 90
0
 91
1
280
0
281
0
  0
CLASS
  1
LAYOUT
  2
AcDbLayout
  3
AutoCAD 2000
 90
0
 91
0
280
0
281
0
  0
ENDSEC
  0
SECTION
  2
TABLES
  0
TABLE
  2
VPORT
  5
8
100
AcDbSymbolTable
 70
2
  0
VPORT
  5
1F4
100
AcDbSymbolTableRecord
100
AcDbViewportTableRecord
  2
*ACTIVE
 70
0
 10
0.0
 20
0.0
 11
1.0
 21
1.0
 12
143.9795861579
 22
203.628271852
 13
0.0
 23
0.0
 14
1.0
 24
1.0
 15
0.0
 25
0.0
 16
0.0
 26
0.0
 36
1.0
 17
0.0
 27
0.0
 37
0.0
 40
407.2565437039
 41
0.7070707071
 42
50.0
 43
0.0
 44
0.0
 50
0.0
 51
0.0
 71
0
 72
100
 73
1
 74
1
 75
0
 76
0
 77
0
 78
0
  0
ENDTAB
  0
TABLE
  2
LTYPE
  5
5
100
AcDbSymbolTable
 70
6
  0
LTYPE
  5
14
100
AcDbSymbolTableRecord
100
AcDbLinetypeTableRecord
  2
BYBLOCK
 70
0
  3

 72
65
 73
0
 40
0.0
  0
LTYPE
  5
15
100
AcDbSymbolTableRecord
100
AcDbLinetypeTableRecord
  2
BYLAYER
 70
0
  3

 72
65
 73
0
 40
0.0
  0
LTYPE
  5
16
100
AcDbSymbolTableRecord
100
AcDbLinetypeTableRecord
  2
CONTINUOUS
 70
64
  3
Solid line
 72
65
 73
0
 40
0.0
  0
LTYPE
  5
1F5
100
AcDbSymbolTableRecord
100
AcDbLinetypeTableRecord
  2
CENTER
 70
64
  3
____ _ ____ _ ____ _ ____ _ ____ _ ____ _ ____
 72
65
 73
4
 40
0.6
 49
0.375
 74
0
 49
-0.075
 74
0
 49
0.075
 74
0
 49
-0.075
 74
0
  0
LTYPE
  5
1F6
100
AcDbSymbolTableRecord
100
AcDbLinetypeTableRecord
  2
HIDDEN
 70
64
  3
- - - - - - - - - - - - - - - - - - - -
 72
65
 73
2
 40
0.2
 49
0.1
 74
0
 49
-0.1
 74
0
  0
LTYPE
  5
1F7
100
AcDbSymbolTableRecord
100
AcDbLinetypeTableRecord
  2
PHANTOM
 70
64
  3
_____ _ _ _____ _ _ _____ _ _ _____
 72
65
 73
6
 40
0.8
 49
0.45
 74
0
 49
-0.05
 74
0
 49
0.1
 74
0
 49
-0.05
 74
0
 49
0.1
 74
0
 49
-0.05
 74
0
  0
LTYPE
  5
1F8
100
AcDbSymbolTableRecord
100
AcDbLinetypeTableRecord
  2
DOT
 70
64
  3
. . . . . . . . . . . . . . . . . . . .
 72
65
 73
2
 40
0.2
 49
0.1
 74
0
 49
-0.1
 74
0
  0
LTYPE
  5
1F9
100
AcDbSymbolTableRecord
100
AcDbLinetypeTableRecord
  2
DASHED
 70
64
  3
- - - - - - - - - - - - - - - - - - - -
 72
65
 73
2
 40
0.2
 49
0.1
 74
0
 49
-0.1
 74
0
  0
ENDTAB
  0
TABLE
  2
LAYER
  5
2
100
AcDbSymbolTable
 70
36
  0
LAYER
  5
10
100
AcDbSymbolTableRecord
100
AcDbLayerTableRecord
  2
0
 70
0
 62
7
  6
CONTINUOUS
370
-3
390
F
  0
LAYER
  5
1FA
100
AcDbSymbolTableRecord
100
AcDbLayerTableRecord
  2
DEFAULT_1
 70
0
 62
7
  6
CENTER
370
-3
390
F
  0
LAYER
  5
1FB
100
AcDbSymbolTableRecord
100
AcDbLayerTableRecord
  2
DEFAULT_2
 70
0
 62
8
  6
HIDDEN
370
-3
390
F
  0
LAYER
  5
1FC
100
AcDbSymbolTableRecord
100
AcDbLayerTableRecord
  2
DEFAULT_3
 70
0
 62
7
  6
PHANTOM
370
-3
390
F
  0
LAYER
  5
1FD
100
AcDbSymbolTableRecord
100
AcDbLayerTableRecord
  2
00_COMPONENTS
 70
0
 62
7
  6
CONTINUOUS
370
-3
390
F
  0
LAYER
  5
1FE
100
AcDbSymbolTableRecord
100
AcDbLayerTableRecord
  2
01_1_DEFAULT_DATUMS
 70
0
 62
7
  6
CONTINUOUS
370
-3
390
F
  0
LAYER
  5
1FF
100
AcDbSymbolTableRecord
100
AcDbLayerTableRecord
  2
01_PLANES
 70
0
 62
7
  6
CONTINUOUS
370
-3
390
F
  0
LAYER
  5
200
100
AcDbSymbolTableRecord
100
AcDbLayerTableRecord
  2
02_COORD_SYS
 70
0
 62
7
  6
CONTINUOUS
370
-3
390
F
  0
LAYER
  5
201
100
AcDbSymbolTableRecord
100
AcDbLayerTableRecord
  2
03_AXES
 70
0
 62
7
  6
CONTINUOUS
370
-3
390
F
  0
LAYER
  5
202
100
AcDbSymbolTableRecord
100
AcDbLayerTableRecord
  2
04_POINTS
 70
0
 62
7
  6
CONTINUOUS
370
-3
390
F
  0
LAYER
  5
203
100
AcDbSymbolTableRecord
100
AcDbLayerTableRecord
  2
05_CURVES
 70
0
 62
7
  6
CONTINUOUS
370
-3
390
F
  0
LAYER
  5
204
100
AcDbSymbolTableRecord
100
AcDbLayerTableRecord
  2
06_SURFS
 70
0
 62
7
  6
CONTINUOUS
370
-3
390
F
  0
LAYER
  5
205
100
AcDbSymbolTableRecord
100
AcDbLayerTableRecord
  2
07_COSMETICS
 70
0
 62
7
  6
CONTINUOUS
370
-3
390
F
  0
LAYER
  5
206
100
AcDbSymbolTableRecord
100
AcDbLayerTableRecord
  2
10_NOTES
 70
0
 62
7
  6
CONTINUOUS
370
-3
390
F
  0
LAYER
  5
207
100
AcDbSymbolTableRecord
100
AcDbLayerTableRecord
  2
11_NOTES_PUB
 70
0
 62
7
  6
CONTINUOUS
370
-3
390
F
  0
LAYER
  5
208
100
AcDbSymbolTableRecord
100
AcDbLayerTableRecord
  2
13_REF_GTOL
 70
0
 62
7
  6
CONTINUOUS
370
-3
390
F
  0
LAYER
  5
209
100
AcDbSymbolTableRecord
100
AcDbLayerTableRecord
  2
16_MISC
 70
0
 62
7
  6
CONTINUOUS
370
-3
390
F
  0
LAYER
  5
20A
100
AcDbSymbolTableRecord
100
AcDbLayerTableRecord
  2
17_NO_PRINT
 70
0
 62
7
  6
CONTINUOUS
370
-3
390
F
  0
LAYER
  5
20B
100
AcDbSymbolTableRecord
100
AcDbLayerTableRecord
  2
18_DATUM_CAMS_JOINTS
 70
0
 62
7
  6
CONTINUOUS
370
-3
390
F
  0
LAYER
  5
20C
100
AcDbSymbolTableRecord
100
AcDbLayerTableRecord
  2
19_DATUM_FUNCTIONAL
 70
0
 62
7
  6
CONTINUOUS
370
-3
390
F
  0
LAYER
  5
20D
100
AcDbSymbolTableRecord
100
AcDbLayerTableRecord
  2
20_DATUM_KINEMATIC_SCHEME
 70
0
 62
7
  6
CONTINUOUS
370
-3
390
F
  0
ENDTAB
  0
TABLE
  2
STYLE
  5
3
100
AcDbSymbolTable
 70
1
  0
STYLE
  5
11
100
AcDbSymbolTableRecord
100
AcDbTextStyleTableRecord
  2
STANDARD
 70
0
 40
0.0
 41
0.8
 50
0.0
 71
0
 42
0.2
  3
txt
  4

  0
STYLE
  5
20E
100
AcDbSymbolTableRecord
100
AcDbTextStyleTableRecord
  2
TEXTSTYLE_1
 70
0
 40
0.0
 41
0.8
 50
0.0
 71
0
 42
0.2
  3
gdt
  4

  0
ENDTAB
  0
TABLE
  2
VIEW
  5
6
100
AcDbSymbolTable
 70
0
  0
ENDTAB
  0
TABLE
  2
UCS
  5
7
100
AcDbSymbolTable
 70
0
  0
ENDTAB
  0
TABLE
  2
APPID
  5
9
100
AcDbSymbolTable
 70
1
  0
APPID
  5
20F
100
AcDbSymbolTableRecord
100
AcDbRegAppTableRecord
  2
ACAD
 70
0
  0
ENDTAB
  0
TABLE
  2
BLOCK_RECORD
  5
1
100
AcDbSymbolTable
 70
0
  0
BLOCK_RECORD
  5
210
100
AcDbSymbolTableRecord
100
AcDbBlockTableRecord
  2
*Model_Space
  0
BLOCK_RECORD
  5
211
100
AcDbSymbolTableRecord
100
AcDbBlockTableRecord
  2
*Paper_Space
  0
BLOCK_RECORD
  5
212
100
AcDbSymbolTableRecord
100
AcDbBlockTableRecord
  2
_FILLED
  0
ENDTAB
  0
TABLE
  2
DIMSTYLE
  5
A
100
AcDbSymbolTable
 70
1
100
AcDbDimStyleTable
 71
0
  0
DIMSTYLE
105
213
100
AcDbSymbolTableRecord
100
AcDbDimStyleTableRecord
  2
STANDARD
 70
0
  3

  4

 40
1.0
 41
3.4280853847
 42
1.0
 43
0.38
 44
1.0
 45
0.0
 46
0.0
 47
0.01
 48
0.01
140
4.7993195386
141
0.09
142
0.0
143
25.4
144
1.0
145
0.0
146
1.0
147
0.625
 71
1
 72
0
 73
0
 74
0
 75
0
 76
0
 77
1
 78
8
 79
2
170
0
171
1
172
0
173
0
174
0
175
0
176
0
177
0
178
0
270
2
179
2
271
2
272
2
273
2
274
2
275
0
280
0
281
0
282
0
283
1
284
8
285
0
286
0
287
3
288
0
340
11
278
46
341
212
342
212
343
212
344
212
  0
ENDTAB
  0
ENDSEC
  0
SECTION
  2
BLOCKS
  0
BLOCK
  5
20
100
AcDbEntity
  8
0
100
AcDbBlockBegin
  2
*Model_Space
 70
0
 10
0.0
 20
0.0
 30
0.0
  3
*Model_Space
  1

  0
ENDBLK
  5
21
100
AcDbEntity
  8
0
100
AcDbBlockEnd
  0
BLOCK
  5
1C
100
AcDbEntity
  8
0
100
AcDbBlockBegin
  2
*Paper_Space
 70
0
 10
0.0
 20
0.0
 30
0.0
  3
*Paper_Space
  1

  0
ENDBLK
  5
1D
100
AcDbEntity
  8
0
100
AcDbBlockEnd
  0
BLOCK
  5
214
100
AcDbEntity
  8
0
100
AcDbBlockBegin
  2
_FILLED
 70
64
 10
0.0
 20
0.0
  3
_FILLED
  1

  0
SOLID
  5
215
100
AcDbEntity
  8
0
  6
BYBLOCK
 62
0
100
AcDbTrace
 10
0.0
 20
0.0
 11
-1.0
 21
0.25
 12
-1.0
 22
-0.25
 13
-1.0
 23
-0.25
  0
ENDBLK
  5
216
100
AcDbEntity
  8
0
  6
BYBLOCK
 62
0
100
AcDbBlockEnd
  0
ENDSEC
  0
SECTION
  2
ENTITIES
  0
LINE
  5
217
100
AcDbEntity
  8
0
100
AcDbLine
 62
7
  6
CONTINUOUS
 10
33.262348717
 20
237.544932736
 11
33.4069639787
 21
235.6327322001
  0
LINE
  5
218
100
AcDbEntity
  8
0
100
AcDbLine
 62
7
  6
CONTINUOUS
 10
33.262348717
 20
237.544932736
 11
33.262348717
 21
232.6459182332
  0
LINE
  5
219
100
AcDbEntity
  8
0
100
AcDbLine
 62
7
  6
CONTINUOUS
 10
44.3924029029
 20
217.1326403861
 11
44.3924029029
 21
222.0316548889
  0
LINE
  5
21A
100
AcDbEntity
  8
0
100
AcDbLine
 62
7
  6
CONTINUOUS
 10
44.8064030886
 20
253.973653291
 11
65.3124143678
 21
265.8127337533
  0
LINE
  5
21B
100
AcDbEntity
  8
0
100
AcDbLine
 62
7
  6
CONTINUOUS
 10
45.8064170226
 20
253.8746153625
 11
66.3123914805
 21
265.7136745661
  0
LWPOLYLINE
  5
21C
100
AcDbEntity
  8
0
100
AcDbPolyline
 62
7
  6
CONTINUOUS
 90
3
 70
0
 10
33.4069639787
 20
235.6327322001
 10
36.822719672
 20
228.273029351
 10
44.3924029029
 20
222.0316548889
  0
LINE
  5
21D
100
AcDbEntity
  8
0
100
AcDbLine
 62
7
  6
CONTINUOUS
 10
173.7934826048
 20
142.4245823089
 11
44.3924029029
 21
217.1326403861
  0
LINE
  5
21E
100
AcDbEntity
  8
0
100
AcDbLine
 62
7
  6
CONTINUOUS
 10
44.3924029029
 20
222.0316548889
 11
173.7934826048
 21
147.3235968117
  0
LINE
  5
21F
100
AcDbEntity
  8
0
100
AcDbLine
 62
7
  6
CONTINUOUS
 10
175.2076718682
 20
149.7731005831
 11
45.8066289879
 21
224.4811374018
  0
LINE
  5
220
100
AcDbEntity
  8
0
100
AcDbLine
 62
7
  6
CONTINUOUS
 10
173.7934826048
 20
147.3235968117
 11
173.7934826048
 21
142.4245823089
  0
LINE
  5
221
100
AcDbEntity
  8
0
100
AcDbLine
 62
7
  6
CONTINUOUS
 10
117.224116547
 20
265.7137969425
 11
246.6251594272
 21
191.0057601238
  0
LINE
  5
222
100
AcDbEntity
  8
0
100
AcDbLine
 62
7
  6
CONTINUOUS
 10
118.2240811689
 20
265.812863341
 11
247.6251608708
 21
191.1048052638
  0
LINE
  5
223
100
AcDbEntity
  8
0
100
AcDbLine
 62
7
  6
CONTINUOUS
 10
227.5335979745
 20
142.4247114842
 11
227.5335979745
 21
147.323725987
  0
LINE
  5
224
100
AcDbEntity
  8
0
100
AcDbLine
 62
7
  6
CONTINUOUS
 10
246.6253713925
 20
161.6122821631
 11
226.1193969346
 21
149.7732229595
  0
LINE
  5
225
100
AcDbEntity
  8
0
100
AcDbLine
 62
7
  6
CONTINUOUS
 10
227.5335979745
 20
147.323725987
 11
248.0396092537
 21
159.1628064493
  0
LINE
  5
226
100
AcDbEntity
  8
0
100
AcDbLine
 62
7
  6
CONTINUOUS
 10
248.0396092537
 20
154.2637919465
 11
227.5335979745
 21
142.4247114842
  0
LINE
  5
227
100
AcDbEntity
  8
0
100
AcDbLine
 62
7
  6
CONTINUOUS
 10
248.0396092537
 20
159.1628064493
 11
248.0396092537
 21
154.2637919465
  0
LINE
  5
228
100
AcDbEntity
  8
0
100
AcDbLine
 62
7
  6
CONTINUOUS
 10
248.0396092537
 20
159.1628064493
 11
255.6092024673
 21
165.4042173018
  0
LINE
  5
229
100
AcDbEntity
  8
0
100
AcDbLine
 62
7
  6
CONTINUOUS
 10
259.1694396981
 20
174.6759551211
 11
259.1694396981
 21
169.7769406183
  0
LWPOLYLINE
  5
22A
100
AcDbEntity
  8
0
100
AcDbPolyline
 62
7
  6
CONTINUOUS
 90
3
 70
0
 10
255.6092024673
 20
165.4042173018
 10
259.0248520141
 20
172.7639365715
 10
259.1694396981
 20
174.6759551211
  0
ARC
  5
22B
100
AcDbEntity
  8
0
100
AcDbCircle
 62
7
  6
CONTINUOUS
 10
141.0465304891
 20
194.8843765787
 40
3.8555851424
100
AcDbArc
 50
180.0083095045
 51
186.0359088317
  0
ARC
  5
22C
100
AcDbEntity
  8
0
100
AcDbCircle
 62
7
  6
CONTINUOUS
 10
99.9729216063
 20
234.1946288638
 40
36.5077741972
100
AcDbArc
 50
60.0049427236
 51
61.3001373403
  0
ARC
  5
22D
100
AcDbEntity
  8
0
100
AcDbCircle
 62
7
  6
CONTINUOUS
 10
83.5636808498
 20
234.1948397234
 40
36.5075327992
100
AcDbArc
 50
118.7001790043
 51
119.9954697174
  0
ARC
  5
22E
100
AcDbEntity
  8
0
100
AcDbCircle
 62
7
  6
CONTINUOUS
 10
62.388425058
 20
225.1489717188
 40
33.1681412386
100
AcDbArc
 50
119.9958859127
 51
121.3166819015
  0
ARC
  5
22F
100
AcDbEntity
  8
0
100
AcDbCircle
 62
7
  6
CONTINUOUS
 10
67.0870389937
 20
246.5523036248
 40
5.6019426449
100
AcDbArc
 50
65.4646138443
 51
66.4351349561
  0
ARC
  5
230
100
AcDbEntity
  8
0
100
AcDbCircle
 62
7
  6
CONTINUOUS
 10
75.5725676613
 20
212.259957869
 40
5.6019426443
100
AcDbArc
 50
65.4646138443
 51
66.4351349562
  0
ARC
  5
231
100
AcDbEntity
  8
0
100
AcDbCircle
 62
7
  6
CONTINUOUS
 10
126.484043941
 20
241.6535369484
 40
5.6019426436
100
AcDbArc
 50
65.4646138442
 51
66.4351349562
  0
ARC
  5
232
100
AcDbEntity
  8
0
100
AcDbCircle
 62
7
  6
CONTINUOUS
 10
126.6149529423
 20
241.93539393
 40
5.2911757008
100
AcDbArc
 50
62.2401792223
 51
65.4867691138
  0
ARC
  5
233
100
AcDbEntity
  8
0
100
AcDbCircle
 62
7
  6
CONTINUOUS
 10
75.7034766628
 20
212.5418148512
 40
5.2911757009
100
AcDbArc
 50
62.2401792223
 51
65.4867691138
  0
ARC
  5
234
100
AcDbEntity
  8
0
100
AcDbCircle
 62
7
  6
CONTINUOUS
 10
67.2179479956
 20
246.8341606077
 40
5.2911757007
100
AcDbArc
 50
62.2401792222
 51
65.4867691139
  0
ARC
  5
235
100
AcDbEntity
  8
0
100
AcDbCircle
 62
7
  6
CONTINUOUS
 10
93.9911551497
 20
243.4653514391
 40
4.852580742
100
AcDbArc
 50
355.2365363098
 51
359.9901213983
  0
ARC
  5
236
100
AcDbEntity
  8
0
100
AcDbCircle
 62
7
  6
CONTINUOUS
 10
74.6849928364
 20
243.4642197875
 40
4.8411421505
100
AcDbArc
 50
179.9965086998
 51
184.6135037962
  0
ARC
  5
237
100
AcDbEntity
  8
0
100
AcDbCircle
 62
7
  6
CONTINUOUS
 10
116.297690109
 20
209.1728029869
 40
3.8555851424
100
AcDbArc
 50
180.0083095045
 51
186.0359088317
  0
ARC
  5
238
100
AcDbEntity
  8
0
100
AcDbCircle
 62
7
  6
CONTINUOUS
 10
91.5488497288
 20
223.4612293951
 40
3.8555851424
100
AcDbArc
 50
180.0083095045
 51
186.0359088318
  0
ARC
  5
239
100
AcDbEntity
  8
0
100
AcDbCircle
 62
7
  6
CONTINUOUS
 10
106.8406472247
 20
223.4609377507
 40
3.8524479904
100
AcDbArc
 50
354.3470244586
 51
359.9960210618
  0
ARC
  5
23A
100
AcDbEntity
  8
0
100
AcDbCircle
 62
7
  6
CONTINUOUS
 10
131.5894876048
 20
209.1725113425
 40
3.8524479904
100
AcDbArc
 50
354.3470244586
 51
359.9960210618
  0
ARC
  5
23B
100
AcDbEntity
  8
0
100
AcDbCircle
 62
7
  6
CONTINUOUS
 10
129.6928459463
 20
226.319661697
 40
3.5229801964
100
AcDbArc
 50
180.0195848049
 51
186.532487945
  0
ARC
  5
23C
100
AcDbEntity
  8
0
100
AcDbCircle
 62
7
  6
CONTINUOUS
 10
143.6624418847
 20
226.3182840643
 40
3.5073295861
100
AcDbArc
 50
353.6968319659
 51
0.0028331149
  0
ARC
  5
23D
100
AcDbEntity
  8
0
100
AcDbCircle
 62
7
  6
CONTINUOUS
 10
110.2085173676
 20
237.9546887609
 40
3.1912693044
100
AcDbArc
 50
180.0245929438
 51
187.2157138773
  0
ARC
  5
23E
100
AcDbEntity
  8
0
100
AcDbCircle
 62
7
  6
CONTINUOUS
 10
78.0351190803
 20
243.0576333487
 40
3.1912693044
100
AcDbArc
 50
180.0245929437
 51
187.2157138773
  0
ARC
  5
23F
100
AcDbEntity
  8
0
100
AcDbCircle
 62
7
  6
CONTINUOUS
 10
122.8410955832
 20
237.9532524069
 40
3.1760391494
100
AcDbArc
 50
353.0310939999
 51
0.0012012415
  0
ARC
  5
240
100
AcDbEntity
  8
0
100
AcDbCircle
 62
7
  6
CONTINUOUS
 10
90.6676972959
 20
243.0561969948
 40
3.1760391494
100
AcDbArc
 50
353.0310939999
 51
0.0012012415
  0
ARC
  5
241
100
AcDbEntity
  8
0
100
AcDbCircle
 62
7
  6
CONTINUOUS
 10
230.0431470014
 20
162.2796307137
 40
33.1685641379
100
AcDbArc
 50
58.6837667361
 51
60.0045270262
  0
ARC
  5
242
100
AcDbEntity
  8
0
100
AcDbCircle
 62
7
  6
CONTINUOUS
 10
218.40830821
 20
188.5822388605
 40
5.6019426438
100
AcDbArc
 50
65.4646138442
 51
66.4351349562
  0
ARC
  5
243
100
AcDbEntity
  8
0
100
AcDbCircle
 62
7
  6
CONTINUOUS
 10
226.8938368776
 20
154.2898931048
 40
5.6019426431
100
AcDbArc
 50
65.4646138442
 51
66.4351349563
  0
ARC
  5
244
100
AcDbEntity
  8
0
100
AcDbCircle
 62
7
  6
CONTINUOUS
 10
167.4968319308
 20
159.1886597824
 40
5.6019426432
100
AcDbArc
 50
65.4646138441
 51
66.4351349562
  0
ARC
  5
245
100
AcDbEntity
  8
0
100
AcDbCircle
 62
7
  6
CONTINUOUS
 10
218.5392172113
 20
188.8640958423
 40
5.2911757009
100
AcDbArc
 50
62.2401792223
 51
65.4867691138
  0
ARC
  5
246
100
AcDbEntity
  8
0
100
AcDbCircle
 62
7
  6
CONTINUOUS
 10
227.0247458787
 20
154.571750086
 40
5.2911757008
100
AcDbArc
 50
62.2401792223
 51
65.4867691138
  0
ARC
  5
247
100
AcDbEntity
  8
0
100
AcDbCircle
 62
7
  6
CONTINUOUS
 10
167.627740932
 20
159.4705167636
 40
5.2911757009
100
AcDbArc
 50
62.2401792223
 51
65.4867691138
  0
ARC
  5
248
100
AcDbEntity
  8
0
100
AcDbCircle
 62
7
  6
CONTINUOUS
 10
217.7353570503
 20
172.0232193981
 40
4.8525807421
100
AcDbArc
 50
355.2365363098
 51
359.9901213983
  0
ARC
  5
249
100
AcDbEntity
  8
0
100
AcDbCircle
 62
7
  6
CONTINUOUS
 10
198.429194737
 20
172.0220877464
 40
4.8411421504
100
AcDbArc
 50
179.9965086998
 51
184.6135037963
  0
ARC
  5
24A
100
AcDbEntity
  8
0
100
AcDbCircle
 62
7
  6
CONTINUOUS
 10
165.7953708693
 20
180.5959501705
 40
3.8555851424
100
AcDbArc
 50
180.0083095045
 51
186.0359088317
  0
ARC
  5
24B
100
AcDbEntity
  8
0
100
AcDbCircle
 62
7
  6
CONTINUOUS
 10
181.0871683652
 20
180.5956585261
 40
3.8524479903
100
AcDbArc
 50
354.3470244585
 51
359.9960210618
  0
ARC
  5
24C
100
AcDbEntity
  8
0
100
AcDbCircle
 62
7
  6
CONTINUOUS
 10
156.338327985
 20
194.8840849343
 40
3.8524479904
100
AcDbArc
 50
354.3470244586
 51
359.9960210618
  0
ARC
  5
24D
100
AcDbEntity
  8
0
100
AcDbCircle
 62
7
  6
CONTINUOUS
 10
192.2332454846
 20
190.5987612365
 40
3.1912693044
100
AcDbArc
 50
180.0245929437
 51
187.2157138773
  0
ARC
  5
24E
100
AcDbEntity
  8
0
100
AcDbCircle
 62
7
  6
CONTINUOUS
 10
201.779320981
 20
171.6155013076
 40
3.1912693044
100
AcDbArc
 50
180.0245929437
 51
187.2157138773
  0
ARC
  5
24F
100
AcDbEntity
  8
0
100
AcDbCircle
 62
7
  6
CONTINUOUS
 10
204.8658237002
 20
190.5973248826
 40
3.1760391494
100
AcDbArc
 50
353.0310939999
 51
0.0012012415
  0
ARC
  5
250
100
AcDbEntity
  8
0
100
AcDbCircle
 62
7
  6
CONTINUOUS
 10
214.4118991967
 20
171.6140649537
 40
3.1760391493
100
AcDbArc
 50
353.0310939999
 51
0.0012012415
  0
ARC
  5
251
100
AcDbEntity
  8
0
100
AcDbCircle
 62
7
  6
CONTINUOUS
 10
150.5525828382
 20
214.2765594386
 40
3.5229801964
100
AcDbArc
 50
180.0195848049
 51
186.532487945
  0
ARC
  5
252
100
AcDbEntity
  8
0
100
AcDbCircle
 62
7
  6
CONTINUOUS
 10
171.41231973
 20
202.2334571803
 40
3.5229801964
100
AcDbArc
 50
180.0195848049
 51
186.532487945
  0
ARC
  5
253
100
AcDbEntity
  8
0
100
AcDbCircle
 62
7
  6
CONTINUOUS
 10
185.3819156684
 20
202.2320795476
 40
3.5073295861
100
AcDbArc
 50
353.6968319658
 51
0.0028331149
  0
ARC
  5
254
100
AcDbEntity
  8
0
100
AcDbCircle
 62
7
  6
CONTINUOUS
 10
164.5221787766
 20
214.275181806
 40
3.5073295861
100
AcDbArc
 50
353.6968319658
 51
0.0028331149
  0
SPLINE
  5
255
100
AcDbEntity
  8
0
100
AcDbSpline
 62
7
  6
CONTINUOUS
 70
0
 71
3
 72
11
 73
7
 74
0
 42
0.0000001
 43
0.0000001
 44
0.0000000001
 40
0.0
 40
0.0
 40
0.0
 40
0.0
 40
0.2180949534
 40
0.4531165446
 40
0.7128780216
 40
1.0
 40
1.0
 40
1.0
 40
1.0
 10
208.0183987268
 20
190.2119738993
 30
0.0
 10
207.9778208106
 20
189.8798843008
 30
0.0
 10
207.7824477088
 20
189.2002241328
 30
0.0
 10
207.1957573787
 20
188.264166121
 30
0.0
 10
206.3386516907
 20
187.4131869821
 30
0.0
 10
205.6409013941
 20
186.9393270878
 30
0.0
 10
205.2594620504
 20
186.7191042946
 30
0.0
  0
SPLINE
  5
256
100
AcDbEntity
  8
0
100
AcDbSpline
 62
7
  6
CONTINUOUS
 70
0
 71
3
 72
11
 73
7
 74
0
 42
0.0000001
 43
0.0000001
 44
0.0000000001
 40
0.0
 40
0.0
 40
0.0
 40
0.0
 40
0.2180949534
 40
0.4531165446
 40
0.7128780216
 40
1.0
 40
1.0
 40
1.0
 40
1.0
 10
125.9936706097
 20
237.5679014237
 30
0.0
 10
125.9530926936
 20
237.2358118251
 30
0.0
 10
125.7577195918
 20
236.5561516572
 30
0.0
 10
125.1710292617
 20
235.6200936454
 30
0.0
 10
124.3139235737
 20
234.7691145065
 30
0.0
 10
123.6161732771
 20
234.2952546122
 30
0.0
 10
123.2347339334
 20
234.075031819
 30
0.0
  0
SPLINE
  5
257
100
AcDbEntity
  8
0
100
AcDbSpline
 62
7
  6
CONTINUOUS
 70
0
 71
3
 72
11
 73
7
 74
0
 42
0.0000001
 43
0.0000001
 44
0.0000000001
 40
0.0
 40
0.0
 40
0.0
 40
0.0
 40
0.2179552497
 40
0.4526359309
 40
0.7123094929
 40
1.0
 40
1.0
 40
1.0
 40
1.0
 10
184.9208809366
 20
180.2161806768
 30
0.0
 10
184.8804042357
 20
179.8071194856
 30
0.0
 10
184.6561504331
 20
178.9672231098
 30
0.0
 10
183.9481407868
 20
177.8085496166
 30
0.0
 10
182.8994703937
 20
176.7561096392
 30
0.0
 10
182.041350011
 20
176.1719101523
 30
0.0
 10
181.571462896
 20
175.9006223193
 30
0.0
  0
SPLINE
  5
258
100
AcDbEntity
  8
0
100
AcDbSpline
 62
7
  6
CONTINUOUS
 70
0
 71
3
 72
11
 73
7
 74
0
 42
0.0000001
 43
0.0000001
 44
0.0000000001
 40
0.0
 40
0.0
 40
0.0
 40
0.0
 40
0.2179552497
 40
0.4526359309
 40
0.7123094929
 40
1.0
 40
1.0
 40
1.0
 40
1.0
 10
110.6743597961
 20
223.0814599014
 30
0.0
 10
110.6338830952
 20
222.6723987102
 30
0.0
 10
110.4096292927
 20
221.8325023344
 30
0.0
 10
109.7016196464
 20
220.6738288412
 30
0.0
 10
108.6529492533
 20
219.6213888638
 30
0.0
 10
107.7948288706
 20
219.0371893769
 30
0.0
 10
107.3249417556
 20
218.7659015439
 30
0.0
  0
SPLINE
  5
259
100
AcDbEntity
  8
0
100
AcDbSpline
 62
7
  6
CONTINUOUS
 70
0
 71
3
 72
11
 73
7
 74
0
 42
0.0000001
 43
0.0000001
 44
0.0000000001
 40
0.0
 40
0.0
 40
0.0
 40
0.0
 40
0.2180949534
 40
0.4531165446
 40
0.7128780216
 40
1.0
 40
1.0
 40
1.0
 40
1.0
 10
217.5644742232
 20
171.2287139705
 30
0.0
 10
217.523896307
 20
170.8966243719
 30
0.0
 10
217.3285232052
 20
170.216964204
 30
0.0
 10
216.7418328752
 20
169.2809061921
 30
0.0
 10
215.8847271871
 20
168.4299270533
 30
0.0
 10
215.1869768905
 20
167.956067159
 30
0.0
 10
214.8055375468
 20
167.7358443658
 30
0.0
  0
SPLINE
  5
25A
100
AcDbEntity
  8
0
100
AcDbSpline
 62
7
  6
CONTINUOUS
 70
0
 71
3
 72
11
 73
7
 74
0
 42
0.0000001
 43
0.0000001
 44
0.0000000001
 40
0.0
 40
0.0
 40
0.0
 40
0.0
 40
0.2178749016
 40
0.4523274305
 40
0.7119311964
 40
1.0
 40
1.0
 40
1.0
 40
1.0
 10
222.5711770573
 20
171.6202495253
 30
0.0
 10
222.5277164499
 20
171.09846568
 30
0.0
 10
222.256543598
 20
170.0245426389
 30
0.0
 10
221.3659185216
 20
168.5413174642
 30
0.0
 10
220.03427447
 20
167.19482455
 30
0.0
 10
218.9406179627
 20
166.449029576
 30
0.0
 10
218.3410861726
 20
166.1028918017
 30
0.0
  0
SPLINE
  5
25B
100
AcDbEntity
  8
0
100
AcDbSpline
 62
7
  6
CONTINUOUS
 70
0
 71
3
 72
11
 73
7
 74
0
 42
0.0000001
 43
0.0000001
 44
0.0000000001
 40
0.0
 40
0.0
 40
0.0
 40
0.0
 40
0.2179552497
 40
0.4526359309
 40
0.7123094929
 40
1.0
 40
1.0
 40
1.0
 40
1.0
 10
160.1720405564
 20
194.504607085
 30
0.0
 10
160.1315638555
 20
194.0955458938
 30
0.0
 10
159.907310053
 20
193.255649518
 30
0.0
 10
159.1993004066
 20
192.0969760248
 30
0.0
 10
158.1506300136
 20
191.0445360474
 30
0.0
 10
157.2925096309
 20
190.4603365605
 30
0.0
 10
156.8226225158
 20
190.1890487275
 30
0.0
  0
SPLINE
  5
25C
100
AcDbEntity
  8
0
100
AcDbSpline
 62
7
  6
CONTINUOUS
 70
0
 71
3
 72
11
 73
7
 74
0
 42
0.0000001
 43
0.0000001
 44
0.0000000001
 40
0.0
 40
0.0
 40
0.0
 40
0.0
 40
0.2180179832
 40
0.4528581102
 40
0.7126011112
 40
1.0
 40
1.0
 40
1.0
 40
1.0
 10
188.8680430489
 20
201.847012394
 30
0.0
 10
188.8271427107
 20
201.4766652217
 30
0.0
 10
188.6168828787
 20
200.7174682078
 30
0.0
 10
187.9693646219
 20
199.6709498452
 30
0.0
 10
187.0167857888
 20
198.720037333
 30
0.0
 10
186.2393132778
 20
198.1913102935
 30
0.0
 10
185.8139446089
 20
197.9457250439
 30
0.0
  0
SPLINE
  5
25D
100
AcDbEntity
  8
0
100
AcDbSpline
 62
7
  6
CONTINUOUS
 70
0
 71
3
 72
11
 73
7
 74
0
 42
0.0000001
 43
0.0000001
 44
0.0000000001
 40
0.0
 40
0.0
 40
0.0
 40
0.0
 40
0.2180949534
 40
0.4531165446
 40
0.7128780216
 40
1.0
 40
1.0
 40
1.0
 40
1.0
 10
93.8202723225
 20
242.6708460115
 30
0.0
 10
93.7796944063
 20
242.338756413
 30
0.0
 10
93.5843213045
 20
241.659096245
 30
0.0
 10
92.9976309744
 20
240.7230382332
 30
0.0
 10
92.1405252864
 20
239.8720590943
 30
0.0
 10
91.4427749898
 20
239.3981992
 30
0.0
 10
91.0613356461
 20
239.1779764068
 30
0.0
  0
SPLINE
  5
25E
100
AcDbEntity
  8
0
100
AcDbSpline
 62
7
  6
CONTINUOUS
 70
0
 71
3
 72
11
 73
7
 74
0
 42
0.0000001
 43
0.0000001
 44
0.0000000001
 40
0.0
 40
0.0
 40
0.0
 40
0.0
 40
0.2178749016
 40
0.4523274305
 40
0.7119311964
 40
1.0
 40
1.0
 40
1.0
 40
1.0
 10
98.8269751566
 20
243.0623815663
 30
0.0
 10
98.7835145492
 20
242.5405977211
 30
0.0
 10
98.5123416973
 20
241.46667468
 30
0.0
 10
97.6217166208
 20
239.9834495053
 30
0.0
 10
96.2900725693
 20
238.6369565911
 30
0.0
 10
95.196416062
 20
237.891161617
 30
0.0
 10
94.5968842718
 20
237.5450238428
 30
0.0
  0
SPLINE
  5
25F
100
AcDbEntity
  8
0
100
AcDbSpline
 62
7
  6
CONTINUOUS
 70
0
 71
3
 72
11
 73
7
 74
0
 42
0.0000001
 43
0.0000001
 44
0.0000000001
 40
0.0
 40
0.0
 40
0.0
 40
0.0
 40
0.2179552497
 40
0.4526359309
 40
0.7123094929
 40
1.0
 40
1.0
 40
1.0
 40
1.0
 10
135.4232001763
 20
208.7930334932
 30
0.0
 10
135.3827234754
 20
208.383972302
 30
0.0
 10
135.1584696728
 20
207.5440759262
 30
0.0
 10
134.4504600265
 20
206.385402433
 30
0.0
 10
133.4017896335
 20
205.3329624556
 30
0.0
 10
132.5436692507
 20
204.7487629687
 30
0.0
 10
132.0737821357
 20
204.4774751357
 30
0.0
  0
SPLINE
  5
260
100
AcDbEntity
  8
0
100
AcDbSpline
 62
7
  6
CONTINUOUS
 70
0
 71
3
 72
11
 73
7
 74
0
 42
0.0000001
 43
0.0000001
 44
0.0000000001
 40
0.0
 40
0.0
 40
0.0
 40
0.0
 40
0.2180179832
 40
0.4528581102
 40
0.7126011112
 40
1.0
 40
1.0
 40
1.0
 40
1.0
 10
147.1485692652
 20
225.9332169107
 30
0.0
 10
147.107668927
 20
225.5628697384
 30
0.0
 10
146.897409095
 20
224.8036727245
 30
0.0
 10
146.2498908382
 20
223.7571543619
 30
0.0
 10
145.2973120051
 20
222.8062418497
 30
0.0
 10
144.5198394942
 20
222.2775148102
 30
0.0
 10
144.0944708252
 20
222.0319295606
 30
0.0
  0
SPLINE
  5
261
100
AcDbEntity
  8
0
100
AcDbSpline
 62
7
  6
CONTINUOUS
 70
0
 71
3
 72
11
 73
7
 74
0
 42
0.0000001
 43
0.0000001
 44
0.0000000001
 40
0.0
 40
0.0
 40
0.0
 40
0.0
 40
0.2180179832
 40
0.4528581102
 40
0.7126011112
 40
1.0
 40
1.0
 40
1.0
 40
1.0
 10
168.008306157
 20
213.8901146523
 30
0.0
 10
167.9674058189
 20
213.5197674801
 30
0.0
 10
167.7571459869
 20
212.7605704661
 30
0.0
 10
167.1096277301
 20
211.7140521035
 30
0.0
 10
166.157048897
 20
210.7631395913
 30
0.0
 10
165.379576386
 20
210.2344125518
 30
0.0
 10
164.954207717
 20
209.9888273023
 30
0.0
  0
SPLINE
  5
262
100
AcDbEntity
  8
0
100
AcDbSpline
 62
7
  6
CONTINUOUS
 70
0
 71
3
 72
11
 73
7
 74
0
 42
0.0000001
 43
0.0000001
 44
0.0000000001
 40
0.0
 40
0.0
 40
0.0
 40
0.0
 40
0.2177648073
 40
0.4508950352
 40
0.7103684932
 40
1.0
 40
1.0
 40
1.0
 40
1.0
 10
222.6336596727
 20
195.9045895958
 30
0.0
 10
222.6335840329
 20
195.7141654026
 30
0.0
 10
222.5635113666
 20
195.3172114996
 30
0.0
 10
222.262424754
 20
194.7641031029
 30
0.0
 10
221.7866418563
 20
194.2642514852
 30
0.0
 10
221.3886499295
 20
193.9900189031
 30
0.0
 10
221.1693131076
 20
193.8633854857
 30
0.0
  0
SPLINE
  5
263
100
AcDbEntity
  8
0
100
AcDbSpline
 62
7
  6
CONTINUOUS
 70
0
 71
3
 72
11
 73
7
 74
0
 42
0.0000001
 43
0.0000001
 44
0.0000000001
 40
0.0
 40
0.0
 40
0.0
 40
0.0
 40
0.2177648073
 40
0.4508950352
 40
0.7103684932
 40
1.0
 40
1.0
 40
1.0
 40
1.0
 10
231.11918834
 20
161.6122438394
 30
0.0
 10
231.1191127003
 20
161.4218196463
 30
0.0
 10
231.0490400339
 20
161.0248657432
 30
0.0
 10
230.7479534214
 20
160.4717573466
 30
0.0
 10
230.2721705236
 20
159.9719057289
 30
0.0
 10
229.8741785969
 20
159.6976731467
 30
0.0
 10
229.6548417749
 20
159.5710397294
 30
0.0
  0
SPLINE
  5
264
100
AcDbEntity
  8
0
100
AcDbSpline
 62
7
  6
CONTINUOUS
 70
0
 71
3
 72
11
 73
7
 74
0
 42
0.0000001
 43
0.0000001
 44
0.0000000001
 40
0.0
 40
0.0
 40
0.0
 40
0.0
 40
0.2177648073
 40
0.4508950352
 40
0.7103684932
 40
1.0
 40
1.0
 40
1.0
 40
1.0
 10
171.7221833933
 20
166.511010517
 30
0.0
 10
171.7221077535
 20
166.3205863239
 30
0.0
 10
171.6520350872
 20
165.9236324208
 30
0.0
 10
171.3509484746
 20
165.3705240242
 30
0.0
 10
170.8751655769
 20
164.8706724065
 30
0.0
 10
170.4771736502
 20
164.5964398243
 30
0.0
 10
170.2578368282
 20
164.469806407
 30
0.0
  0
SPLINE
  5
265
100
AcDbEntity
  8
0
100
AcDbSpline
 62
7
  6
CONTINUOUS
 70
0
 71
3
 72
11
 73
7
 74
0
 42
0.0000001
 43
0.0000001
 44
0.0000000001
 40
0.0
 40
0.0
 40
0.0
 40
0.0
 40
0.2177648073
 40
0.4508950352
 40
0.7103684932
 40
1.0
 40
1.0
 40
1.0
 40
1.0
 10
79.7979191242
 20
219.5823086047
 30
0.0
 10
79.7978434844
 20
219.3918844115
 30
0.0
 10
79.7277708181
 20
218.9949305085
 30
0.0
 10
79.4266842055
 20
218.4418221118
 30
0.0
 10
78.9509013077
 20
217.9419704941
 30
0.0
 10
78.552909381
 20
217.6677379119
 30
0.0
 10
78.3335725591
 20
217.5411044946
 30
0.0
  0
SPLINE
  5
266
100
AcDbEntity
  8
0
100
AcDbSpline
 62
7
  6
CONTINUOUS
 70
0
 71
3
 72
11
 73
7
 74
0
 42
0.0000001
 43
0.0000001
 44
0.0000000001
 40
0.0
 40
0.0
 40
0.0
 40
0.0
 40
0.2177648073
 40
0.4508950352
 40
0.7103684932
 40
1.0
 40
1.0
 40
1.0
 40
1.0
 10
71.3123904568
 20
253.874654361
 30
0.0
 10
71.3123148171
 20
253.6842301678
 30
0.0
 10
71.2422421507
 20
253.2872762648
 30
0.0
 10
70.9411555381
 20
252.7341678681
 30
0.0
 10
70.4653726404
 20
252.2343162505
 30
0.0
 10
70.0673807137
 20
251.9600836683
 30
0.0
 10
69.8480438917
 20
251.833450251
 30
0.0
  0
SPLINE
  5
267
100
AcDbEntity
  8
0
100
AcDbSpline
 62
7
  6
CONTINUOUS
 70
0
 71
3
 72
12
 73
8
 74
0
 42
0.0000001
 43
0.0000001
 44
0.0000000001
 40
0.0
 40
0.0
 40
0.0
 40
0.0
 40
0.2895914966
 40
0.5486322636
 40
0.7816375215
 40
0.8918386468
 40
1.0
 40
1.0
 40
1.0
 40
1.0
 10
44.3924029029
 20
217.1326403861
 30
0.0
 10
42.7243513442
 20
218.0956686159
 30
0.0
 10
39.6987705975
 20
220.1793433674
 30
0.0
 10
36.0843215832
 20
223.976052457
 30
0.0
 10
34.1435770266
 20
227.553486192
 30
0.0
 10
33.3874488378
 20
230.471165037
 30
0.0
 10
33.2624920819
 20
231.9265310618
 30
0.0
 10
33.2624920662
 20
232.6459182333
 30
0.0
  0
SPLINE
  5
268
100
AcDbEntity
  8
0
100
AcDbSpline
 62
7
  6
CONTINUOUS
 70
0
 71
3
 72
15
 73
11
 74
0
 42
0.0000001
 43
0.0000001
 44
0.0000000001
 40
0.0
 40
0.0
 40
0.0
 40
0.0
 40
0.1141576923
 40
0.237324686
 40
0.3669758813
 40
0.4999994688
 40
0.6330231302
 40
0.7626745415
 40
0.8858418756
 40
1.0
 40
1.0
 40
1.0
 40
1.0
 10
227.5335979745
 20
142.4247114842
 30
0.0
 10
225.6940826728
 20
141.3626731691
 30
0.0
 10
221.6717998033
 20
139.4895974144
 30
0.0
 10
215.1216337008
 20
137.4988897101
 30
0.0
 10
208.0301771272
 20
136.2733730083
 30
0.0
 10
200.6635861315
 20
135.8599802755
 30
0.0
 10
193.296989163
 20
136.2733379309
 30
0.0
 10
186.2055149427
 20
137.4988208922
 30
0.0
 10
179.6553202949
 20
139.4894974897
 30
0.0
 10
175.6330125278
 20
141.362553239
 30
0.0
 10
173.7934826048
 20
142.4245823089
 30
0.0
  0
SPLINE
  5
269
100
AcDbEntity
  8
0
100
AcDbSpline
 62
7
  6
CONTINUOUS
 70
0
 71
3
 72
11
 73
7
 74
0
 42
0.0000001
 43
0.0000001
 44
0.0000000001
 40
0.0
 40
0.0
 40
0.0
 40
0.0
 40
0.2177648073
 40
0.4508950352
 40
0.7103684932
 40
1.0
 40
1.0
 40
1.0
 40
1.0
 10
130.7093954036
 20
248.9758876834
 30
0.0
 10
130.7093197638
 20
248.7854634902
 30
0.0
 10
130.6392470975
 20
248.3885095872
 30
0.0
 10
130.3381604849
 20
247.8354011905
 30
0.0
 10
129.8623775871
 20
247.3355495729
 30
0.0
 10
129.4643856604
 20
247.0613169907
 30
0.0
 10
129.2450488385
 20
246.9346835734
 30
0.0
  0
SPLINE
  5
26A
100
AcDbEntity
  8
0
100
AcDbSpline
 62
7
  6
CONTINUOUS
 70
0
 71
3
 72
15
 73
11
 74
0
 42
0.0000001
 43
0.0000001
 44
0.0000000001
 40
0.0
 40
0.0
 40
0.0
 40
0.0
 40
0.1157067497
 40
0.2390857201
 40
0.3680765568
 40
0.5000010581
 40
0.6319253962
 40
0.7609157755
 40
0.8842939598
 40
1.0
 40
1.0
 40
1.0
 40
1.0
 10
117.5047358555
 20
266.2173249709
 30
0.0
 10
115.7006736294
 20
267.2051921923
 30
0.0
 10
111.8020949767
 20
268.9426802576
 30
0.0
 10
105.507785864
 20
270.7864136935
 30
0.0
 10
98.7549439599
 20
271.9158489645
 30
0.0
 10
91.7682044656
 20
272.2959103512
 30
0.0
 10
84.7814749172
 20
271.9158154581
 30
0.0
 10
78.0286633815
 20
270.7863505399
 30
0.0
 10
71.7343966646
 20
268.9425962066
 30
0.0
 10
67.8358514176
 20
267.2050984382
 30
0.0
 10
66.0318057211
 20
266.2172272914
 30
0.0
  0
SPLINE
  5
26B
100
AcDbEntity
  8
0
100
AcDbSpline
 62
7
  6
CONTINUOUS
 70
0
 71
3
 72
13
 73
9
 74
0
 42
0.0000001
 43
0.0000001
 44
0.0000000001
 40
0.0
 40
0.0
 40
0.0
 40
0.0
 40
0.2806289265
 40
0.5365828883
 40
0.6570327925
 40
0.7736084923
 40
0.8874359863
 40
1.0
 40
1.0
 40
1.0
 40
1.0
 10
44.8064030886
 20
253.973653291
 30
0.0
 10
43.1047155504
 20
252.9911893973
 30
0.0
 10
39.9930738116
 20
250.8434265545
 30
0.0
 10
36.8039926652
 20
247.4620591973
 30
0.0
 10
34.9793442753
 20
244.5196047496
 30
0.0
 10
33.9978359867
 20
242.2569723453
 30
0.0
 10
33.3974066028
 20
239.9214415682
 30
0.0
 10
33.262348717
 20
238.3330950661
 30
0.0
 10
33.262348717
 20
237.544932736
 30
0.0
  0
SPLINE
  5
26C
100
AcDbEntity
  8
0
100
AcDbSpline
 62
7
  6
CONTINUOUS
 70
0
 71
3
 72
13
 73
9
 74
0
 42
0.0000001
 43
0.0000001
 44
0.0000000001
 40
0.0
 40
0.0
 40
0.0
 40
0.0
 40
0.1125636569
 40
0.2263906655
 40
0.3429664139
 40
0.4634163741
 40
0.7193706775
 40
1.0
 40
1.0
 40
1.0
 40
1.0
 10
259.1694396981
 20
174.6759551211
 30
0.0
 10
259.1694396981
 20
175.4641246519
 30
0.0
 10
259.0343822997
 20
177.0524853033
 30
0.0
 10
258.433936216
 20
179.3880368304
 30
0.0
 10
257.4524126158
 20
181.6506927104
 30
0.0
 10
255.6277239262
 20
184.59317654
 30
0.0
 10
252.4385787602
 20
187.9745701678
 30
0.0
 10
249.3268788366
 20
190.1223401645
 30
0.0
 10
247.6251608708
 20
191.1048052638
 30
0.0
  0
SPLINE
  5
26D
100
AcDbEntity
  8
0
100
AcDbSpline
 62
7
  6
CONTINUOUS
 70
0
 71
3
 72
12
 73
8
 74
0
 42
0.0000001
 43
0.0000001
 44
0.0000000001
 40
0.0
 40
0.0
 40
0.0
 40
0.0
 40
0.1081615928
 40
0.2183629213
 40
0.4513683727
 40
0.7104089697
 40
1.0
 40
1.0
 40
1.0
 40
1.0
 10
259.1692963489
 20
169.7769406182
 30
0.0
 10
259.1692963646
 20
169.0575611295
 30
0.0
 10
259.0443422517
 20
167.6022109825
 30
0.0
 10
258.2882306803
 20
164.68456387
 30
0.0
 10
256.3475286197
 20
161.1071661666
 30
0.0
 10
252.7331530672
 20
157.3104850248
 30
0.0
 10
249.7076296715
 20
155.2268182352
 30
0.0
 10
248.0396092537
 20
154.2637919465
 30
0.0
  0
SPLINE
  5
26E
100
AcDbEntity
  8
0
100
AcDbSpline
 62
7
  6
CONTINUOUS
 70
0
 71
3
 72
16
 73
12
 74
0
 42
0.0000001
 43
0.0000001
 44
0.0000000001
 40
0.0
 40
0.0
 40
0.0
 40
0.0
 40
0.1287443602
 40
0.2703971121
 40
0.4176139114
 40
0.5620190713
 40
0.6957499754
 40
0.8130650626
 40
0.9124721117
 40
0.9571211941
 40
1.0
 40
1.0
 40
1.0
 40
1.0
 10
129.2450488385
 20
246.9346835734
 30
0.0
 10
128.8749323941
 20
246.7209980201
 30
0.0
 10
128.0369171909
 20
246.3752428556
 30
0.0
 10
126.6711648646
 20
246.1019569306
 30
0.0
 10
125.2265219045
 20
246.0620690468
 30
0.0
 10
123.8213836402
 20
246.2591942607
 30
0.0
 10
122.5679861949
 20
246.6787117686
 30
0.0
 10
121.5637250161
 20
247.2881893014
 30
0.0
 10
120.9786904942
 20
247.9600114002
 30
0.0
 10
120.7476368278
 20
248.5417507542
 30
0.0
 10
120.7095484827
 20
248.8335487867
 30
0.0
 10
120.7096050219
 20
248.9758870085
 30
0.0
  0
SPLINE
  5
26F
100
AcDbEntity
  8
0
100
AcDbSpline
 62
7
  6
CONTINUOUS
 70
0
 71
3
 72
16
 73
12
 74
0
 42
0.0000001
 43
0.0000001
 44
0.0000000001
 40
0.0
 40
0.0
 40
0.0
 40
0.0
 40
0.1287443602
 40
0.2703971121
 40
0.4176139114
 40
0.5620190713
 40
0.6957499754
 40
0.8130650626
 40
0.9124721117
 40
0.9571211941
 40
1.0
 40
1.0
 40
1.0
 40
1.0
 10
69.8480438917
 20
251.833450251
 30
0.0
 10
69.4779274473
 20
251.6197646977
 30
0.0
 10
68.6399122441
 20
251.2740095332
 30
0.0
 10
67.2741599179
 20
251.0007236082
 30
0.0
 10
65.8295169577
 20
250.9608357244
 30
0.0
 10
64.4243786934
 20
251.1579609383
 30
0.0
 10
63.1709812481
 20
251.5774784462
 30
0.0
 10
62.1667200693
 20
252.186955979
 30
0.0
 10
61.5816855475
 20
252.8587780778
 30
0.0
 10
61.350631881
 20
253.4405174318
 30
0.0
 10
61.312543536
 20
253.7323154643
 30
0.0
 10
61.3126000751
 20
253.8746536861
 30
0.0
  0
SPLINE
  5
270
100
AcDbEntity
  8
0
100
AcDbSpline
 62
7
  6
CONTINUOUS
 70
0
 71
3
 72
16
 73
12
 74
0
 42
0.0000001
 43
0.0000001
 44
0.0000000001
 40
0.0
 40
0.0
 40
0.0
 40
0.0
 40
0.1287443602
 40
0.2703971121
 40
0.4176139114
 40
0.5620190713
 40
0.6957499754
 40
0.8130650626
 40
0.9124721117
 40
0.9571211941
 40
1.0
 40
1.0
 40
1.0
 40
1.0
 10
78.3335725591
 20
217.5411044946
 30
0.0
 10
77.9634561147
 20
217.3274189414
 30
0.0
 10
77.1254409115
 20
216.9816637769
 30
0.0
 10
75.7596885853
 20
216.7083778518
 30
0.0
 10
74.3150456251
 20
216.668489968
 30
0.0
 10
72.9099073608
 20
216.8656151819
 30
0.0
 10
71.6565099155
 20
217.2851326899
 30
0.0
 10
70.6522487367
 20
217.8946102226
 30
0.0
 10
70.0672142148
 20
218.5664323215
 30
0.0
 10
69.8361605484
 20
219.1481716755
 30
0.0
 10
69.7980722033
 20
219.4399697079
 30
0.0
 10
69.7981287425
 20
219.5823079298
 30
0.0
  0
SPLINE
  5
271
100
AcDbEntity
  8
0
100
AcDbSpline
 62
7
  6
CONTINUOUS
 70
0
 71
3
 72
16
 73
12
 74
0
 42
0.0000001
 43
0.0000001
 44
0.0000000001
 40
0.0
 40
0.0
 40
0.0
 40
0.0
 40
0.1287443602
 40
0.2703971121
 40
0.4176139114
 40
0.5620190713
 40
0.6957499754
 40
0.8130650626
 40
0.9124721117
 40
0.9571211941
 40
1.0
 40
1.0
 40
1.0
 40
1.0
 10
170.2578368282
 20
164.469806407
 30
0.0
 10
169.8877203838
 20
164.2561208537
 30
0.0
 10
169.0497051806
 20
163.9103656892
 30
0.0
 10
167.6839528544
 20
163.6370797642
 30
0.0
 10
166.2393098942
 20
163.5971918804
 30
0.0
 10
164.8341716299
 20
163.7943170943
 30
0.0
 10
163.5807741846
 20
164.2138346022
 30
0.0
 10
162.5765130058
 20
164.823312135
 30
0.0
 10
161.9914784839
 20
165.4951342338
 30
0.0
 10
161.7604248175
 20
166.0768735878
 30
0.0
 10
161.7223364724
 20
166.3686716203
 30
0.0
 10
161.7223930116
 20
166.5110098421
 30
0.0
  0
SPLINE
  5
272
100
AcDbEntity
  8
0
100
AcDbSpline
 62
7
  6
CONTINUOUS
 70
0
 71
3
 72
16
 73
12
 74
0
 42
0.0000001
 43
0.0000001
 44
0.0000000001
 40
0.0
 40
0.0
 40
0.0
 40
0.0
 40
0.1287443602
 40
0.2703971121
 40
0.4176139114
 40
0.5620190713
 40
0.6957499754
 40
0.8130650626
 40
0.9124721117
 40
0.9571211941
 40
1.0
 40
1.0
 40
1.0
 40
1.0
 10
229.6548417749
 20
159.5710397294
 30
0.0
 10
229.2847253305
 20
159.3573541761
 30
0.0
 10
228.4467101273
 20
159.0115990116
 30
0.0
 10
227.0809578011
 20
158.7383130866
 30
0.0
 10
225.6363148409
 20
158.6984252028
 30
0.0
 10
224.2311765766
 20
158.8955504167
 30
0.0
 10
222.9777791313
 20
159.3150679246
 30
0.0
 10
221.9735179525
 20
159.9245454574
 30
0.0
 10
221.3884834307
 20
160.5963675562
 30
0.0
 10
221.1574297643
 20
161.1781069102
 30
0.0
 10
221.1193414192
 20
161.4699049427
 30
0.0
 10
221.1193979583
 20
161.6122431645
 30
0.0
  0
SPLINE
  5
273
100
AcDbEntity
  8
0
100
AcDbSpline
 62
7
  6
CONTINUOUS
 70
0
 71
3
 72
16
 73
12
 74
0
 42
0.0000001
 43
0.0000001
 44
0.0000000001
 40
0.0
 40
0.0
 40
0.0
 40
0.0
 40
0.1287443602
 40
0.2703971121
 40
0.4176139114
 40
0.5620190713
 40
0.6957499754
 40
0.8130650626
 40
0.9124721117
 40
0.9571211941
 40
1.0
 40
1.0
 40
1.0
 40
1.0
 10
221.1693131076
 20
193.8633854857
 30
0.0
 10
220.7991966632
 20
193.6496999325
 30
0.0
 10
219.96118146
 20
193.303944768
 30
0.0
 10
218.5954291338
 20
193.0306588429
 30
0.0
 10
217.1507861736
 20
192.9907709591
 30
0.0
 10
215.7456479093
 20
193.187896173
 30
0.0
 10
214.492250464
 20
193.607413681
 30
0.0
 10
213.4879892852
 20
194.2168912138
 30
0.0
 10
212.9029547633
 20
194.8887133126
 30
0.0
 10
212.6719010969
 20
195.4704526666
 30
0.0
 10
212.6338127518
 20
195.762250699
 30
0.0
 10
212.633869291
 20
195.9045889209
 30
0.0
  0
SPLINE
  5
274
100
AcDbEntity
  8
0
100
AcDbSpline
 62
7
  6
CONTINUOUS
 70
0
 71
3
 72
17
 73
13
 74
0
 42
0.0000001
 43
0.0000001
 44
0.0000000001
 40
0.0
 40
0.0
 40
0.0
 40
0.0
 40
0.127310471
 40
0.2672114389
 40
0.4129181203
 40
0.5565956477
 40
0.6907688681
 40
0.8097105507
 40
0.86275094
 40
0.9116127668
 40
0.9569772186
 40
1.0
 40
1.0
 40
1.0
 40
1.0
 10
164.954207717
 20
209.9888273023
 30
0.0
 10
164.1998470447
 20
209.5532995648
 30
0.0
 10
162.4964016568
 20
208.8430277333
 30
0.0
 10
159.7179780091
 20
208.2645279095
 30
0.0
 10
156.7698233993
 20
208.1484828371
 30
0.0
 10
153.8799983798
 20
208.5057641535
 30
0.0
 10
151.2710756539
 20
209.3077397007
 30
0.0
 10
149.4205579926
 20
210.3408291038
 30
0.0
 10
148.289987206
 20
211.3521231215
 30
0.0
 10
147.660096415
 20
212.1460518041
 30
0.0
 10
147.2310386058
 20
212.9890944608
 30
0.0
 10
147.0859354778
 20
213.5833076676
 30
0.0
 10
147.0524755651
 20
213.8757620576
 30
0.0
  0
SPLINE
  5
275
100
AcDbEntity
  8
0
100
AcDbSpline
 62
7
  6
CONTINUOUS
 70
0
 71
3
 72
17
 73
13
 74
0
 42
0.0000001
 43
0.0000001
 44
0.0000000001
 40
0.0
 40
0.0
 40
0.0
 40
0.0
 40
0.127310471
 40
0.2672114389
 40
0.4129181203
 40
0.5565956477
 40
0.6907688681
 40
0.8097105507
 40
0.86275094
 40
0.9116127668
 40
0.9569772186
 40
1.0
 40
1.0
 40
1.0
 40
1.0
 10
144.0944708252
 20
222.0319295606
 30
0.0
 10
143.3401101529
 20
221.5964018231
 30
0.0
 10
141.6366647649
 20
220.8861299917
 30
0.0
 10
138.8582411173
 20
220.3076301679
 30
0.0
 10
135.9100865075
 20
220.1915850955
 30
0.0
 10
133.0202614879
 20
220.5488664118
 30
0.0
 10
130.411338762
 20
221.350841959
 30
0.0
 10
128.5608211008
 20
222.3839313622
 30
0.0
 10
127.4302503141
 20
223.3952253798
 30
0.0
 10
126.8003595232
 20
224.1891540624
 30
0.0
 10
126.3713017139
 20
225.0321967192
 30
0.0
 10
126.226198586
 20
225.6264099259
 30
0.0
 10
126.1927386732
 20
225.9188643159
 30
0.0
  0
SPLINE
  5
276
100
AcDbEntity
  8
0
100
AcDbSpline
 62
7
  6
CONTINUOUS
 70
0
 71
3
 72
17
 73
13
 74
0
 42
0.0000001
 43
0.0000001
 44
0.0000000001
 40
0.0
 40
0.0
 40
0.0
 40
0.0
 40
0.1274130088
 40
0.2674427661
 40
0.4132606268
 40
0.5569946472
 40
0.6911342078
 40
0.8099540926
 40
0.8629136753
 40
0.9116973906
 40
0.9569987326
 40
1.0
 40
1.0
 40
1.0
 40
1.0
 10
132.0737821357
 20
204.4774751357
 30
0.0
 10
131.2457111261
 20
203.9993909692
 30
0.0
 10
129.3754237072
 20
203.2201627533
 30
0.0
 10
126.3250312712
 20
202.5868702008
 30
0.0
 10
123.0890112577
 20
202.4623306267
 30
0.0
 10
119.9187612249
 20
202.8582749166
 30
0.0
 10
117.0594503579
 20
203.7429410833
 30
0.0
 10
115.0341604318
 20
204.8809174361
 30
0.0
 10
113.8002912954
 20
205.9939457918
 30
0.0
 10
113.1149204241
 20
206.8671150552
 30
0.0
 10
112.6513898247
 20
207.7940676425
 30
0.0
 10
112.4973971135
 20
208.4464653186
 30
0.0
 10
112.4634796011
 20
208.767381513
 30
0.0
  0
SPLINE
  5
277
100
AcDbEntity
  8
0
100
AcDbSpline
 62
7
  6
CONTINUOUS
 70
0
 71
3
 72
17
 73
13
 74
0
 42
0.0000001
 43
0.0000001
 44
0.0000000001
 40
0.0
 40
0.0
 40
0.0
 40
0.0
 40
0.1277161691
 40
0.2681189563
 40
0.4142581424
 40
0.558148061
 40
0.6921904744
 40
0.8106511222
 40
0.8633763431
 40
0.9119274864
 40
0.9570554291
 40
1.0
 40
1.0
 40
1.0
 40
1.0
 10
94.5968842718
 20
237.5450238428
 30
0.0
 10
93.5458807484
 20
236.9382302977
 30
0.0
 10
91.1706611247
 20
235.9509323317
 30
0.0
 10
87.297398843
 20
235.1536452797
 30
0.0
 10
83.1912043522
 20
235.0061907937
 30
0.0
 10
79.1749756568
 20
235.5226722888
 30
0.0
 10
75.5626995594
 20
236.660917182
 30
0.0
 10
73.0149384765
 20
238.1200705573
 30
0.0
 10
71.4755153721
 20
239.5433243748
 30
0.0
 10
70.6290018405
 20
240.658065203
 30
0.0
 10
70.0670971864
 20
241.8394861987
 30
0.0
 10
69.8923567066
 20
242.6680795114
 30
0.0
 10
69.8595362332
 20
243.0748280925
 30
0.0
  0
SPLINE
  5
278
100
AcDbEntity
  8
0
100
AcDbSpline
 62
7
  6
CONTINUOUS
 70
0
 71
3
 72
17
 73
13
 74
0
 42
0.0000001
 43
0.0000001
 44
0.0000000001
 40
0.0
 40
0.0
 40
0.0
 40
0.0
 40
0.127310471
 40
0.2672114389
 40
0.4129181203
 40
0.5565956477
 40
0.6907688681
 40
0.8097105507
 40
0.86275094
 40
0.9116127668
 40
0.9569772186
 40
1.0
 40
1.0
 40
1.0
 40
1.0
 10
185.8139446089
 20
197.9457250439
 30
0.0
 10
185.0595839366
 20
197.5101973064
 30
0.0
 10
183.3561385486
 20
196.799925475
 30
0.0
 10
180.577714901
 20
196.2214256512
 30
0.0
 10
177.6295602912
 20
196.1053805788
 30
0.0
 10
174.7397352716
 20
196.4626618951
 30
0.0
 10
172.1308125457
 20
197.2646374423
 30
0.0
 10
170.2802948844
 20
198.2977268455
 30
0.0
 10
169.1497240978
 20
199.3090208631
 30
0.0
 10
168.5198333069
 20
200.1029495457
 30
0.0
 10
168.0907754976
 20
200.9459922025
 30
0.0
 10
167.9456723697
 20
201.5402054092
 30
0.0
 10
167.9122124569
 20
201.8326597992
 30
0.0
  0
SPLINE
  5
279
100
AcDbEntity
  8
0
100
AcDbSpline
 62
7
  6
CONTINUOUS
 70
0
 71
3
 72
17
 73
13
 74
0
 42
0.0000001
 43
0.0000001
 44
0.0000000001
 40
0.0
 40
0.0
 40
0.0
 40
0.0
 40
0.1274130088
 40
0.2674427661
 40
0.4132606268
 40
0.5569946472
 40
0.6911342078
 40
0.8099540926
 40
0.8629136753
 40
0.9116973906
 40
0.9569987326
 40
1.0
 40
1.0
 40
1.0
 40
1.0
 10
156.8226225158
 20
190.1890487275
 30
0.0
 10
155.9945515063
 20
189.710964561
 30
0.0
 10
154.1242640874
 20
188.9317363451
 30
0.0
 10
151.0738716514
 20
188.2984437926
 30
0.0
 10
147.8378516379
 20
188.1739042185
 30
0.0
 10
144.667601605
 20
188.5698485084
 30
0.0
 10
141.808290738
 20
189.4545146751
 30
0.0
 10
139.783000812
 20
190.5924910279
 30
0.0
 10
138.5491316756
 20
191.7055193836
 30
0.0
 10
137.8637608043
 20
192.578688647
 30
0.0
 10
137.4002302048
 20
193.5056412343
 30
0.0
 10
137.2462374937
 20
194.1580389104
 30
0.0
 10
137.2123199812
 20
194.4789551047
 30
0.0
  0
SPLINE
  5
27A
100
AcDbEntity
  8
0
100
AcDbSpline
 62
7
  6
CONTINUOUS
 70
0
 71
3
 72
17
 73
13
 74
0
 42
0.0000001
 43
0.0000001
 44
0.0000000001
 40
0.0
 40
0.0
 40
0.0
 40
0.0
 40
0.1277161691
 40
0.2681189563
 40
0.4142581424
 40
0.558148061
 40
0.6921904744
 40
0.8106511222
 40
0.8633763431
 40
0.9119274864
 40
0.9570554291
 40
1.0
 40
1.0
 40
1.0
 40
1.0
 10
218.3410861726
 20
166.1028918017
 30
0.0
 10
217.2900826491
 20
165.4960982566
 30
0.0
 10
214.9148630254
 20
164.5088002906
 30
0.0
 10
211.0416007437
 20
163.7115132386
 30
0.0
 10
206.9354062529
 20
163.5640587526
 30
0.0
 10
202.9191775575
 20
164.0805402477
 30
0.0
 10
199.3069014601
 20
165.218785141
 30
0.0
 10
196.7591403772
 20
166.6779385163
 30
0.0
 10
195.2197172728
 20
168.1011923338
 30
0.0
 10
194.3732037412
 20
169.2159331619
 30
0.0
 10
193.8112990871
 20
170.3973541576
 30
0.0
 10
193.6365586073
 20
171.2259474703
 30
0.0
 10
193.6037381339
 20
171.6326960515
 30
0.0
  0
SPLINE
  5
27B
100
AcDbEntity
  8
0
100
AcDbSpline
 62
7
  6
CONTINUOUS
 70
0
 71
3
 72
17
 73
13
 74
0
 42
0.0000001
 43
0.0000001
 44
0.0000000001
 40
0.0
 40
0.0
 40
0.0
 40
0.0
 40
0.1274130088
 40
0.2674427661
 40
0.4132606268
 40
0.5569946472
 40
0.6911342078
 40
0.8099540926
 40
0.8629136753
 40
0.9116973906
 40
0.9569987326
 40
1.0
 40
1.0
 40
1.0
 40
1.0
 10
107.3249417556
 20
218.7659015439
 30
0.0
 10
106.496870746
 20
218.2878173774
 30
0.0
 10
104.6265833271
 20
217.5085891615
 30
0.0
 10
101.5761908911
 20
216.875296609
 30
0.0
 10
98.3401708776
 20
216.7507570349
 30
0.0
 10
95.1699208447
 20
217.1467013248
 30
0.0
 10
92.3106099777
 20
218.0313674915
 30
0.0
 10
90.2853200517
 20
219.1693438443
 30
0.0
 10
89.0514509153
 20
220.2823722
 30
0.0
 10
88.366080044
 20
221.1555414634
 30
0.0
 10
87.9025494445
 20
222.0824940507
 30
0.0
 10
87.7485567334
 20
222.7348917268
 30
0.0
 10
87.7146392209
 20
223.0558079212
 30
0.0
  0
SPLINE
  5
27C
100
AcDbEntity
  8
0
100
AcDbSpline
 62
7
  6
CONTINUOUS
 70
0
 71
3
 72
17
 73
13
 74
0
 42
0.0000001
 43
0.0000001
 44
0.0000000001
 40
0.0
 40
0.0
 40
0.0
 40
0.0
 40
0.1274130088
 40
0.2674427661
 40
0.4132606268
 40
0.5569946472
 40
0.6911342078
 40
0.8099540926
 40
0.8629136753
 40
0.9116973906
 40
0.9569987326
 40
1.0
 40
1.0
 40
1.0
 40
1.0
 10
181.571462896
 20
175.9006223193
 30
0.0
 10
180.7433918864
 20
175.4225381528
 30
0.0
 10
178.8731044675
 20
174.6433099369
 30
0.0
 10
175.8227120315
 20
174.0100173844
 30
0.0
 10
172.586692018
 20
173.8854778103
 30
0.0
 10
169.4164419852
 20
174.2814221001
 30
0.0
 10
166.5571311182
 20
175.1660882669
 30
0.0
 10
164.5318411921
 20
176.3040646196
 30
0.0
 10
163.2979720557
 20
177.4170929754
 30
0.0
 10
162.6126011844
 20
178.2902622388
 30
0.0
 10
162.149070585
 20
179.2172148261
 30
0.0
 10
161.9950778738
 20
179.8696125021
 30
0.0
 10
161.9611603614
 20
180.1905286965
 30
0.0
  0
SPLINE
  5
27D
100
AcDbEntity
  8
0
100
AcDbSpline
 62
7
  6
CONTINUOUS
 70
0
 71
3
 72
18
 73
14
 74
0
 42
0.0000001
 43
0.0000001
 44
0.0000000001
 40
0.0
 40
0.0
 40
0.0
 40
0.0
 40
0.1271458535
 40
0.266851811
 40
0.4123864256
 40
0.4849708453
 40
0.5560987201
 40
0.6902962094
 40
0.809387737
 40
0.8625328313
 40
0.9115004914
 40
0.9569471383
 40
1.0
 40
1.0
 40
1.0
 40
1.0
 10
123.2347339334
 20
234.075031819
 30
0.0
 10
122.5544010453
 20
233.6822437876
 30
0.0
 10
121.0184662087
 20
233.0411205611
 30
0.0
 10
118.513508009
 20
232.5173423981
 30
0.0
 10
116.2934452782
 20
232.4272313935
 30
0.0
 10
114.5105328269
 20
232.5733832769
 30
0.0
 10
112.8154523666
 20
232.8582991368
 30
0.0
 10
110.8871749818
 20
233.4458135665
 30
0.0
 10
109.2114459628
 20
234.3728580847
 30
0.0
 10
108.1835889452
 20
235.2815551168
 30
0.0
 10
107.6083470332
 20
235.9955572889
 30
0.0
 10
107.2131892579
 20
236.7542785975
 30
0.0
 10
107.0758997897
 20
237.2899456134
 30
0.0
 10
107.0425219897
 20
237.5538483423
 30
0.0
  0
SPLINE
  5
27E
100
AcDbEntity
  8
0
100
AcDbSpline
 62
7
  6
CONTINUOUS
 70
0
 71
3
 72
18
 73
14
 74
0
 42
0.0000001
 43
0.0000001
 44
0.0000000001
 40
0.0
 40
0.0
 40
0.0
 40
0.0
 40
0.1271458535
 40
0.266851811
 40
0.4123864256
 40
0.4849708453
 40
0.5560987201
 40
0.6902962094
 40
0.809387737
 40
0.8625328313
 40
0.9115004914
 40
0.9569471383
 40
1.0
 40
1.0
 40
1.0
 40
1.0
 10
205.2594620504
 20
186.7191042946
 30
0.0
 10
204.5791291624
 20
186.3263162632
 30
0.0
 10
203.0431943258
 20
185.6851930368
 30
0.0
 10
200.538236126
 20
185.1614148738
 30
0.0
 10
198.3181733952
 20
185.0713038692
 30
0.0
 10
196.535260944
 20
185.2174557525
 30
0.0
 10
194.8401804837
 20
185.5023716124
 30
0.0
 10
192.9119030988
 20
186.0898860421
 30
0.0
 10
191.2361740798
 20
187.0169305603
 30
0.0
 10
190.2083170622
 20
187.9256275924
 30
0.0
 10
189.6330751502
 20
188.6396297645
 30
0.0
 10
189.237917375
 20
189.3983510731
 30
0.0
 10
189.1006279068
 20
189.934018089
 30
0.0
 10
189.0672501068
 20
190.1979208179
 30
0.0
  0
SPLINE
  5
27F
100
AcDbEntity
  8
0
100
AcDbSpline
 62
7
  6
CONTINUOUS
 70
0
 71
3
 72
18
 73
14
 74
0
 42
0.0000001
 43
0.0000001
 44
0.0000000001
 40
0.0
 40
0.0
 40
0.0
 40
0.0
 40
0.1271458535
 40
0.266851811
 40
0.4123864256
 40
0.4849708453
 40
0.5560987201
 40
0.6902962094
 40
0.809387737
 40
0.8625328313
 40
0.9115004914
 40
0.9569471383
 40
1.0
 40
1.0
 40
1.0
 40
1.0
 10
91.0613356461
 20
239.1779764068
 30
0.0
 10
90.3810027581
 20
238.7851883754
 30
0.0
 10
88.8450679214
 20
238.144065149
 30
0.0
 10
86.3401097217
 20
237.620286986
 30
0.0
 10
84.1200469909
 20
237.5301759814
 30
0.0
 10
82.3371345397
 20
237.6763278647
 30
0.0
 10
80.6420540793
 20
237.9612437246
 30
0.0
 10
78.7137766945
 20
238.5487581543
 30
0.0
 10
77.0380476755
 20
239.4758026725
 30
0.0
 10
76.0101906579
 20
240.3844997046
 30
0.0
 10
75.4349487459
 20
241.0985018767
 30
0.0
 10
75.0397909707
 20
241.8572231853
 30
0.0
 10
74.9025015025
 20
242.3928902012
 30
0.0
 10
74.8691237025
 20
242.6567929301
 30
0.0
  0
SPLINE
  5
280
100
AcDbEntity
  8
0
100
AcDbSpline
 62
7
  6
CONTINUOUS
 70
0
 71
3
 72
18
 73
14
 74
0
 42
0.0000001
 43
0.0000001
 44
0.0000000001
 40
0.0
 40
0.0
 40
0.0
 40
0.0
 40
0.1271458535
 40
0.266851811
 40
0.4123864256
 40
0.4849708453
 40
0.5560987201
 40
0.6902962094
 40
0.809387737
 40
0.8625328313
 40
0.9115004914
 40
0.9569471383
 40
1.0
 40
1.0
 40
1.0
 40
1.0
 10
214.8055375468
 20
167.7358443658
 30
0.0
 10
214.1252046588
 20
167.3430563343
 30
0.0
 10
212.5892698222
 20
166.7019331079
 30
0.0
 10
210.0843116224
 20
166.1781549449
 30
0.0
 10
207.8642488917
 20
166.0880439403
 30
0.0
 10
206.0813364404
 20
166.2341958237
 30
0.0
 10
204.3862559801
 20
166.5191116836
 30
0.0
 10
202.4579785952
 20
167.1066261133
 30
0.0
 10
200.7822495762
 20
168.0336706315
 30
0.0
 10
199.7543925586
 20
168.9423676636
 30
0.0
 10
199.1791506466
 20
169.6563698357
 30
0.0
 10
198.7839928714
 20
170.4150911443
 30
0.0
 10
198.6467034032
 20
170.9507581602
 30
0.0
 10
198.6133256032
 20
171.2146608891
 30
0.0
  0
SPLINE
  5
281
100
AcDbEntity
  8
0
100
AcDbSpline
 62
7
  6
CONTINUOUS
 70
0
 71
3
 72
11
 73
7
 74
0
 42
0.0000001
 43
0.0000001
 44
0.0000000001
 40
0.0
 40
0.0
 40
0.0
 40
0.0
 40
0.2177796549
 40
0.4509239625
 40
0.7102593694
 40
1.0
 40
1.0
 40
1.0
 40
1.0
 10
74.8438500698
 20
243.0562635671
 30
0.0
 10
74.8437859867
 20
243.4180966656
 30
0.0
 10
74.9775941013
 20
244.172307443
 30
0.0
 10
75.5492721859
 20
245.2230653231
 30
0.0
 10
76.4530381754
 20
246.173062295
 30
0.0
 10
77.2093510812
 20
246.6938549751
 30
0.0
 10
77.6262508683
 20
246.9345507427
 30
0.0
  0
SPLINE
  5
282
100
AcDbEntity
  8
0
100
AcDbSpline
 62
7
  6
CONTINUOUS
 70
0
 71
3
 72
17
 73
13
 74
0
 42
0.0000001
 43
0.0000001
 44
0.0000000001
 40
0.0
 40
0.0
 40
0.0
 40
0.0
 40
0.0429445372
 40
0.0880734769
 40
0.1366259929
 40
0.1893525421
 40
0.3078144119
 40
0.4418549773
 40
0.5857421363
 40
0.7318807
 40
0.8722837847
 40
1.0
 40
1.0
 40
1.0
 40
1.0
 10
98.8280034144
 20
243.4465907989
 30
0.0
 10
98.7951206228
 20
243.85332491
 30
0.0
 10
98.6202982375
 20
244.6818885056
 30
0.0
 10
98.0582529015
 20
245.8632357088
 30
0.0
 10
97.2116519883
 20
246.9779104037
 30
0.0
 10
95.6721447517
 20
248.4010591061
 30
0.0
 10
93.1243739686
 20
249.8600638091
 30
0.0
 10
89.5121857627
 20
250.9981865963
 30
0.0
 10
85.4960900413
 20
251.5145958733
 30
0.0
 10
81.390019397
 20
251.367098889
 30
0.0
 10
77.5168490926
 20
250.5698192054
 30
0.0
 10
75.1416827453
 20
249.5825347695
 30
0.0
 10
74.0907022426
 20
248.9757545153
 30
0.0
  0
SPLINE
  5
283
100
AcDbEntity
  8
0
100
AcDbSpline
 62
7
  6
CONTINUOUS
 70
0
 71
3
 72
11
 73
7
 74
0
 42
0.0000001
 43
0.0000001
 44
0.0000000001
 40
0.0
 40
0.0
 40
0.0
 40
0.0
 40
0.2419501527
 40
0.5013475115
 40
0.7599760355
 40
1.0
 40
1.0
 40
1.0
 40
1.0
 10
128.7236279233
 20
246.7883227247
 30
0.0
 10
128.2590244148
 20
246.9909836574
 30
0.0
 10
127.2402883493
 20
247.2862089315
 30
0.0
 10
125.6452255036
 20
247.4217272845
 30
0.0
 10
124.0562960176
 20
247.2630756322
 30
0.0
 10
123.047927013
 20
246.951800716
 30
0.0
 10
122.5911666182
 20
246.7415074805
 30
0.0
  0
SPLINE
  5
284
100
AcDbEntity
  8
0
100
AcDbSpline
 62
7
  6
CONTINUOUS
 70
0
 71
3
 72
11
 73
7
 74
0
 42
0.0000001
 43
0.0000001
 44
0.0000000001
 40
0.0
 40
0.0
 40
0.0
 40
0.0
 40
0.2177648073
 40
0.4508950352
 40
0.7103684932
 40
1.0
 40
1.0
 40
1.0
 40
1.0
 10
120.7096050219
 20
248.9758870085
 30
0.0
 10
120.7096806616
 20
249.1663112017
 30
0.0
 10
120.779753328
 20
249.5632651047
 30
0.0
 10
121.0808399405
 20
250.1163735014
 30
0.0
 10
121.5566228383
 20
250.6162251191
 30
0.0
 10
121.954614765
 20
250.8904577013
 30
0.0
 10
122.173951587
 20
251.0170911186
 30
0.0
  0
SPLINE
  5
285
100
AcDbEntity
  8
0
100
AcDbSpline
 62
7
  6
CONTINUOUS
 70
0
 71
3
 72
11
 73
7
 74
0
 42
0.0000001
 43
0.0000001
 44
0.0000000001
 40
0.0
 40
0.0
 40
0.0
 40
0.0
 40
0.2177796549
 40
0.4509239625
 40
0.7102593694
 40
1.0
 40
1.0
 40
1.0
 40
1.0
 10
107.0172483571
 20
237.9533189793
 30
0.0
 10
107.017184274
 20
238.3151520777
 30
0.0
 10
107.1509923886
 20
239.0693628552
 30
0.0
 10
107.7226704732
 20
240.1201207353
 30
0.0
 10
108.6264364626
 20
241.0701177071
 30
0.0
 10
109.3827493685
 20
241.5909103873
 30
0.0
 10
109.7996491556
 20
241.8316061548
 30
0.0
  0
SPLINE
  5
286
100
AcDbEntity
  8
0
100
AcDbSpline
 62
7
  6
CONTINUOUS
 70
0
 71
3
 72
8
 73
4
 74
0
 42
0.0000001
 43
0.0000001
 44
0.0000000001
 40
0.0
 40
0.0
 40
0.0
 40
0.0
 40
1.0
 40
1.0
 40
1.0
 40
1.0
 10
65.3124608256
 20
265.8126532855
 30
0.0
 10
65.3653608807
 20
265.8431949706
 30
0.0
 10
65.4229853413
 20
265.8665698918
 30
0.0
 10
65.482095496
 20
265.8819711895
 30
0.0
  0
SPLINE
  5
287
100
AcDbEntity
  8
0
100
AcDbSpline
 62
7
  6
CONTINUOUS
 70
0
 71
3
 72
9
 73
5
 74
0
 42
0.0000001
 43
0.0000001
 44
0.0000000001
 40
0.0
 40
0.0
 40
0.0
 40
0.0
 40
0.4563446074
 40
1.0
 40
1.0
 40
1.0
 40
1.0
 10
65.482095496
 20
265.8819711895
 30
0.0
 10
65.6091443317
 20
265.9150740793
 30
0.0
 10
65.9085387451
 20
265.9080880842
 30
0.0
 10
66.1769541782
 20
265.7918888183
 30
0.0
 10
66.3124098909
 20
265.7136851953
 30
0.0
  0
SPLINE
  5
288
100
AcDbEntity
  8
0
100
AcDbSpline
 62
7
  6
CONTINUOUS
 70
0
 71
3
 72
11
 73
7
 74
0
 42
0.0000001
 43
0.0000001
 44
0.0000000001
 40
0.0
 40
0.0
 40
0.0
 40
0.0
 40
0.2177678453
 40
0.45093877
 40
0.7102087945
 40
1.0
 40
1.0
 40
1.0
 40
1.0
 10
69.8438506949
 20
243.4645147809
 30
0.0
 10
69.8439054258
 20
244.0167621155
 30
0.0
 10
70.0476854121
 20
245.1680321488
 30
0.0
 10
70.9206064271
 20
246.7715771763
 30
0.0
 10
72.2997757054
 20
248.2218126357
 30
0.0
 10
73.4542638684
 20
249.0165600505
 30
0.0
 10
74.0907022426
 20
249.3840057239
 30
0.0
  0
SPLINE
  5
289
100
AcDbEntity
  8
0
100
AcDbSpline
 62
7
  6
CONTINUOUS
 70
0
 71
3
 72
10
 73
6
 74
0
 42
0.0000001
 43
0.0000001
 44
0.0000000001
 40
0.0
 40
0.0
 40
0.0
 40
0.0
 40
0.2184101851
 40
0.4522595347
 40
1.0
 40
1.0
 40
1.0
 40
1.0
 10
247.6251144136
 20
191.1047247957
 30
0.0
 10
247.5591540142
 20
191.1428062003
 30
0.0
 10
247.4075962258
 20
191.1980039627
 30
0.0
 10
247.0545219118
 20
191.2066936775
 30
0.0
 10
246.7905960952
 20
191.1012532
 30
0.0
 10
246.6251778378
 20
191.0057494947
 30
0.0
  0
SPLINE
  5
28A
100
AcDbEntity
  8
0
100
AcDbSpline
 62
7
  6
CONTINUOUS
 70
0
 71
3
 72
17
 73
13
 74
0
 42
0.0000001
 43
0.0000001
 44
0.0000000001
 40
0.0
 40
0.0
 40
0.0
 40
0.0
 40
0.0430007582
 40
0.0883022487
 40
0.1370865703
 40
0.1900469035
 40
0.3088664155
 40
0.4430033473
 40
0.5867355125
 40
0.7325548118
 40
0.8725865947
 40
1.0
 40
1.0
 40
1.0
 40
1.0
 10
135.420538679
 20
209.1691655651
 30
0.0
 10
135.3865959551
 20
209.4900708192
 30
0.0
 10
135.232546147
 20
210.1424421242
 30
0.0
 10
134.7689691072
 20
211.0693545871
 30
0.0
 10
134.0835671378
 20
211.9424948778
 30
0.0
 10
132.8496578985
 20
213.0554550931
 30
0.0
 10
130.8243985404
 20
214.1933741643
 30
0.0
 10
127.9651504097
 20
215.0779845327
 30
0.0
 10
124.7949653845
 20
215.4738978839
 30
0.0
 10
121.5589780547
 20
215.3493570639
 30
0.0
 10
118.5085983961
 20
214.7160673009
 30
0.0
 10
116.6383207348
 20
213.9368404062
 30
0.0
 10
115.8102584573
 20
213.4587612811
 30
0.0
  0
SPLINE
  5
28B
100
AcDbEntity
  8
0
100
AcDbSpline
 62
7
  6
CONTINUOUS
 70
0
 71
3
 72
17
 73
13
 74
0
 42
0.0000001
 43
0.0000001
 44
0.0000000001
 40
0.0
 40
0.0
 40
0.0
 40
0.0
 40
0.0429445372
 40
0.0880734769
 40
0.1366259929
 40
0.1893525421
 40
0.3078144119
 40
0.4418549773
 40
0.5857421363
 40
0.7318807
 40
0.8722837847
 40
1.0
 40
1.0
 40
1.0
 40
1.0
 10
222.5722053151
 20
172.0044587578
 30
0.0
 10
222.5393225235
 20
172.411192869
 30
0.0
 10
222.3645001382
 20
173.2397564645
 30
0.0
 10
221.8024548023
 20
174.4211036678
 30
0.0
 10
220.955853889
 20
175.5357783627
 30
0.0
 10
219.4163466524
 20
176.9589270651
 30
0.0
 10
216.8685758693
 20
178.417931768
 30
0.0
 10
213.2563876634
 20
179.5560545553
 30
0.0
 10
209.240291942
 20
180.0724638323
 30
0.0
 10
205.1342212977
 20
179.924966848
 30
0.0
 10
201.2610509933
 20
179.1276871644
 30
0.0
 10
198.885884646
 20
178.1404027284
 30
0.0
 10
197.8349041433
 20
177.5336224742
 30
0.0
  0
SPLINE
  5
28C
100
AcDbEntity
  8
0
100
AcDbSpline
 62
7
  6
CONTINUOUS
 70
0
 71
3
 72
11
 73
7
 74
0
 42
0.0000001
 43
0.0000001
 44
0.0000000001
 40
0.0
 40
0.0
 40
0.0
 40
0.0
 40
0.2177723615
 40
0.4509308696
 40
0.7102274951
 40
1.0
 40
1.0
 40
1.0
 40
1.0
 10
112.4421050071
 20
209.1722438183
 30
0.0
 10
112.4420943244
 20
209.6102396133
 30
0.0
 10
112.6038555176
 20
210.5232760531
 30
0.0
 10
113.2960274484
 20
211.7951399737
 30
0.0
 10
114.3899394352
 20
212.9452469784
 30
0.0
 10
115.3055325057
 20
213.5756105651
 30
0.0
 10
115.8102584573
 20
213.8670124897
 30
0.0
  0
SPLINE
  5
28D
100
AcDbEntity
  8
0
100
AcDbSpline
 62
7
  6
CONTINUOUS
 70
0
 71
3
 72
11
 73
7
 74
0
 42
0.0000001
 43
0.0000001
 44
0.0000000001
 40
0.0
 40
0.0
 40
0.0
 40
0.0
 40
0.2372465045
 40
0.4999989083
 40
0.7627519059
 40
1.0
 40
1.0
 40
1.0
 40
1.0
 10
246.6253898034
 20
161.6122927926
 30
0.0
 10
246.8261745336
 20
161.496372297
 30
0.0
 10
247.2061564136
 20
161.1766279456
 30
0.0
 10
247.6494816465
 20
160.5705635671
 30
0.0
 10
247.952689918
 20
159.8836004085
 30
0.0
 10
248.0396092537
 20
159.3946529275
 30
0.0
 10
248.0396092537
 20
159.1628064493
 30
0.0
  0
SPLINE
  5
28E
100
AcDbEntity
  8
0
100
AcDbSpline
 62
7
  6
CONTINUOUS
 70
0
 71
3
 72
17
 73
13
 74
0
 42
0.0000001
 43
0.0000001
 44
0.0000000001
 40
0.0
 40
0.0
 40
0.0
 40
0.0
 40
0.0430220317
 40
0.0883868363
 40
0.1372500185
 40
0.1902913509
 40
0.3092337115
 40
0.4434042102
 40
0.5870794285
 40
0.7327873812
 40
0.8726901451
 40
1.0
 40
1.0
 40
1.0
 40
1.0
 10
147.1468326389
 20
226.3103583994
 30
0.0
 10
147.1133341234
 20
226.6027951375
 30
0.0
 10
146.9681217994
 20
227.1969594316
 30
0.0
 10
146.5390134496
 20
228.0399509143
 30
0.0
 10
145.9090301487
 20
228.8337958179
 30
0.0
 10
144.7784253867
 20
229.8450140451
 30
0.0
 10
142.9279037494
 20
230.8779630505
 30
0.0
 10
140.3190692636
 20
231.6798466565
 30
0.0
 10
137.4293447179
 20
232.0370846576
 30
0.0
 10
134.4812664942
 20
231.9210162934
 30
0.0
 10
131.7029065119
 20
231.3425083281
 30
0.0
 10
129.9995030731
 20
230.6322479648
 30
0.0
 10
129.2451665971
 20
230.196734197
 30
0.0
  0
SPLINE
  5
28F
100
AcDbEntity
  8
0
100
AcDbSpline
 62
7
  6
CONTINUOUS
 70
0
 71
3
 72
11
 73
7
 74
0
 42
0.0000001
 43
0.0000001
 44
0.0000000001
 40
0.0
 40
0.0
 40
0.0
 40
0.0
 40
0.2372460005
 40
0.4999983822
 40
0.7627516439
 40
1.0
 40
1.0
 40
1.0
 40
1.0
 10
175.2076902792
 20
149.7730899537
 30
0.0
 10
175.0069069257
 20
149.6571683224
 30
0.0
 10
174.6269280207
 20
149.3374217507
 30
0.0
 10
174.1836067654
 20
148.7313554388
 30
0.0
 10
173.8804012251
 20
148.0443911136
 30
0.0
 10
173.7934826048
 20
147.5554434141
 30
0.0
 10
173.7934826048
 20
147.3235968117
 30
0.0
  0
SPLINE
  5
290
100
AcDbEntity
  8
0
100
AcDbSpline
 62
7
  6
CONTINUOUS
 70
0
 71
3
 72
11
 73
7
 74
0
 42
0.0000001
 43
0.0000001
 44
0.0000000001
 40
0.0
 40
0.0
 40
0.0
 40
0.0
 40
0.2372480941
 40
0.5000010917
 40
0.7627534955
 40
1.0
 40
1.0
 40
1.0
 40
1.0
 10
227.5335979745
 20
147.323725987
 30
0.0
 10
227.5335979745
 20
147.5555724653
 30
0.0
 10
227.4466786388
 20
148.0445199462
 30
0.0
 10
227.1434703673
 20
148.7314831049
 30
0.0
 10
226.7001451344
 20
149.3375474834
 30
0.0
 10
226.3201632544
 20
149.6572918348
 30
0.0
 10
226.1193785242
 20
149.7732123303
 30
0.0
  0
SPLINE
  5
291
100
AcDbEntity
  8
0
100
AcDbSpline
 62
7
  6
CONTINUOUS
 70
0
 71
3
 72
15
 73
11
 74
0
 42
0.0000001
 43
0.0000001
 44
0.0000000001
 40
0.0
 40
0.0
 40
0.0
 40
0.0
 40
0.1141576626
 40
0.2373248342
 40
0.3669764433
 40
0.5000005214
 40
0.6330245269
 40
0.7626759242
 40
0.8858427621
 40
1.0
 40
1.0
 40
1.0
 40
1.0
 10
173.7934826048
 20
147.3235968117
 30
0.0
 10
175.6330055052
 20
146.2615717961
 30
0.0
 10
179.6553002997
 20
144.3885146289
 30
0.0
 10
186.2054851224
 20
142.397827178
 30
0.0
 10
193.2969676582
 20
141.1723320844
 30
0.0
 10
200.6635856048
 20
140.7589692226
 30
0.0
 10
208.0301976636
 20
141.1723670476
 30
0.0
 10
215.1216627998
 20
142.3978958133
 30
0.0
 10
221.671819426
 20
144.3886144005
 30
0.0
 10
225.6940895766
 20
146.2616916578
 30
0.0
 10
227.5335979745
 20
147.323725987
 30
0.0
  0
SPLINE
  5
292
100
AcDbEntity
  8
0
100
AcDbSpline
 62
7
  6
CONTINUOUS
 70
0
 71
3
 72
10
 73
6
 74
0
 42
0.0000001
 43
0.0000001
 44
0.0000000001
 40
0.0
 40
0.0
 40
0.0
 40
0.0
 40
0.5477398651
 40
0.781589419
 40
1.0
 40
1.0
 40
1.0
 40
1.0
 10
45.8063986117
 20
253.874604733
 30
0.0
 10
45.6409779163
 20
253.9701082555
 30
0.0
 10
45.3770482188
 20
254.0755477102
 30
0.0
 10
45.0239698695
 20
254.0668548731
 30
0.0
 10
44.8724105622
 20
254.0116552141
 30
0.0
 10
44.8064495464
 20
253.9735728232
 30
0.0
  0
SPLINE
  5
293
100
AcDbEntity
  8
0
100
AcDbSpline
 62
7
  6
CONTINUOUS
 70
0
 71
3
 72
11
 73
7
 74
0
 42
0.0000001
 43
0.0000001
 44
0.0000000001
 40
0.0
 40
0.0
 40
0.0
 40
0.0
 40
0.2372483561
 40
0.5000016178
 40
0.7627539995
 40
1.0
 40
1.0
 40
1.0
 40
1.0
 10
44.3924029029
 20
222.0316548889
 30
0.0
 10
44.3924029029
 20
222.2635014913
 30
0.0
 10
44.4793215232
 20
222.7524491909
 30
0.0
 10
44.7825270635
 20
223.439413516
 30
0.0
 10
45.2258483188
 20
224.0454798279
 30
0.0
 10
45.6058272238
 20
224.3652263996
 30
0.0
 10
45.8066105773
 20
224.4811480309
 30
0.0
  0
SPLINE
  5
294
100
AcDbEntity
  8
0
100
AcDbSpline
 62
7
  6
CONTINUOUS
 70
0
 71
3
 72
17
 73
13
 74
0
 42
0.0000001
 43
0.0000001
 44
0.0000000001
 40
0.0
 40
0.0
 40
0.0
 40
0.0
 40
0.0430007582
 40
0.0883022487
 40
0.1370865703
 40
0.1900469035
 40
0.3088664155
 40
0.4430033473
 40
0.5867355125
 40
0.7325548118
 40
0.8725865947
 40
1.0
 40
1.0
 40
1.0
 40
1.0
 10
184.9182194393
 20
180.5923127487
 30
0.0
 10
184.8842767154
 20
180.9132180028
 30
0.0
 10
184.7302269072
 20
181.5655893078
 30
0.0
 10
184.2666498675
 20
182.4925017706
 30
0.0
 10
183.5812478981
 20
183.3656420614
 30
0.0
 10
182.3473386587
 20
184.4786022767
 30
0.0
 10
180.3220793007
 20
185.6165213479
 30
0.0
 10
177.46283117
 20
186.5011317163
 30
0.0
 10
174.2926461448
 20
186.8970450675
 30
0.0
 10
171.056658815
 20
186.7725042475
 30
0.0
 10
168.0062791564
 20
186.1392144845
 30
0.0
 10
166.1360014951
 20
185.3599875897
 30
0.0
 10
165.3079392176
 20
184.8819084647
 30
0.0
  0
SPLINE
  5
295
100
AcDbEntity
  8
0
100
AcDbSpline
 62
7
  6
CONTINUOUS
 70
0
 71
3
 72
11
 73
7
 74
0
 42
0.0000001
 43
0.0000001
 44
0.0000000001
 40
0.0
 40
0.0
 40
0.0
 40
0.0
 40
0.2177764219
 40
0.4509180312
 40
0.7102551465
 40
1.0
 40
1.0
 40
1.0
 40
1.0
 10
126.1698659558
 20
226.3184574743
 30
0.0
 10
126.1698052359
 20
226.7183718994
 30
0.0
 10
126.3177071772
 20
227.551957542
 30
0.0
 10
126.9495585141
 20
228.7133113709
 30
0.0
 10
127.948450696
 20
229.7633191958
 30
0.0
 10
128.7843764045
 20
230.3389496518
 30
0.0
 10
129.2451665971
 20
230.6049854055
 30
0.0
  0
SPLINE
  5
296
100
AcDbEntity
  8
0
100
AcDbSpline
 62
7
  6
CONTINUOUS
 70
0
 71
3
 72
10
 73
6
 74
0
 42
0.0000001
 43
0.0000001
 44
0.0000000001
 40
0.0
 40
0.0
 40
0.0
 40
0.0
 40
0.5477404653
 40
0.7815898149
 40
1.0
 40
1.0
 40
1.0
 40
1.0
 10
117.2240981359
 20
265.7138075719
 30
0.0
 10
117.3895163933
 20
265.8093112772
 30
0.0
 10
117.6534422099
 20
265.9147517548
 30
0.0
 10
118.0065165239
 20
265.9060620399
 30
0.0
 10
118.1580743123
 20
265.8508642775
 30
0.0
 10
118.2240347117
 20
265.8127828729
 30
0.0
  0
SPLINE
  5
297
100
AcDbEntity
  8
0
100
AcDbSpline
 62
7
  6
CONTINUOUS
 70
0
 71
3
 72
17
 73
13
 74
0
 42
0.0000001
 43
0.0000001
 44
0.0000000001
 40
0.0
 40
0.0
 40
0.0
 40
0.0
 40
0.0430220317
 40
0.0883868363
 40
0.1372500185
 40
0.1902913509
 40
0.3092337115
 40
0.4434042102
 40
0.5870794285
 40
0.7327873812
 40
0.8726901451
 40
1.0
 40
1.0
 40
1.0
 40
1.0
 10
168.0065695308
 20
214.2672561411
 30
0.0
 10
167.9730710153
 20
214.5596928791
 30
0.0
 10
167.8278586912
 20
215.1538571732
 30
0.0
 10
167.3987503414
 20
215.9968486559
 30
0.0
 10
166.7687670405
 20
216.7906935595
 30
0.0
 10
165.6381622786
 20
217.8019117868
 30
0.0
 10
163.7876406413
 20
218.8348607921
 30
0.0
 10
161.1788061554
 20
219.6367443981
 30
0.0
 10
158.2890816098
 20
219.9939823993
 30
0.0
 10
155.341003386
 20
219.877914035
 30
0.0
 10
152.5626434038
 20
219.2994060697
 30
0.0
 10
150.8592399649
 20
218.5891457064
 30
0.0
 10
150.104903489
 20
218.1536319386
 30
0.0
  0
SPLINE
  5
298
100
AcDbEntity
  8
0
100
AcDbSpline
 62
7
  6
CONTINUOUS
 70
0
 71
3
 72
17
 73
13
 74
0
 42
0.0000001
 43
0.0000001
 44
0.0000000001
 40
0.0
 40
0.0
 40
0.0
 40
0.0
 40
0.145442769
 40
0.2757957229
 40
0.3931752868
 40
0.4486402927
 40
0.5029854826
 40
0.5571945805
 40
0.6122626497
 40
0.7282044453
 40
0.8566061962
 40
1.0
 40
1.0
 40
1.0
 40
1.0
 10
246.6253713925
 20
161.6122821631
 30
0.0
 10
248.1807046547
 20
162.5102488806
 30
0.0
 10
251.0061369371
 20
164.4510260611
 30
0.0
 10
254.3991014173
 20
167.97749724
 30
0.0
 10
256.2508885391
 20
171.2968200439
 30
0.0
 10
257.0054317015
 20
174.010472006
 30
0.0
 10
257.2228277582
 20
176.0336852717
 30
0.0
 10
257.0981493314
 20
178.059900549
 30
0.0
 10
256.4689102621
 20
180.7805462033
 30
0.0
 10
254.7696218524
 20
184.1304368542
 30
0.0
 10
251.5324496697
 20
187.7134006736
 30
0.0
 10
248.795493473
 20
189.6955038014
 30
0.0
 10
247.2828790246
 20
190.6159199334
 30
0.0
  0
SPLINE
  5
299
100
AcDbEntity
  8
0
100
AcDbSpline
 62
7
  6
CONTINUOUS
 70
0
 71
3
 72
15
 73
11
 74
0
 42
0.0000001
 43
0.0000001
 44
0.0000000001
 40
0.0
 40
0.0
 40
0.0
 40
0.0
 40
0.1141581121
 40
0.2373254306
 40
0.3669768416
 40
0.5000005115
 40
0.6330241103
 40
0.7626753137
 40
0.8858423052
 40
1.0
 40
1.0
 40
1.0
 40
1.0
 10
175.2076718682
 20
149.7731005831
 30
0.0
 10
176.9503855953
 20
148.7669671054
 30
0.0
 10
180.7609947277
 20
146.9924906905
 30
0.0
 10
186.966446038
 20
145.1065829868
 30
0.0
 10
193.6846897237
 20
143.9455971935
 30
0.0
 10
200.6635768323
 20
143.5539943549
 30
0.0
 10
207.6424584436
 20
143.9456302082
 30
0.0
 10
214.3606858798
 20
145.1066478364
 30
0.0
 10
220.5661108083
 20
146.9925850656
 30
0.0
 10
224.3766968344
 20
148.7670805934
 30
0.0
 10
226.1193969346
 20
149.7732229595
 30
0.0
  0
SPLINE
  5
29A
100
AcDbEntity
  8
0
100
AcDbSpline
 62
7
  6
CONTINUOUS
 70
0
 71
3
 72
17
 73
13
 74
0
 42
0.0000001
 43
0.0000001
 44
0.0000000001
 40
0.0
 40
0.0
 40
0.0
 40
0.0
 40
0.1433930958
 40
0.2717941985
 40
0.3877355306
 40
0.4428034788
 40
0.4970125429
 40
0.5513577881
 40
0.6068229331
 40
0.7242029773
 40
0.8545565661
 40
1.0
 40
1.0
 40
1.0
 40
1.0
 10
45.1486909659
 20
253.484764661
 30
0.0
 10
43.6360916402
 20
252.5643414931
 30
0.0
 10
40.8991664263
 20
250.5822253132
 30
0.0
 10
37.6620477067
 20
246.9992444174
 30
0.0
 10
35.9628105724
 20
243.6493453438
 30
0.0
 10
35.3336129007
 20
240.928698747
 30
0.0
 10
35.2089647857
 20
238.902483415
 30
0.0
 10
35.4263909603
 20
236.8792720328
 30
0.0
 10
36.1809744185
 20
234.1656235704
 30
0.0
 10
38.0328098487
 20
230.8463120664
 30
0.0
 10
41.4258229249
 20
227.3198601134
 30
0.0
 10
44.2512825958
 20
225.3790967454
 30
0.0
 10
45.8066289879
 20
224.4811374018
 30
0.0
  0
SPLINE
  5
29B
100
AcDbEntity
  8
0
100
AcDbSpline
 62
7
  6
CONTINUOUS
 70
0
 71
3
 72
15
 73
11
 74
0
 42
0.0000001
 43
0.0000001
 44
0.0000000001
 40
0.0
 40
0.0
 40
0.0
 40
0.0
 40
0.1141581121
 40
0.2373254306
 40
0.3669768416
 40
0.5000005115
 40
0.6330241103
 40
0.7626753137
 40
0.8858423052
 40
1.0
 40
1.0
 40
1.0
 40
1.0
 10
117.224116547
 20
265.7137969425
 30
0.0
 10
115.4814028199
 20
266.7199304202
 30
0.0
 10
111.6707936874
 20
268.494406835
 30
0.0
 10
105.4653423772
 20
270.3803145388
 30
0.0
 10
98.7470986914
 20
271.5413003321
 30
0.0
 10
91.7682115829
 20
271.9329031706
 30
0.0
 10
84.7893299716
 20
271.5412673174
 30
0.0
 10
78.0711025353
 20
270.3802496892
 30
0.0
 10
71.8656776069
 20
268.49431246
 30
0.0
 10
68.0550915808
 20
266.7198169322
 30
0.0
 10
66.3123914805
 20
265.7136745661
 30
0.0
  0
SPLINE
  5
29C
100
AcDbEntity
  8
0
100
AcDbSpline
 62
7
  6
CONTINUOUS
 70
0
 71
3
 72
16
 73
12
 74
0
 42
0.0000001
 43
0.0000001
 44
0.0000000001
 40
0.0
 40
0.0
 40
0.0
 40
0.0
 40
0.1287443602
 40
0.2703971121
 40
0.4176139114
 40
0.5620190713
 40
0.6957499754
 40
0.8130650626
 40
0.9124721117
 40
0.9571211941
 40
1.0
 40
1.0
 40
1.0
 40
1.0
 10
122.173951587
 20
251.0170911186
 30
0.0
 10
122.5440680314
 20
251.2307766719
 30
0.0
 10
123.3820832346
 20
251.5765318364
 30
0.0
 10
124.7478355608
 20
251.8498177614
 30
0.0
 10
126.192478521
 20
251.8897056452
 30
0.0
 10
127.5976167853
 20
251.6925804313
 30
0.0
 10
128.8510142306
 20
251.2730629233
 30
0.0
 10
129.8552754094
 20
250.6635853906
 30
0.0
 10
130.4403099312
 20
249.9917632917
 30
0.0
 10
130.6713635976
 20
249.4100239377
 30
0.0
 10
130.7094519427
 20
249.1182259053
 30
0.0
 10
130.7093954036
 20
248.9758876834
 30
0.0
  0
SPLINE
  5
29D
100
AcDbEntity
  8
0
100
AcDbSpline
 62
7
  6
CONTINUOUS
 70
0
 71
3
 72
11
 73
7
 74
0
 42
0.0000001
 43
0.0000001
 44
0.0000000001
 40
0.0
 40
0.0
 40
0.0
 40
0.0
 40
0.2177764219
 40
0.4509180312
 40
0.7102551465
 40
1.0
 40
1.0
 40
1.0
 40
1.0
 10
147.0296028476
 20
214.2753552159
 30
0.0
 10
147.0295421278
 20
214.675269641
 30
0.0
 10
147.1774440691
 20
215.5088552836
 30
0.0
 10
147.809295406
 20
216.6702091126
 30
0.0
 10
148.8081875878
 20
217.7202169374
 30
0.0
 10
149.6441132963
 20
218.2958473935
 30
0.0
 10
150.104903489
 20
218.5618831472
 30
0.0
  0
SPLINE
  5
29E
100
AcDbEntity
  8
0
100
AcDbSpline
 62
7
  6
CONTINUOUS
 70
0
 71
3
 72
16
 73
12
 74
0
 42
0.0000001
 43
0.0000001
 44
0.0000000001
 40
0.0
 40
0.0
 40
0.0
 40
0.0
 40
0.1287443602
 40
0.2703971121
 40
0.4176139114
 40
0.5620190713
 40
0.6957499754
 40
0.8130650626
 40
0.9124721117
 40
0.9571211941
 40
1.0
 40
1.0
 40
1.0
 40
1.0
 10
62.7769466402
 20
255.9158577962
 30
0.0
 10
63.1470630846
 20
256.1295433495
 30
0.0
 10
63.9850782878
 20
256.475298514
 30
0.0
 10
65.350830614
 20
256.748584439
 30
0.0
 10
66.7954735742
 20
256.7884723228
 30
0.0
 10
68.2006118385
 20
256.5913471089
 30
0.0
 10
69.4540092838
 20
256.1718296009
 30
0.0
 10
70.4582704626
 20
255.5623520682
 30
0.0
 10
71.0433049845
 20
254.8905299693
 30
0.0
 10
71.2743586509
 20
254.3087906153
 30
0.0
 10
71.312446996
 20
254.0169925829
 30
0.0
 10
71.3123904568
 20
253.874654361
 30
0.0
  0
SPLINE
  5
29F
100
AcDbEntity
  8
0
100
AcDbSpline
 62
7
  6
CONTINUOUS
 70
0
 71
3
 72
11
 73
7
 74
0
 42
0.0000001
 43
0.0000001
 44
0.0000000001
 40
0.0
 40
0.0
 40
0.0
 40
0.0
 40
0.2177723615
 40
0.4509308696
 40
0.7102274951
 40
1.0
 40
1.0
 40
1.0
 40
1.0
 10
161.9397857674
 20
180.5953910019
 30
0.0
 10
161.9397750847
 20
181.0333867969
 30
0.0
 10
162.1015362779
 20
181.9464232367
 30
0.0
 10
162.7937082086
 20
183.2182871573
 30
0.0
 10
163.8876201954
 20
184.368394162
 30
0.0
 10
164.803213266
 20
184.9987577487
 30
0.0
 10
165.3079392176
 20
185.2901596733
 30
0.0
  0
SPLINE
  5
2A0
100
AcDbEntity
  8
0
100
AcDbSpline
 62
7
  6
CONTINUOUS
 70
0
 71
3
 72
16
 73
12
 74
0
 42
0.0000001
 43
0.0000001
 44
0.0000000001
 40
0.0
 40
0.0
 40
0.0
 40
0.0
 40
0.1287443602
 40
0.2703971121
 40
0.4176139114
 40
0.5620190713
 40
0.6957499754
 40
0.8130650626
 40
0.9124721117
 40
0.9571211941
 40
1.0
 40
1.0
 40
1.0
 40
1.0
 10
71.2624753076
 20
221.6235120398
 30
0.0
 10
71.632591752
 20
221.8371975931
 30
0.0
 10
72.4706069552
 20
222.1829527576
 30
0.0
 10
73.8363592814
 20
222.4562386826
 30
0.0
 10
75.2810022416
 20
222.4961265664
 30
0.0
 10
76.6861405059
 20
222.2990013526
 30
0.0
 10
77.9395379512
 20
221.8794838446
 30
0.0
 10
78.94379913
 20
221.2700063118
 30
0.0
 10
79.5288336518
 20
220.598184213
 30
0.0
 10
79.7598873182
 20
220.016444859
 30
0.0
 10
79.7979756633
 20
219.7246468266
 30
0.0
 10
79.7979191242
 20
219.5823086047
 30
0.0
  0
SPLINE
  5
2A1
100
AcDbEntity
  8
0
100
AcDbSpline
 62
7
  6
CONTINUOUS
 70
0
 71
3
 72
16
 73
12
 74
0
 42
0.0000001
 43
0.0000001
 44
0.0000000001
 40
0.0
 40
0.0
 40
0.0
 40
0.0
 40
0.1287443602
 40
0.2703971121
 40
0.4176139114
 40
0.5620190713
 40
0.6957499754
 40
0.8130650626
 40
0.9124721117
 40
0.9571211941
 40
1.0
 40
1.0
 40
1.0
 40
1.0
 10
163.1867395767
 20
168.5522139522
 30
0.0
 10
163.5568560211
 20
168.7658995055
 30
0.0
 10
164.3948712243
 20
169.11165467
 30
0.0
 10
165.7606235505
 20
169.384940595
 30
0.0
 10
167.2052665107
 20
169.4248284788
 30
0.0
 10
168.610404775
 20
169.2277032649
 30
0.0
 10
169.8638022203
 20
168.808185757
 30
0.0
 10
170.8680633991
 20
168.1987082242
 30
0.0
 10
171.4530979209
 20
167.5268861253
 30
0.0
 10
171.6841515873
 20
166.9451467713
 30
0.0
 10
171.7222399324
 20
166.6533487389
 30
0.0
 10
171.7221833933
 20
166.511010517
 30
0.0
  0
SPLINE
  5
2A2
100
AcDbEntity
  8
0
100
AcDbSpline
 62
7
  6
CONTINUOUS
 70
0
 71
3
 72
11
 73
7
 74
0
 42
0.0000001
 43
0.0000001
 44
0.0000000001
 40
0.0
 40
0.0
 40
0.0
 40
0.0
 40
0.2177678453
 40
0.45093877
 40
0.7102087945
 40
1.0
 40
1.0
 40
1.0
 40
1.0
 10
193.5880525956
 20
172.0223827399
 30
0.0
 10
193.5881073265
 20
172.5746300744
 30
0.0
 10
193.7918873128
 20
173.7259001078
 30
0.0
 10
194.6648083278
 20
175.3294451352
 30
0.0
 10
196.0439776061
 20
176.7796805946
 30
0.0
 10
197.1984657691
 20
177.5744280095
 30
0.0
 10
197.8349041433
 20
177.9418736828
 30
0.0
  0
SPLINE
  5
2A3
100
AcDbEntity
  8
0
100
AcDbSpline
 62
7
  6
CONTINUOUS
 70
0
 71
3
 72
16
 73
12
 74
0
 42
0.0000001
 43
0.0000001
 44
0.0000000001
 40
0.0
 40
0.0
 40
0.0
 40
0.0
 40
0.1287443602
 40
0.2703971121
 40
0.4176139114
 40
0.5620190713
 40
0.6957499754
 40
0.8130650626
 40
0.9124721117
 40
0.9571211941
 40
1.0
 40
1.0
 40
1.0
 40
1.0
 10
222.5837445234
 20
163.6534472746
 30
0.0
 10
222.9538609678
 20
163.8671328279
 30
0.0
 10
223.791876171
 20
164.2128879924
 30
0.0
 10
225.1576284973
 20
164.4861739174
 30
0.0
 10
226.6022714575
 20
164.5260618012
 30
0.0
 10
228.0074097217
 20
164.3289365873
 30
0.0
 10
229.2608071671
 20
163.9094190794
 30
0.0
 10
230.2650683458
 20
163.2999415466
 30
0.0
 10
230.8501028677
 20
162.6281194477
 30
0.0
 10
231.0811565341
 20
162.0463800937
 30
0.0
 10
231.1192448792
 20
161.7545820613
 30
0.0
 10
231.11918834
 20
161.6122438394
 30
0.0
  0
SPLINE
  5
2A4
100
AcDbEntity
  8
0
100
AcDbSpline
 62
7
  6
CONTINUOUS
 70
0
 71
3
 72
16
 73
12
 74
0
 42
0.0000001
 43
0.0000001
 44
0.0000000001
 40
0.0
 40
0.0
 40
0.0
 40
0.0
 40
0.1287443602
 40
0.2703971121
 40
0.4176139114
 40
0.5620190713
 40
0.6957499754
 40
0.8130650626
 40
0.9124721117
 40
0.9571211941
 40
1.0
 40
1.0
 40
1.0
 40
1.0
 10
214.0982158561
 20
197.9457930309
 30
0.0
 10
214.4683323005
 20
198.1594785842
 30
0.0
 10
215.3063475037
 20
198.5052337487
 30
0.0
 10
216.6720998299
 20
198.7785196738
 30
0.0
 10
218.1167427901
 20
198.8184075575
 30
0.0
 10
219.5218810544
 20
198.6212823437
 30
0.0
 10
220.7752784997
 20
198.2017648357
 30
0.0
 10
221.7795396785
 20
197.5922873029
 30
0.0
 10
222.3645742003
 20
196.9204652041
 30
0.0
 10
222.5956278667
 20
196.3387258501
 30
0.0
 10
222.6337162118
 20
196.0469278177
 30
0.0
 10
222.6336596727
 20
195.9045895958
 30
0.0
  0
SPLINE
  5
2A5
100
AcDbEntity
  8
0
100
AcDbSpline
 62
7
  6
CONTINUOUS
 70
0
 71
3
 72
17
 73
13
 74
0
 42
0.0000001
 43
0.0000001
 44
0.0000000001
 40
0.0
 40
0.0
 40
0.0
 40
0.0
 40
0.1286934564
 40
0.2702758984
 40
0.417429886
 40
0.5617751843
 40
0.6954482332
 40
0.8127138625
 40
0.864680393
 40
0.9125125079
 40
0.9571413877
 40
1.0
 40
1.0
 40
1.0
 40
1.0
 10
150.104903489
 20
218.5618831472
 30
0.0
 10
150.8821827454
 20
219.0106428564
 30
0.0
 10
152.6419939198
 20
219.736744433
 30
0.0
 10
155.5101362718
 20
220.3104696848
 30
0.0
 10
158.5436866299
 20
220.3945472575
 30
0.0
 10
161.4951580316
 20
219.9798674492
 30
0.0
 10
164.125283118
 20
219.10140939
 30
0.0
 10
165.9543441357
 20
217.9877957215
 30
0.0
 10
167.0280493838
 20
216.9106185775
 30
0.0
 10
167.5980702223
 20
216.0716791912
 30
0.0
 10
167.9496885402
 20
215.187026865
 30
0.0
 10
168.0294629756
 20
214.5742562778
 30
0.0
 10
168.0295083584
 20
214.2753552335
 30
0.0
  0
SPLINE
  5
2A6
100
AcDbEntity
  8
0
100
AcDbSpline
 62
7
  6
CONTINUOUS
 70
0
 71
3
 72
17
 73
13
 74
0
 42
0.0000001
 43
0.0000001
 44
0.0000000001
 40
0.0
 40
0.0
 40
0.0
 40
0.0
 40
0.1286934564
 40
0.2702758984
 40
0.417429886
 40
0.5617751843
 40
0.6954482332
 40
0.8127138625
 40
0.864680393
 40
0.9125125079
 40
0.9571413877
 40
1.0
 40
1.0
 40
1.0
 40
1.0
 10
129.2451665971
 20
230.6049854055
 30
0.0
 10
130.0224458536
 20
231.0537451148
 30
0.0
 10
131.782257028
 20
231.7798466914
 30
0.0
 10
134.6503993799
 20
232.3535719432
 30
0.0
 10
137.683949738
 20
232.4376495158
 30
0.0
 10
140.6354211398
 20
232.0229697076
 30
0.0
 10
143.2655462261
 20
231.1445116484
 30
0.0
 10
145.0946072438
 20
230.0308979798
 30
0.0
 10
146.1683124919
 20
228.9537208359
 30
0.0
 10
146.7383333304
 20
228.1147814496
 30
0.0
 10
147.0899516484
 20
227.2301291234
 30
0.0
 10
147.1697260838
 20
226.6173585362
 30
0.0
 10
147.1697714665
 20
226.3184574919
 30
0.0
  0
SPLINE
  5
2A7
100
AcDbEntity
  8
0
100
AcDbSpline
 62
7
  6
CONTINUOUS
 70
0
 71
3
 72
17
 73
13
 74
0
 42
0.0000001
 43
0.0000001
 44
0.0000000001
 40
0.0
 40
0.0
 40
0.0
 40
0.0
 40
0.1286907985
 40
0.2702752835
 40
0.4174292018
 40
0.5617757619
 40
0.6954481144
 40
0.812714856
 40
0.8646782544
 40
0.9125122786
 40
0.957141704
 40
1.0
 40
1.0
 40
1.0
 40
1.0
 10
115.8102584573
 20
213.8670124897
 30
0.0
 10
116.6615464203
 20
214.3585008904
 30
0.0
 10
118.5889509999
 20
215.153750097
 30
0.0
 10
121.7302316784
 20
215.7821818401
 30
0.0
 10
125.0527154189
 20
215.874255837
 30
0.0
 10
128.2852937694
 20
215.420022443
 30
0.0
 10
131.1658320267
 20
214.457814023
 30
0.0
 10
133.1692972822
 20
213.2383990809
 30
0.0
 10
134.3449869329
 20
212.0583948236
 30
0.0
 10
134.9695391378
 20
211.1397229977
 30
0.0
 10
135.3544699498
 20
210.1707249575
 30
0.0
 10
135.4419276015
 20
209.4996090875
 30
0.0
 10
135.4419355859
 20
209.1722438071
 30
0.0
  0
SPLINE
  5
2A8
100
AcDbEntity
  8
0
100
AcDbSpline
 62
7
  6
CONTINUOUS
 70
0
 71
3
 72
11
 73
7
 74
0
 42
0.0000001
 43
0.0000001
 44
0.0000000001
 40
0.0
 40
0.0
 40
0.0
 40
0.0
 40
0.2419501527
 40
0.5013475115
 40
0.7599760355
 40
1.0
 40
1.0
 40
1.0
 40
1.0
 10
220.6478921924
 20
193.717024637
 30
0.0
 10
220.1832886839
 20
193.9196855697
 30
0.0
 10
219.1645526184
 20
194.2149108438
 30
0.0
 10
217.5694897727
 20
194.3504291969
 30
0.0
 10
215.9805602867
 20
194.1917775446
 30
0.0
 10
214.9721912821
 20
193.8805026283
 30
0.0
 10
214.5154308873
 20
193.6702093928
 30
0.0
  0
SPLINE
  5
2A9
100
AcDbEntity
  8
0
100
AcDbSpline
 62
7
  6
CONTINUOUS
 70
0
 71
3
 72
17
 73
13
 74
0
 42
0.0000001
 43
0.0000001
 44
0.0000000001
 40
0.0
 40
0.0
 40
0.0
 40
0.0
 40
0.1286889034
 40
0.2702752876
 40
0.4174285609
 40
0.5617765967
 40
0.695449543
 40
0.8127138093
 40
0.8646789339
 40
0.9125126956
 40
0.9571412133
 40
1.0
 40
1.0
 40
1.0
 40
1.0
 10
74.0907022426
 20
249.3840057239
 30
0.0
 10
75.1640506359
 20
250.0037000086
 30
0.0
 10
77.5942650734
 20
251.0063763876
 30
0.0
 10
81.5549845354
 20
251.7988768254
 30
0.0
 10
85.7442504966
 20
251.914834361
 30
0.0
 10
89.8200984526
 20
251.3421132659
 30
0.0
 10
93.4521861767
 20
250.129067419
 30
0.0
 10
95.9780998082
 20
248.5912824706
 30
0.0
 10
97.4606634299
 20
247.1036463152
 30
0.0
 10
98.2481147906
 20
245.9452591776
 30
0.0
 10
98.7332778278
 20
244.7234488258
 30
0.0
 10
98.8437767274
 20
243.8772848574
 30
0.0
 10
98.8437358196
 20
243.4645147857
 30
0.0
  0
SPLINE
  5
2AA
100
AcDbEntity
  8
0
100
AcDbSpline
 62
7
  6
CONTINUOUS
 70
0
 71
3
 72
17
 73
13
 74
0
 42
0.0000001
 43
0.0000001
 44
0.0000000001
 40
0.0
 40
0.0
 40
0.0
 40
0.0
 40
0.0430007582
 40
0.0883022487
 40
0.1370865703
 40
0.1900469035
 40
0.3088664155
 40
0.4430033473
 40
0.5867355125
 40
0.7325548118
 40
0.8725865947
 40
1.0
 40
1.0
 40
1.0
 40
1.0
 10
160.1693790591
 20
194.8807391569
 30
0.0
 10
160.1354363353
 20
195.201644411
 30
0.0
 10
159.9813865271
 20
195.854015716
 30
0.0
 10
159.5178094873
 20
196.7809281789
 30
0.0
 10
158.8324075179
 20
197.6540684696
 30
0.0
 10
157.5984982786
 20
198.7670286849
 30
0.0
 10
155.5732389206
 20
199.9049477561
 30
0.0
 10
152.7139907899
 20
200.7895581245
 30
0.0
 10
149.5438057647
 20
201.1854714757
 30
0.0
 10
146.3078184349
 20
201.0609306557
 30
0.0
 10
143.2574387762
 20
200.4276408927
 30
0.0
 10
141.3871611149
 20
199.6484139979
 30
0.0
 10
140.5590988375
 20
199.1703348729
 30
0.0
  0
SPLINE
  5
2AB
100
AcDbEntity
  8
0
100
AcDbSpline
 62
7
  6
CONTINUOUS
 70
0
 71
3
 72
17
 73
13
 74
0
 42
0.0000001
 43
0.0000001
 44
0.0000000001
 40
0.0
 40
0.0
 40
0.0
 40
0.0
 40
0.1286934564
 40
0.2702758984
 40
0.417429886
 40
0.5617751843
 40
0.6954482332
 40
0.8127138625
 40
0.864680393
 40
0.9125125079
 40
0.9571413877
 40
1.0
 40
1.0
 40
1.0
 40
1.0
 10
170.9646403808
 20
206.5187808888
 30
0.0
 10
171.7419196372
 20
206.9675405981
 30
0.0
 10
173.5017308117
 20
207.6936421747
 30
0.0
 10
176.3698731636
 20
208.2673674265
 30
0.0
 10
179.4034235217
 20
208.3514449991
 30
0.0
 10
182.3548949235
 20
207.9367651909
 30
0.0
 10
184.9850200098
 20
207.0583071317
 30
0.0
 10
186.8140810275
 20
205.9446934631
 30
0.0
 10
187.8877862756
 20
204.8675163192
 30
0.0
 10
188.4578071141
 20
204.0285769329
 30
0.0
 10
188.8094254321
 20
203.1439246067
 30
0.0
 10
188.8891998674
 20
202.5311540195
 30
0.0
 10
188.8892452502
 20
202.2322529752
 30
0.0
  0
SPLINE
  5
2AC
100
AcDbEntity
  8
0
100
AcDbSpline
 62
7
  6
CONTINUOUS
 70
0
 71
3
 72
11
 73
7
 74
0
 42
0.0000001
 43
0.0000001
 44
0.0000000001
 40
0.0
 40
0.0
 40
0.0
 40
0.0
 40
0.2177648073
 40
0.4508950352
 40
0.7103684932
 40
1.0
 40
1.0
 40
1.0
 40
1.0
 10
212.633869291
 20
195.9045889209
 30
0.0
 10
212.6339449307
 20
196.0950131141
 30
0.0
 10
212.7040175971
 20
196.4919670171
 30
0.0
 10
213.0051042097
 20
197.0450754138
 30
0.0
 10
213.4808871074
 20
197.5449270315
 30
0.0
 10
213.8788790341
 20
197.8191596136
 30
0.0
 10
214.0982158561
 20
197.9457930309
 30
0.0
  0
SPLINE
  5
2AD
100
AcDbEntity
  8
0
100
AcDbSpline
 62
7
  6
CONTINUOUS
 70
0
 71
3
 72
17
 73
13
 74
0
 42
0.0000001
 43
0.0000001
 44
0.0000000001
 40
0.0
 40
0.0
 40
0.0
 40
0.0
 40
0.1286907985
 40
0.2702752835
 40
0.4174292018
 40
0.5617757619
 40
0.6954481144
 40
0.812714856
 40
0.8646782544
 40
0.9125122786
 40
0.957141704
 40
1.0
 40
1.0
 40
1.0
 40
1.0
 10
140.5590988375
 20
199.5785860815
 30
0.0
 10
141.4103868004
 20
200.0700744822
 30
0.0
 10
143.3377913801
 20
200.8653236888
 30
0.0
 10
146.4790720586
 20
201.4937554318
 30
0.0
 10
149.8015557991
 20
201.5858294288
 30
0.0
 10
153.0341341495
 20
201.1315960348
 30
0.0
 10
155.9146724068
 20
200.1693876147
 30
0.0
 10
157.9181376623
 20
198.9499726727
 30
0.0
 10
159.093827313
 20
197.7699684154
 30
0.0
 10
159.7183795179
 20
196.8512965894
 30
0.0
 10
160.10331033
 20
195.8822985493
 30
0.0
 10
160.1907679817
 20
195.2111826793
 30
0.0
 10
160.1907759661
 20
194.8838173989
 30
0.0
  0
SPLINE
  5
2AE
100
AcDbEntity
  8
0
100
AcDbSpline
 62
7
  6
CONTINUOUS
 70
0
 71
3
 72
17
 73
13
 74
0
 42
0.0000001
 43
0.0000001
 44
0.0000000001
 40
0.0
 40
0.0
 40
0.0
 40
0.0
 40
0.0430007582
 40
0.0883022487
 40
0.1370865703
 40
0.1900469035
 40
0.3088664155
 40
0.4430033473
 40
0.5867355125
 40
0.7325548118
 40
0.8725865947
 40
1.0
 40
1.0
 40
1.0
 40
1.0
 10
110.6716982989
 20
223.4575919733
 30
0.0
 10
110.637755575
 20
223.7784972274
 30
0.0
 10
110.4837057668
 20
224.4308685325
 30
0.0
 10
110.020128727
 20
225.3577809953
 30
0.0
 10
109.3347267576
 20
226.230921286
 30
0.0
 10
108.1008175183
 20
227.3438815013
 30
0.0
 10
106.0755581603
 20
228.4818005725
 30
0.0
 10
103.2163100296
 20
229.3664109409
 30
0.0
 10
100.0461250044
 20
229.7623242921
 30
0.0
 10
96.8101376746
 20
229.6377834721
 30
0.0
 10
93.7597580159
 20
229.0044937091
 30
0.0
 10
91.8894803546
 20
228.2252668144
 30
0.0
 10
91.0614180772
 20
227.7471876893
 30
0.0
  0
SPLINE
  5
2AF
100
AcDbEntity
  8
0
100
AcDbSpline
 62
7
  6
CONTINUOUS
 70
0
 71
3
 72
17
 73
13
 74
0
 42
0.0000001
 43
0.0000001
 44
0.0000000001
 40
0.0
 40
0.0
 40
0.0
 40
0.0
 40
0.1286889034
 40
0.2702752876
 40
0.4174285609
 40
0.5617765967
 40
0.695449543
 40
0.8127138093
 40
0.8646789339
 40
0.9125126956
 40
0.9571412133
 40
1.0
 40
1.0
 40
1.0
 40
1.0
 10
197.8349041433
 20
177.9418736828
 30
0.0
 10
198.9082525367
 20
178.5615679676
 30
0.0
 10
201.3384669741
 20
179.5642443465
 30
0.0
 10
205.2991864361
 20
180.3567447843
 30
0.0
 10
209.4884523973
 20
180.4727023199
 30
0.0
 10
213.5643003533
 20
179.8999812249
 30
0.0
 10
217.1963880774
 20
178.6869353779
 30
0.0
 10
219.7223017089
 20
177.1491504296
 30
0.0
 10
221.2048653306
 20
175.6615142741
 30
0.0
 10
221.9923166913
 20
174.5031271366
 30
0.0
 10
222.4774797286
 20
173.2813167848
 30
0.0
 10
222.5879786282
 20
172.4351528164
 30
0.0
 10
222.5879377203
 20
172.0223827446
 30
0.0
  0
SPLINE
  5
2B0
100
AcDbEntity
  8
0
100
AcDbSpline
 62
7
  6
CONTINUOUS
 70
0
 71
3
 72
18
 73
14
 74
0
 42
0.0000001
 43
0.0000001
 44
0.0000000001
 40
0.0
 40
0.0
 40
0.0
 40
0.0
 40
0.0430520144
 40
0.0884990637
 40
0.1374683058
 40
0.1906144298
 40
0.3097067078
 40
0.4439015112
 40
0.5150277849
 40
0.5876119297
 40
0.7331480329
 40
0.8728555253
 40
1.0
 40
1.0
 40
1.0
 40
1.0
 10
208.0165206949
 20
190.5892246064
 30
0.0
 10
207.9830999153
 20
190.8531077689
 30
0.0
 10
207.8456908475
 20
191.3887202264
 30
0.0
 10
207.4504708124
 20
192.1473809096
 30
0.0
 10
206.8751296361
 20
192.861289434
 30
0.0
 10
205.8472373416
 20
193.7699024262
 30
0.0
 10
204.1715063544
 20
194.6968030218
 30
0.0
 10
202.2433015294
 20
195.2842280664
 30
0.0
 10
200.5483015293
 20
195.569114146
 30
0.0
 10
198.765446733
 20
195.7152166045
 30
0.0
 10
196.5454423876
 20
195.6250948118
 30
0.0
 10
194.0405612449
 20
195.101306783
 30
0.0
 10
192.5046803261
 20
194.4601982285
 30
0.0
 10
191.8243772726
 20
194.0674274219
 30
0.0
  0
SPLINE
  5
2B1
100
AcDbEntity
  8
0
100
AcDbSpline
 62
7
  6
CONTINUOUS
 70
0
 71
3
 72
17
 73
13
 74
0
 42
0.0000001
 43
0.0000001
 44
0.0000000001
 40
0.0
 40
0.0
 40
0.0
 40
0.0
 40
0.1286907985
 40
0.2702752835
 40
0.4174292018
 40
0.5617757619
 40
0.6954481144
 40
0.812714856
 40
0.8646782544
 40
0.9125122786
 40
0.957141704
 40
1.0
 40
1.0
 40
1.0
 40
1.0
 10
91.0614180772
 20
228.1554388979
 30
0.0
 10
91.9127060401
 20
228.6469272987
 30
0.0
 10
93.8401106198
 20
229.4421765052
 30
0.0
 10
96.9813912983
 20
230.0706082483
 30
0.0
 10
100.3038750388
 20
230.1626822452
 30
0.0
 10
103.5364533892
 20
229.7084488513
 30
0.0
 10
106.4169916465
 20
228.7462404312
 30
0.0
 10
108.420456902
 20
227.5268254891
 30
0.0
 10
109.5961465527
 20
226.3468212318
 30
0.0
 10
110.2206987576
 20
225.4281494059
 30
0.0
 10
110.6056295697
 20
224.4591513657
 30
0.0
 10
110.6930872214
 20
223.7880354957
 30
0.0
 10
110.6930952058
 20
223.4606702153
 30
0.0
  0
SPLINE
  5
2B2
100
AcDbEntity
  8
0
100
AcDbSpline
 62
7
  6
CONTINUOUS
 70
0
 71
3
 72
17
 73
13
 74
0
 42
0.0000001
 43
0.0000001
 44
0.0000000001
 40
0.0
 40
0.0
 40
0.0
 40
0.0
 40
0.1286907985
 40
0.2702752835
 40
0.4174292018
 40
0.5617757619
 40
0.6954481144
 40
0.812714856
 40
0.8646782544
 40
0.9125122786
 40
0.957141704
 40
1.0
 40
1.0
 40
1.0
 40
1.0
 10
165.3079392176
 20
185.2901596733
 30
0.0
 10
166.1592271805
 20
185.781648074
 30
0.0
 10
168.0866317602
 20
186.5768972806
 30
0.0
 10
171.2279124387
 20
187.2053290236
 30
0.0
 10
174.5503961792
 20
187.2974030206
 30
0.0
 10
177.7829745297
 20
186.8431696266
 30
0.0
 10
180.6635127869
 20
185.8809612065
 30
0.0
 10
182.6669780424
 20
184.6615462645
 30
0.0
 10
183.8426676932
 20
183.4815420072
 30
0.0
 10
184.4672198981
 20
182.5628701812
 30
0.0
 10
184.8521507101
 20
181.5938721411
 30
0.0
 10
184.9396083618
 20
180.9227562711
 30
0.0
 10
184.9396163462
 20
180.5953909907
 30
0.0
  0
SPLINE
  5
2B3
100
AcDbEntity
  8
0
100
AcDbSpline
 62
7
  6
CONTINUOUS
 70
0
 71
3
 72
11
 73
7
 74
0
 42
0.0000001
 43
0.0000001
 44
0.0000000001
 40
0.0
 40
0.0
 40
0.0
 40
0.0
 40
0.2419501527
 40
0.5013475115
 40
0.7599760355
 40
1.0
 40
1.0
 40
1.0
 40
1.0
 10
229.1334208598
 20
159.4246788807
 30
0.0
 10
228.6688173513
 20
159.6273398134
 30
0.0
 10
227.6500812858
 20
159.9225650875
 30
0.0
 10
226.05501844
 20
160.0580834406
 30
0.0
 10
224.466088954
 20
159.8994317882
 30
0.0
 10
223.4577199495
 20
159.588156872
 30
0.0
 10
223.0009595546
 20
159.3778636365
 30
0.0
  0
SPLINE
  5
2B4
100
AcDbEntity
  8
0
100
AcDbSpline
 62
7
  6
CONTINUOUS
 70
0
 71
3
 72
17
 73
13
 74
0
 42
0.0000001
 43
0.0000001
 44
0.0000000001
 40
0.0
 40
0.0
 40
0.0
 40
0.0
 40
0.1286921823
 40
0.2702767659
 40
0.417433719
 40
0.5617793894
 40
0.6954504977
 40
0.8127129547
 40
0.8646788004
 40
0.9125109492
 40
0.9571403986
 40
1.0
 40
1.0
 40
1.0
 40
1.0
 10
109.7996491556
 20
241.8316061548
 30
0.0
 10
110.5028938322
 20
242.2376222346
 30
0.0
 10
112.0950999315
 20
242.8945868435
 30
0.0
 10
114.6901088168
 20
243.4136738941
 30
0.0
 10
117.4347820076
 20
243.489718703
 30
0.0
 10
120.1051604515
 20
243.1145075308
 30
0.0
 10
122.4847690574
 20
242.3197347596
 30
0.0
 10
124.1395971266
 20
241.3121945311
 30
0.0
 10
125.1110236618
 20
240.3376219802
 30
0.0
 10
125.6267543922
 20
239.5785820432
 30
0.0
 10
125.9448913175
 20
238.7781767991
 30
0.0
 10
126.0170868351
 20
238.2237591198
 30
0.0
 10
126.0171347318
 20
237.9533189945
 30
0.0
  0
SPLINE
  5
2B5
100
AcDbEntity
  8
0
100
AcDbSpline
 62
7
  6
CONTINUOUS
 70
0
 71
3
 72
11
 73
7
 74
0
 42
0.0000001
 43
0.0000001
 44
0.0000000001
 40
0.0
 40
0.0
 40
0.0
 40
0.0
 40
0.2177723615
 40
0.4509308696
 40
0.7102274951
 40
1.0
 40
1.0
 40
1.0
 40
1.0
 10
137.1909453872
 20
194.8838174101
 30
0.0
 10
137.1909347046
 20
195.3218132051
 30
0.0
 10
137.3526958977
 20
196.2348496449
 30
0.0
 10
138.0448678285
 20
197.5067135655
 30
0.0
 10
139.1387798153
 20
198.6568205702
 30
0.0
 10
140.0543728859
 20
199.2871841569
 30
0.0
 10
140.5590988375
 20
199.5785860815
 30
0.0
  0
SPLINE
  5
2B6
100
AcDbEntity
  8
0
100
AcDbSpline
 62
7
  6
CONTINUOUS
 70
0
 71
3
 72
17
 73
13
 74
0
 42
0.0000001
 43
0.0000001
 44
0.0000000001
 40
0.0
 40
0.0
 40
0.0
 40
0.0
 40
0.1286921823
 40
0.2702767659
 40
0.417433719
 40
0.5617793894
 40
0.6954504977
 40
0.8127129547
 40
0.8646788004
 40
0.9125109492
 40
0.9571403986
 40
1.0
 40
1.0
 40
1.0
 40
1.0
 10
191.8243772726
 20
194.4756786305
 30
0.0
 10
192.5276219492
 20
194.8816947102
 30
0.0
 10
194.1198280486
 20
195.5386593191
 30
0.0
 10
196.7148369338
 20
196.0577463698
 30
0.0
 10
199.4595101247
 20
196.1337911786
 30
0.0
 10
202.1298885686
 20
195.7585800064
 30
0.0
 10
204.5094971744
 20
194.9638072353
 30
0.0
 10
206.1643252437
 20
193.9562670068
 30
0.0
 10
207.1357517788
 20
192.9816944558
 30
0.0
 10
207.6514825092
 20
192.2226545189
 30
0.0
 10
207.9696194345
 20
191.4222492747
 30
0.0
 10
208.0418149521
 20
190.8678315955
 30
0.0
 10
208.0418628489
 20
190.5973914702
 30
0.0
  0
SPLINE
  5
2B7
100
AcDbEntity
  8
0
100
AcDbSpline
 62
7
  6
CONTINUOUS
 70
0
 71
3
 72
11
 73
7
 74
0
 42
0.0000001
 43
0.0000001
 44
0.0000000001
 40
0.0
 40
0.0
 40
0.0
 40
0.0
 40
0.2177648073
 40
0.4508950352
 40
0.7103684932
 40
1.0
 40
1.0
 40
1.0
 40
1.0
 10
221.1193979583
 20
161.6122431645
 30
0.0
 10
221.1194735981
 20
161.8026673577
 30
0.0
 10
221.1895462644
 20
162.1996212607
 30
0.0
 10
221.490632877
 20
162.7527296574
 30
0.0
 10
221.9664157748
 20
163.2525812751
 30
0.0
 10
222.3644077015
 20
163.5268138573
 30
0.0
 10
222.5837445234
 20
163.6534472746
 30
0.0
  0
SPLINE
  5
2B8
100
AcDbEntity
  8
0
100
AcDbSpline
 62
7
  6
CONTINUOUS
 70
0
 71
3
 72
17
 73
13
 74
0
 42
0.0000001
 43
0.0000001
 44
0.0000000001
 40
0.0
 40
0.0
 40
0.0
 40
0.0
 40
0.0430220317
 40
0.0883868363
 40
0.1372500185
 40
0.1902913509
 40
0.3092337115
 40
0.4434042102
 40
0.5870794285
 40
0.7327873812
 40
0.8726901451
 40
1.0
 40
1.0
 40
1.0
 40
1.0
 10
188.8663064226
 20
202.2241538827
 30
0.0
 10
188.8328079071
 20
202.5165906208
 30
0.0
 10
188.6875955831
 20
203.1107549149
 30
0.0
 10
188.2584872332
 20
203.9537463976
 30
0.0
 10
187.6285039324
 20
204.7475913012
 30
0.0
 10
186.4978991704
 20
205.7588095284
 30
0.0
 10
184.6473775331
 20
206.7917585338
 30
0.0
 10
182.0385430472
 20
207.5936421398
 30
0.0
 10
179.1488185016
 20
207.9508801409
 30
0.0
 10
176.2007402778
 20
207.8348117767
 30
0.0
 10
173.4223802956
 20
207.2563038114
 30
0.0
 10
171.7189768568
 20
206.5460434481
 30
0.0
 10
170.9646403808
 20
206.1105296803
 30
0.0
  0
SPLINE
  5
2B9
100
AcDbEntity
  8
0
100
AcDbSpline
 62
7
  6
CONTINUOUS
 70
0
 71
3
 72
11
 73
7
 74
0
 42
0.0000001
 43
0.0000001
 44
0.0000000001
 40
0.0
 40
0.0
 40
0.0
 40
0.0
 40
0.2177723615
 40
0.4509308696
 40
0.7102274951
 40
1.0
 40
1.0
 40
1.0
 40
1.0
 10
87.693264627
 20
223.4606702265
 30
0.0
 10
87.6932539443
 20
223.8986660215
 30
0.0
 10
87.8550151374
 20
224.8117024613
 30
0.0
 10
88.5471870682
 20
226.0835663819
 30
0.0
 10
89.641099055
 20
227.2336733866
 30
0.0
 10
90.5566921256
 20
227.8640369733
 30
0.0
 10
91.0614180772
 20
228.1554388979
 30
0.0
  0
SPLINE
  5
2BA
100
AcDbEntity
  8
0
100
AcDbSpline
 62
7
  6
CONTINUOUS
 70
0
 71
3
 72
11
 73
7
 74
0
 42
0.0000001
 43
0.0000001
 44
0.0000000001
 40
0.0
 40
0.0
 40
0.0
 40
0.0
 40
0.2419501527
 40
0.5013475115
 40
0.7599760355
 40
1.0
 40
1.0
 40
1.0
 40
1.0
 10
169.736415913
 20
164.3234455583
 30
0.0
 10
169.2718124046
 20
164.526106491
 30
0.0
 10
168.253076339
 20
164.8213317651
 30
0.0
 10
166.6580134933
 20
164.9568501182
 30
0.0
 10
165.0690840073
 20
164.7981984658
 30
0.0
 10
164.0607150027
 20
164.4869235496
 30
0.0
 10
163.6039546079
 20
164.2766303141
 30
0.0
  0
SPLINE
  5
2BB
100
AcDbEntity
  8
0
100
AcDbSpline
 62
7
  6
CONTINUOUS
 70
0
 71
3
 72
11
 73
7
 74
0
 42
0.0000001
 43
0.0000001
 44
0.0000000001
 40
0.0
 40
0.0
 40
0.0
 40
0.0
 40
0.2177796549
 40
0.4509239625
 40
0.7102593694
 40
1.0
 40
1.0
 40
1.0
 40
1.0
 10
189.0419764741
 20
190.5973914549
 30
0.0
 10
189.041912391
 20
190.9592245534
 30
0.0
 10
189.1757205056
 20
191.7134353308
 30
0.0
 10
189.7473985902
 20
192.7641932109
 30
0.0
 10
190.6511645797
 20
193.7141901828
 30
0.0
 10
191.4074774855
 20
194.2349828629
 30
0.0
 10
191.8243772726
 20
194.4756786305
 30
0.0
  0
SPLINE
  5
2BC
100
AcDbEntity
  8
0
100
AcDbSpline
 62
7
  6
CONTINUOUS
 70
0
 71
3
 72
11
 73
7
 74
0
 42
0.0000001
 43
0.0000001
 44
0.0000000001
 40
0.0
 40
0.0
 40
0.0
 40
0.0
 40
0.2177648073
 40
0.4508950352
 40
0.7103684932
 40
1.0
 40
1.0
 40
1.0
 40
1.0
 10
161.7223930116
 20
166.5110098421
 30
0.0
 10
161.7224686513
 20
166.7014340353
 30
0.0
 10
161.7925413177
 20
167.0983879383
 30
0.0
 10
162.0936279303
 20
167.651496335
 30
0.0
 10
162.569410828
 20
168.1513479527
 30
0.0
 10
162.9674027547
 20
168.4255805349
 30
0.0
 10
163.1867395767
 20
168.5522139522
 30
0.0
  0
SPLINE
  5
2BD
100
AcDbEntity
  8
0
100
AcDbSpline
 62
7
  6
CONTINUOUS
 70
0
 71
3
 72
18
 73
14
 74
0
 42
0.0000001
 43
0.0000001
 44
0.0000000001
 40
0.0
 40
0.0
 40
0.0
 40
0.0
 40
0.0430520144
 40
0.0884990637
 40
0.1374683058
 40
0.1906144298
 40
0.3097067078
 40
0.4439015112
 40
0.5150277849
 40
0.5876119297
 40
0.7331480329
 40
0.8728555253
 40
1.0
 40
1.0
 40
1.0
 40
1.0
 10
217.5625961914
 20
171.6059646775
 30
0.0
 10
217.5291754117
 20
171.86984784
 30
0.0
 10
217.3917663439
 20
172.4054602975
 30
0.0
 10
216.9965463088
 20
173.1641209808
 30
0.0
 10
216.4212051325
 20
173.8780295051
 30
0.0
 10
215.393312838
 20
174.7866424974
 30
0.0
 10
213.7175818508
 20
175.7135430929
 30
0.0
 10
211.7893770259
 20
176.3009681376
 30
0.0
 10
210.0943770257
 20
176.5858542172
 30
0.0
 10
208.3115222294
 20
176.7319566757
 30
0.0
 10
206.091517884
 20
176.641834883
 30
0.0
 10
203.5866367413
 20
176.1180468541
 30
0.0
 10
202.0507558225
 20
175.4769382996
 30
0.0
 10
201.370452769
 20
175.0841674931
 30
0.0
  0
SPLINE
  5
2BE
100
AcDbEntity
  8
0
100
AcDbSpline
 62
7
  6
CONTINUOUS
 70
0
 71
3
 72
11
 73
7
 74
0
 42
0.0000001
 43
0.0000001
 44
0.0000000001
 40
0.0
 40
0.0
 40
0.0
 40
0.0
 40
0.2177764219
 40
0.4509180312
 40
0.7102551465
 40
1.0
 40
1.0
 40
1.0
 40
1.0
 10
167.8893397395
 20
202.2322529576
 30
0.0
 10
167.8892790196
 20
202.6321673827
 30
0.0
 10
168.0371809609
 20
203.4657530253
 30
0.0
 10
168.6690322978
 20
204.6271068542
 30
0.0
 10
169.6679244797
 20
205.6771146791
 30
0.0
 10
170.5038501882
 20
206.2527451351
 30
0.0
 10
170.9646403808
 20
206.5187808888
 30
0.0
  0
SPLINE
  5
2BF
100
AcDbEntity
  8
0
100
AcDbSpline
 62
7
  6
CONTINUOUS
 70
0
 71
3
 72
11
 73
7
 74
0
 42
0.0000001
 43
0.0000001
 44
0.0000000001
 40
0.0
 40
0.0
 40
0.0
 40
0.0
 40
0.2874081605
 40
0.5471479688
 40
0.7819838899
 40
1.0
 40
1.0
 40
1.0
 40
1.0
 10
150.104903489
 20
218.1536319386
 30
0.0
 10
149.6794820449
 20
217.9080162195
 30
0.0
 10
148.901931844
 20
217.3792303417
 30
0.0
 10
147.949290233
 20
216.4281928736
 30
0.0
 10
147.3018119474
 20
215.3815372271
 30
0.0
 10
147.0915918397
 20
214.6222575291
 30
0.0
 10
147.0507534529
 20
214.2518723274
 30
0.0
  0
SPLINE
  5
2C0
100
AcDbEntity
  8
0
100
AcDbSpline
 62
7
  6
CONTINUOUS
 70
0
 71
3
 72
11
 73
7
 74
0
 42
0.0000001
 43
0.0000001
 44
0.0000000001
 40
0.0
 40
0.0
 40
0.0
 40
0.0
 40
0.2874081605
 40
0.5471479688
 40
0.7819838899
 40
1.0
 40
1.0
 40
1.0
 40
1.0
 10
129.2451665971
 20
230.196734197
 30
0.0
 10
128.819745153
 20
229.9511184779
 30
0.0
 10
128.0421949522
 20
229.4223326001
 30
0.0
 10
127.0895533412
 20
228.471295132
 30
0.0
 10
126.4420750555
 20
227.4246394854
 30
0.0
 10
126.2318549479
 20
226.6653597875
 30
0.0
 10
126.1910165611
 20
226.2949745857
 30
0.0
  0
SPLINE
  5
2C1
100
AcDbEntity
  8
0
100
AcDbSpline
 62
7
  6
CONTINUOUS
 70
0
 71
3
 72
11
 73
7
 74
0
 42
0.0000001
 43
0.0000001
 44
0.0000000001
 40
0.0
 40
0.0
 40
0.0
 40
0.0
 40
0.2876971604
 40
0.5473678553
 40
0.7820463416
 40
1.0
 40
1.0
 40
1.0
 40
1.0
 10
115.8102584573
 20
213.4587612811
 30
0.0
 10
115.3403281791
 20
213.187448528
 30
0.0
 10
114.4821432572
 20
212.6032014889
 30
0.0
 10
113.4334272064
 20
211.5506565284
 30
0.0
 10
112.7254278849
 20
210.3918767546
 30
0.0
 10
112.5012402871
 20
209.5519052236
 30
0.0
 10
112.4608006718
 20
209.1428149904
 30
0.0
  0
SPLINE
  5
2C2
100
AcDbEntity
  8
0
100
AcDbSpline
 62
7
  6
CONTINUOUS
 70
0
 71
3
 72
11
 73
7
 74
0
 42
0.0000001
 43
0.0000001
 44
0.0000000001
 40
0.0
 40
0.0
 40
0.0
 40
0.0
 40
0.2880720488
 40
0.5476731649
 40
0.7821251931
 40
1.0
 40
1.0
 40
1.0
 40
1.0
 10
74.0907022426
 20
248.9757545153
 30
0.0
 10
73.4911416909
 20
248.6296001356
 30
0.0
 10
72.3974424151
 20
247.8837762089
 30
0.0
 10
71.0657722641
 20
246.5372115079
 30
0.0
 10
70.1751431673
 20
245.0539182283
 30
0.0
 10
69.9040242632
 20
243.9799396482
 30
0.0
 10
69.8605842316
 20
243.4581350317
 30
0.0
  0
SPLINE
  5
2C3
100
AcDbEntity
  8
0
100
AcDbSpline
 62
7
  6
CONTINUOUS
 70
0
 71
3
 72
11
 73
7
 74
0
 42
0.0000001
 43
0.0000001
 44
0.0000000001
 40
0.0
 40
0.0
 40
0.0
 40
0.0
 40
0.2419501527
 40
0.5013475115
 40
0.7599760355
 40
1.0
 40
1.0
 40
1.0
 40
1.0
 10
77.8121516439
 20
217.3947436459
 30
0.0
 10
77.3475481354
 20
217.5974045786
 30
0.0
 10
76.3288120699
 20
217.8926298527
 30
0.0
 10
74.7337492242
 20
218.0281482058
 30
0.0
 10
73.1448197382
 20
217.8694965535
 30
0.0
 10
72.1364507336
 20
217.5582216372
 30
0.0
 10
71.6796903388
 20
217.3479284017
 30
0.0
  0
SPLINE
  5
2C4
100
AcDbEntity
  8
0
100
AcDbSpline
 62
7
  6
CONTINUOUS
 70
0
 71
3
 72
17
 73
13
 74
0
 42
0.0000001
 43
0.0000001
 44
0.0000000001
 40
0.0
 40
0.0
 40
0.0
 40
0.0
 40
0.1286921823
 40
0.2702767659
 40
0.417433719
 40
0.5617793894
 40
0.6954504977
 40
0.8127129547
 40
0.8646788004
 40
0.9125109492
 40
0.9571403986
 40
1.0
 40
1.0
 40
1.0
 40
1.0
 10
77.6262508683
 20
246.9345507427
 30
0.0
 10
78.3294955449
 20
247.3405668224
 30
0.0
 10
79.9217016443
 20
247.9975314313
 30
0.0
 10
82.5167105295
 20
248.516618482
 30
0.0
 10
85.2613837204
 20
248.5926632908
 30
0.0
 10
87.9317621643
 20
248.2174521186
 30
0.0
 10
90.3113707701
 20
247.4226793474
 30
0.0
 10
91.9661988393
 20
246.415139119
 30
0.0
 10
92.9376253745
 20
245.440566568
 30
0.0
 10
93.4533561049
 20
244.6815266311
 30
0.0
 10
93.7714930302
 20
243.8811213869
 30
0.0
 10
93.8436885478
 20
243.3267037077
 30
0.0
 10
93.8437364446
 20
243.0562635824
 30
0.0
  0
SPLINE
  5
2C5
100
AcDbEntity
  8
0
100
AcDbSpline
 62
7
  6
CONTINUOUS
 70
0
 71
3
 72
9
 73
5
 74
0
 42
0.0000001
 43
0.0000001
 44
0.0000000001
 40
0.0
 40
0.0
 40
0.0
 40
0.0
 40
0.2558812759
 40
1.0
 40
1.0
 40
1.0
 40
1.0
 10
77.6262508683
 20
246.5262995341
 30
0.0
 10
77.5574683829
 20
246.4865881847
 30
0.0
 10
77.2907671144
 20
246.3277938527
 30
0.0
 10
77.0326781496
 20
246.1543971446
 30
0.0
 10
76.8471760514
 20
246.0167932957
 30
0.0
  0
SPLINE
  5
2C6
100
AcDbEntity
  8
0
100
AcDbSpline
 62
7
  6
CONTINUOUS
 70
0
 71
3
 72
11
 73
7
 74
0
 42
0.0000001
 43
0.0000001
 44
0.0000000001
 40
0.0
 40
0.0
 40
0.0
 40
0.0
 40
0.28016987
 40
0.5373301721
 40
0.7751623099
 40
1.0
 40
1.0
 40
1.0
 40
1.0
 10
76.8471760514
 20
246.0167932957
 30
0.0
 10
76.5715217669
 20
245.8123153362
 30
0.0
 10
76.0687135303
 20
245.3826581235
 30
0.0
 10
75.4597245685
 20
244.64691193
 30
0.0
 10
75.0432801371
 20
243.8619747086
 30
0.0
 10
74.900605449
 20
243.3063713658
 30
0.0
 10
74.8672479679
 20
243.03296709
 30
0.0
  0
SPLINE
  5
2C7
100
AcDbEntity
  8
0
100
AcDbSpline
 62
7
  6
CONTINUOUS
 70
0
 71
3
 72
11
 73
7
 74
0
 42
0.0000001
 43
0.0000001
 44
0.0000000001
 40
0.0
 40
0.0
 40
0.0
 40
0.0
 40
0.2874081605
 40
0.5471479688
 40
0.7819838899
 40
1.0
 40
1.0
 40
1.0
 40
1.0
 10
170.9646403808
 20
206.1105296803
 30
0.0
 10
170.5392189367
 20
205.8649139612
 30
0.0
 10
169.7616687359
 20
205.3361280834
 30
0.0
 10
168.8090271249
 20
204.3850906153
 30
0.0
 10
168.1615488392
 20
203.3384349687
 30
0.0
 10
167.9513287316
 20
202.5791552708
 30
0.0
 10
167.9104903448
 20
202.208770069
 30
0.0
  0
SPLINE
  5
2C8
100
AcDbEntity
  8
0
100
AcDbSpline
 62
7
  6
CONTINUOUS
 70
0
 71
3
 72
11
 73
7
 74
0
 42
0.0000001
 43
0.0000001
 44
0.0000000001
 40
0.0
 40
0.0
 40
0.0
 40
0.0
 40
0.2876971604
 40
0.5473678553
 40
0.7820463416
 40
1.0
 40
1.0
 40
1.0
 40
1.0
 10
140.5590988375
 20
199.1703348729
 30
0.0
 10
140.0891685592
 20
198.8990221198
 30
0.0
 10
139.2309836374
 20
198.3147750807
 30
0.0
 10
138.1822675865
 20
197.2622301202
 30
0.0
 10
137.4742682651
 20
196.1034503464
 30
0.0
 10
137.2500806672
 20
195.2634788154
 30
0.0
 10
137.2096410519
 20
194.8543885822
 30
0.0
  0
SPLINE
  5
2C9
100
AcDbEntity
  8
0
100
AcDbSpline
 62
7
  6
CONTINUOUS
 70
0
 71
3
 72
11
 73
7
 74
0
 42
0.0000001
 43
0.0000001
 44
0.0000000001
 40
0.0
 40
0.0
 40
0.0
 40
0.0
 40
0.2880720488
 40
0.5476731649
 40
0.7821251931
 40
1.0
 40
1.0
 40
1.0
 40
1.0
 10
197.8349041433
 20
177.5336224742
 30
0.0
 10
197.2353435916
 20
177.1874680946
 30
0.0
 10
196.1416443158
 20
176.4416441679
 30
0.0
 10
194.8099741648
 20
175.0950794668
 30
0.0
 10
193.919345068
 20
173.6117861872
 30
0.0
 10
193.6482261639
 20
172.5378076072
 30
0.0
 10
193.6047861323
 20
172.0160029906
 30
0.0
  0
SPLINE
  5
2CA
100
AcDbEntity
  8
0
100
AcDbSpline
 62
7
  6
CONTINUOUS
 70
0
 71
3
 72
11
 73
7
 74
0
 42
0.0000001
 43
0.0000001
 44
0.0000000001
 40
0.0
 40
0.0
 40
0.0
 40
0.0
 40
0.2177648073
 40
0.4508950352
 40
0.7103684932
 40
1.0
 40
1.0
 40
1.0
 40
1.0
 10
69.7981287425
 20
219.5823079298
 30
0.0
 10
69.7982043822
 20
219.772732123
 30
0.0
 10
69.8682770486
 20
220.169686026
 30
0.0
 10
70.1693636611
 20
220.7227944227
 30
0.0
 10
70.6451465589
 20
221.2226460403
 30
0.0
 10
71.0431384856
 20
221.4968786225
 30
0.0
 10
71.2624753076
 20
221.6235120398
 30
0.0
  0
SPLINE
  5
2CB
100
AcDbEntity
  8
0
100
AcDbSpline
 62
7
  6
CONTINUOUS
 70
0
 71
3
 72
17
 73
13
 74
0
 42
0.0000001
 43
0.0000001
 44
0.0000000001
 40
0.0
 40
0.0
 40
0.0
 40
0.0
 40
0.1286921823
 40
0.2702767659
 40
0.417433719
 40
0.5617793894
 40
0.6954504977
 40
0.8127129547
 40
0.8646788004
 40
0.9125109492
 40
0.9571403986
 40
1.0
 40
1.0
 40
1.0
 40
1.0
 10
201.370452769
 20
175.4924187016
 30
0.0
 10
202.0736974456
 20
175.8984347814
 30
0.0
 10
203.665903545
 20
176.5553993902
 30
0.0
 10
206.2609124302
 20
177.0744864409
 30
0.0
 10
209.0055856211
 20
177.1505312498
 30
0.0
 10
211.675964065
 20
176.7753200776
 30
0.0
 10
214.0555726708
 20
175.9805473064
 30
0.0
 10
215.7104007401
 20
174.9730070779
 30
0.0
 10
216.6818272752
 20
173.9984345269
 30
0.0
 10
217.1975580056
 20
173.23939459
 30
0.0
 10
217.515694931
 20
172.4389893459
 30
0.0
 10
217.5878904485
 20
171.8845716666
 30
0.0
 10
217.5879383453
 20
171.6141315413
 30
0.0
  0
SPLINE
  5
2CC
100
AcDbEntity
  8
0
100
AcDbSpline
 62
7
  6
CONTINUOUS
 70
0
 71
3
 72
9
 73
5
 74
0
 42
0.0000001
 43
0.0000001
 44
0.0000000001
 40
0.0
 40
0.0
 40
0.0
 40
0.0
 40
0.2558812759
 40
1.0
 40
1.0
 40
1.0
 40
1.0
 10
201.370452769
 20
175.0841674931
 30
0.0
 10
201.3016702836
 20
175.0444561436
 30
0.0
 10
201.0349690151
 20
174.8856618117
 30
0.0
 10
200.7768800503
 20
174.7122651035
 30
0.0
 10
200.5913779522
 20
174.5746612547
 30
0.0
  0
SPLINE
  5
2CD
100
AcDbEntity
  8
0
100
AcDbSpline
 62
7
  6
CONTINUOUS
 70
0
 71
3
 72
11
 73
7
 74
0
 42
0.0000001
 43
0.0000001
 44
0.0000000001
 40
0.0
 40
0.0
 40
0.0
 40
0.0
 40
0.28016987
 40
0.5373301721
 40
0.7751623099
 40
1.0
 40
1.0
 40
1.0
 40
1.0
 10
200.5913779522
 20
174.5746612547
 30
0.0
 10
200.3157236677
 20
174.3701832952
 30
0.0
 10
199.812915431
 20
173.9405260825
 30
0.0
 10
199.2039264692
 20
173.204779889
 30
0.0
 10
198.7874820378
 20
172.4198426675
 30
0.0
 10
198.6448073497
 20
171.8642393247
 30
0.0
 10
198.6114498686
 20
171.590835049
 30
0.0
  0
SPLINE
  5
2CE
100
AcDbEntity
  8
0
100
AcDbSpline
 62
7
  6
CONTINUOUS
 70
0
 71
3
 72
11
 73
7
 74
0
 42
0.0000001
 43
0.0000001
 44
0.0000000001
 40
0.0
 40
0.0
 40
0.0
 40
0.0
 40
0.2876971604
 40
0.5473678553
 40
0.7820463416
 40
1.0
 40
1.0
 40
1.0
 40
1.0
 10
91.0614180772
 20
227.7471876893
 30
0.0
 10
90.5914877989
 20
227.4758749362
 30
0.0
 10
89.7333028771
 20
226.8916278971
 30
0.0
 10
88.6845868262
 20
225.8390829366
 30
0.0
 10
87.9765875048
 20
224.6803031628
 30
0.0
 10
87.752399907
 20
223.8403316318
 30
0.0
 10
87.7119602916
 20
223.4312413986
 30
0.0
  0
SPLINE
  5
2CF
100
AcDbEntity
  8
0
100
AcDbSpline
 62
7
  6
CONTINUOUS
 70
0
 71
3
 72
11
 73
7
 74
0
 42
0.0000001
 43
0.0000001
 44
0.0000000001
 40
0.0
 40
0.0
 40
0.0
 40
0.0
 40
0.2876971604
 40
0.5473678553
 40
0.7820463416
 40
1.0
 40
1.0
 40
1.0
 40
1.0
 10
165.3079392176
 20
184.8819084647
 30
0.0
 10
164.8380089394
 20
184.6105957116
 30
0.0
 10
163.9798240175
 20
184.0263486725
 30
0.0
 10
162.9311079666
 20
182.973803712
 30
0.0
 10
162.2231086452
 20
181.8150239382
 30
0.0
 10
161.9989210474
 20
180.9750524072
 30
0.0
 10
161.9584814321
 20
180.5659621739
 30
0.0
  0
SPLINE
  5
2D0
100
AcDbEntity
  8
0
100
AcDbSpline
 62
7
  6
CONTINUOUS
 70
0
 71
3
 72
11
 73
7
 74
0
 42
0.0000001
 43
0.0000001
 44
0.0000000001
 40
0.0
 40
0.0
 40
0.0
 40
0.0
 40
0.2871322043
 40
0.5468909114
 40
0.7819076606
 40
1.0
 40
1.0
 40
1.0
 40
1.0
 10
109.7996491556
 20
241.4233549463
 30
0.0
 10
109.4181576154
 20
241.2031020176
 30
0.0
 10
108.7203302913
 20
240.7291821645
 30
0.0
 10
107.863160445
 20
239.8780806642
 30
0.0
 10
107.2765055119
 20
238.9418884283
 30
0.0
 10
107.0811683109
 20
238.2621489974
 30
0.0
 10
107.0406462551
 20
237.9300225022
 30
0.0
  0
SPLINE
  5
2D1
100
AcDbEntity
  8
0
100
AcDbSpline
 62
7
  6
CONTINUOUS
 70
0
 71
3
 72
11
 73
7
 74
0
 42
0.0000001
 43
0.0000001
 44
0.0000000001
 40
0.0
 40
0.0
 40
0.0
 40
0.0
 40
0.2871322043
 40
0.5468909114
 40
0.7819076606
 40
1.0
 40
1.0
 40
1.0
 40
1.0
 10
191.8243772726
 20
194.0674274219
 30
0.0
 10
191.4428857325
 20
193.8471744933
 30
0.0
 10
190.7450584084
 20
193.3732546402
 30
0.0
 10
189.8878885621
 20
192.5221531398
 30
0.0
 10
189.301233629
 20
191.585960904
 30
0.0
 10
189.1058964279
 20
190.906221473
 30
0.0
 10
189.0653743722
 20
190.5740949778
 30
0.0
  0
SPLINE
  5
2D2
100
AcDbEntity
  8
0
100
AcDbSpline
 62
7
  6
CONTINUOUS
 70
0
 71
3
 72
18
 73
14
 74
0
 42
0.0000001
 43
0.0000001
 44
0.0000000001
 40
0.0
 40
0.0
 40
0.0
 40
0.0
 40
0.0430520144
 40
0.0884990637
 40
0.1374683058
 40
0.1906144298
 40
0.3097067078
 40
0.4439015112
 40
0.5150277849
 40
0.5876119297
 40
0.7331480329
 40
0.8728555253
 40
1.0
 40
1.0
 40
1.0
 40
1.0
 10
125.9917925779
 20
237.9451521307
 30
0.0
 10
125.9583717983
 20
238.2090352933
 30
0.0
 10
125.8209627304
 20
238.7446477508
 30
0.0
 10
125.4257426953
 20
239.503308434
 30
0.0
 10
124.8504015191
 20
240.2172169583
 30
0.0
 10
123.8225092245
 20
241.1258299506
 30
0.0
 10
122.1467782374
 20
242.0527305461
 30
0.0
 10
120.2185734124
 20
242.6401555908
 30
0.0
 10
118.5235734122
 20
242.9250416704
 30
0.0
 10
116.7407186159
 20
243.0711441289
 30
0.0
 10
114.5207142706
 20
242.9810223362
 30
0.0
 10
112.0158331278
 20
242.4572343074
 30
0.0
 10
110.4799522091
 20
241.8161257528
 30
0.0
 10
109.7996491556
 20
241.4233549463
 30
0.0
  0
SPLINE
  5
2D3
100
AcDbEntity
  8
0
100
AcDbSpline
 62
7
  6
CONTINUOUS
 70
0
 71
3
 72
11
 73
7
 74
0
 42
0.0000001
 43
0.0000001
 44
0.0000000001
 40
0.0
 40
0.0
 40
0.0
 40
0.0
 40
0.2419501527
 40
0.5013475115
 40
0.7599760355
 40
1.0
 40
1.0
 40
1.0
 40
1.0
 10
69.3266229765
 20
251.6870894023
 30
0.0
 10
68.8620194681
 20
251.889750335
 30
0.0
 10
67.8432834025
 20
252.1849756091
 30
0.0
 10
66.2482205568
 20
252.3204939621
 30
0.0
 10
64.6592910708
 20
252.1618423098
 30
0.0
 10
63.6509220663
 20
251.8505673936
 30
0.0
 10
63.1941616714
 20
251.6402741581
 30
0.0
  0
SPLINE
  5
2D4
100
AcDbEntity
  8
0
100
AcDbSpline
 62
7
  6
CONTINUOUS
 70
0
 71
3
 72
18
 73
14
 74
0
 42
0.0000001
 43
0.0000001
 44
0.0000000001
 40
0.0
 40
0.0
 40
0.0
 40
0.0
 40
0.0430520144
 40
0.0884990637
 40
0.1374683058
 40
0.1906144298
 40
0.3097067078
 40
0.4439015112
 40
0.5150277849
 40
0.5876119297
 40
0.7331480329
 40
0.8728555253
 40
1.0
 40
1.0
 40
1.0
 40
1.0
 10
93.8183942906
 20
243.0480967186
 30
0.0
 10
93.784973511
 20
243.3119798811
 30
0.0
 10
93.6475644432
 20
243.8475923386
 30
0.0
 10
93.2523444081
 20
244.6062530218
 30
0.0
 10
92.6770032318
 20
245.3201615462
 30
0.0
 10
91.6491109372
 20
246.2287745384
 30
0.0
 10
89.9733799501
 20
247.1556751339
 30
0.0
 10
88.0451751251
 20
247.7431001786
 30
0.0
 10
86.350175125
 20
248.0279862582
 30
0.0
 10
84.5673203287
 20
248.1740887167
 30
0.0
 10
82.3473159833
 20
248.083966924
 30
0.0
 10
79.8424348406
 20
247.5601788952
 30
0.0
 10
78.3065539218
 20
246.9190703407
 30
0.0
 10
77.6262508683
 20
246.5262995341
 30
0.0
  0
SPLINE
  5
2D5
100
AcDbEntity
  8
0
100
AcDbSpline
 62
7
  6
CONTINUOUS
 70
0
 71
3
 72
11
 73
7
 74
0
 42
0.0000001
 43
0.0000001
 44
0.0000000001
 40
0.0
 40
0.0
 40
0.0
 40
0.0
 40
0.2177648073
 40
0.4508950352
 40
0.7103684932
 40
1.0
 40
1.0
 40
1.0
 40
1.0
 10
61.3126000751
 20
253.8746536861
 30
0.0
 10
61.3126757148
 20
254.0650778793
 30
0.0
 10
61.3827483812
 20
254.4620317823
 30
0.0
 10
61.6838349938
 20
255.015140179
 30
0.0
 10
62.1596178915
 20
255.5149917967
 30
0.0
 10
62.5576098182
 20
255.7892243789
 30
0.0
 10
62.7769466402
 20
255.9158577962
 30
0.0
  0
SPLINE
  5
2D6
100
AcDbEntity
  8
0
100
AcDbSpline
 62
7
  6
CONTINUOUS
 70
0
 71
3
 72
11
 73
7
 74
0
 42
0.0000001
 43
0.0000001
 44
0.0000000001
 40
0.0
 40
0.0
 40
0.0
 40
0.0
 40
0.2177796549
 40
0.4509239625
 40
0.7102593694
 40
1.0
 40
1.0
 40
1.0
 40
1.0
 10
198.5880519706
 20
171.6141315261
 30
0.0
 10
198.5879878874
 20
171.9759646245
 30
0.0
 10
198.721796002
 20
172.730175402
 30
0.0
 10
199.2934740866
 20
173.7809332821
 30
0.0
 10
200.1972400761
 20
174.7309302539
 30
0.0
 10
200.9535529819
 20
175.2517229341
 30
0.0
 10
201.370452769
 20
175.4924187016
 30
0.0
  0
ENDSEC
  0
SECTION
  2
OBJECTS
  0
DICTIONARY
  5
C
100
AcDbDictionary
280
0
281
1
  3
ACAD_GROUP
350
D
  3
ACAD_MLINESTYLE
350
17
  3
ACAD_LAYOUT
350
1A
  3
ACAD_PLOTSETTINGS
350
19
  3
ACAD_PLOTSTYLENAME
350
E
  0
DICTIONARY
  5
D
102
{ACAD_REACTORS
330
C
102
}
100
AcDbDictionary
280
0
281
1
  0
ACDBDICTIONARYWDFLT
  5
E
102
{ACAD_REACTORS
330
C
102
}
100
AcDbDictionary
281
1
  3
Normal
350
F
100
AcDbDictionaryWithDefault
340
F
  0
DICTIONARY
  5
17
102
{ACAD_REACTORS
330
C
102
}
100
AcDbDictionary
280
0
281
1
  3
Standard
350
18
  0
DICTIONARY
  5
19
102
{ACAD_REACTORS
330
C
102
}
100
AcDbDictionary
281
1
  0
DICTIONARY
  5
1A
102
{ACAD_REACTORS
330
C
102
}
100
AcDbDictionary
281
1
  3
Model
350
2D7
  3
Layout1
350
2D8
  0
ACDBPLACEHOLDER
  5
F
102
{ACAD_REACTORS
330
E
102
}
  0
MLINESTYLE
  5
18
102
{ACAD_REACTORS
330
17
102
}
100
AcDbMlineStyle
  2
STANDARD
 70
0
  3

 62
256
 51
90.0
 52
90.0
 71
2
 49
0.5
 62
256
  6
BYLAYER
 49
-0.5
 62
256
  6
BYLAYER
  0
LAYOUT
  5
2D7
102
{ACAD_REACTORS
330
1A
102
}
100
AcDbPlotSettings
  1

  2
none_device
  4

  6

 40
0.0
 41
0.0
 42
0.0
 43
0.0
 44
210.0
 45
297.0
 46
0.0
 47
0.0
 48
0.0
 49
0.0
140
0.0
141
0.0
142
1.0
143
1.0
 70
1024
 72
1
 73
0
 74
0
  7

 75
0
147
1.0
148
0.0
149
0.0
100
AcDbLayout
  1
Model
 70
0
 71
0
 10
0.0
 20
0.0
 11
210.0
 21
297.0
 12
0.0
 22
0.0
 32
0.0
 14
0.0
 24
0.0
 34
0.0
 15
0.0
 25
0.0
 35
0.0
146
0.0
 13
0.0
 23
0.0
 33
0.0
 16
1.0
 26
0.0
 36
0.0
 17
0.0
 27
1.0
 37
0.0
 76
0
330
210
345
0
346
0
  0
LAYOUT
  5
2D8
102
{ACAD_REACTORS
330
1A
102
}
100
AcDbPlotSettings
  1

  2
none_device
  4

  6

 40
0.0
 41
0.0
 42
0.0
 43
0.0
 44
210.0
 45
297.0
 46
0.0
 47
0.0
 48
0.0
 49
0.0
140
0.0
141
0.0
142
1.0
143
1.0
 70
0
 72
1
 73
0
 74
0
  7

 75
0
147
1.0
148
0.0
149
0.0
100
AcDbLayout
  1
Layout1
 70
0
 71
1
 10
0.0
 20
0.0
 11
210.0
 21
297.0
 12
0.0
 22
0.0
 32
0.0
 14
0.0
 24
0.0
 34
0.0
 15
0.0
 25
0.0
 35
0.0
146
0.0
 13
0.0
 23
0.0
 33
0.0
 16
1.0
 26
0.0
 36
0.0
 17
0.0
 27
1.0
 37
0.0
 76
0
330
211
345
0
346
0
  0
ENDSEC
  0
EOF
