999
DXF file: C:\Users\sesa63760\Dev\_Creo\CAD\MCADID0000588_3D-CAD\drw0001_3.dxf
999
Pro/ENGINEER 2019471 by Parametric Technology Corporation
  0
SECTION
  2
HEADER
  9
$ACADVER
  1
AC1024
  9
$DWGCODEPAGE
  3
ANSI_1252
  9
$EXTMAX
 10
185.8124202942
 20
262.7918515589
 30
0.0
  9
$EXTMIN
 10
0.0
 20
0.0
 30
0.0
  9
$LIMMIN
 10
0.0
 20
0.0
  9
$LIMMAX
 10
185.8124202942
 20
262.7918515589
  9
$VIEWCTR
 10
92.9062101471
 20
131.3959257794
  9
$VIEWSIZE
 40
262.7918515589
  9
$CLAYER
  8
0
  9
$LTSCALE
 40
17.130135509
  9
$CELTYPE
  6
BYLAYER
  9
$DIMSCALE
 40
1.0
  9
$DIMASZ
 40
2.2120526225
  9
$DIMEXO
 40
1.0
  9
$DIMDLI
 40
11.8353663517
  9
$DIMEXE
 40
1.0
  9
$DIMCEN
 40
2.8031130833
  9
$DIMLFAC
 40
1.0
  9
$DIMBLK
  1
_FILLED
  9
$DIMALT
 70
0
  9
$DIMALTF
 40
0.0393700787
  9
$DIMTXT
 40
3.0968736716
  9
$DIMTOL
 70
1
  9
$DIMLIM
 70
0
  9
$DIMTFAC
 40
1.0
  9
$DIMTP
 40
0.01
  9
$DIMTM
 40
0.01
  9
$DIMGAP
 40
0.625
  9
$DIMDSEP
 70
46
  9
$AUNITS
 70
0
  9
$PDMODE
 70
3
  9
$PDSIZE
 40
0.3125
  9
$HANDSEED
  5
27D
  9
$TILEMODE
 70
1
  9
$MEASUREMENT
 70
1
  9
$INSUNITS
 70
4
  0
ENDSEC
  0
SECTION
  2
CLASSES
  0
CLASS
  1
ACDBDICTIONARYWDFLT
  2
AcDbDictionaryWithDefault
  3
AutoCAD 2000
 90
0
 91
1
280
0
281
0
  0
CLASS
  1
ACDBPLACEHOLDER
  2
AcDbPlaceHolder
  3
AutoCAD 2000
 90
0
 91
1
280
0
281
0
  0
CLASS
  1
LAYOUT
  2
AcDbLayout
  3
AutoCAD 2000
 90
0
 91
0
280
0
281
0
  0
ENDSEC
  0
SECTION
  2
TABLES
  0
TABLE
  2
VPORT
  5
8
100
AcDbSymbolTable
 70
2
  0
VPORT
  5
1F4
100
AcDbSymbolTableRecord
100
AcDbViewportTableRecord
  2
*ACTIVE
 70
0
 10
0.0
 20
0.0
 11
1.0
 21
1.0
 12
92.9062101471
 22
131.3959257794
 13
0.0
 23
0.0
 14
1.0
 24
1.0
 15
0.0
 25
0.0
 16
0.0
 26
0.0
 36
1.0
 17
0.0
 27
0.0
 37
0.0
 40
262.7918515589
 41
0.7070707071
 42
50.0
 43
0.0
 44
0.0
 50
0.0
 51
0.0
 71
0
 72
100
 73
1
 74
1
 75
0
 76
0
 77
0
 78
0
  0
ENDTAB
  0
TABLE
  2
LTYPE
  5
5
100
AcDbSymbolTable
 70
6
  0
LTYPE
  5
14
100
AcDbSymbolTableRecord
100
AcDbLinetypeTableRecord
  2
BYBLOCK
 70
0
  3

 72
65
 73
0
 40
0.0
  0
LTYPE
  5
15
100
AcDbSymbolTableRecord
100
AcDbLinetypeTableRecord
  2
BYLAYER
 70
0
  3

 72
65
 73
0
 40
0.0
  0
LTYPE
  5
16
100
AcDbSymbolTableRecord
100
AcDbLinetypeTableRecord
  2
CONTINUOUS
 70
64
  3
Solid line
 72
65
 73
0
 40
0.0
  0
LTYPE
  5
1F5
100
AcDbSymbolTableRecord
100
AcDbLinetypeTableRecord
  2
CENTER
 70
64
  3
____ _ ____ _ ____ _ ____ _ ____ _ ____ _ ____
 72
65
 73
4
 40
0.6
 49
0.375
 74
0
 49
-0.075
 74
0
 49
0.075
 74
0
 49
-0.075
 74
0
  0
LTYPE
  5
1F6
100
AcDbSymbolTableRecord
100
AcDbLinetypeTableRecord
  2
HIDDEN
 70
64
  3
- - - - - - - - - - - - - - - - - - - -
 72
65
 73
2
 40
0.2
 49
0.1
 74
0
 49
-0.1
 74
0
  0
LTYPE
  5
1F7
100
AcDbSymbolTableRecord
100
AcDbLinetypeTableRecord
  2
PHANTOM
 70
64
  3
_____ _ _ _____ _ _ _____ _ _ _____
 72
65
 73
6
 40
0.8
 49
0.45
 74
0
 49
-0.05
 74
0
 49
0.1
 74
0
 49
-0.05
 74
0
 49
0.1
 74
0
 49
-0.05
 74
0
  0
LTYPE
  5
1F8
100
AcDbSymbolTableRecord
100
AcDbLinetypeTableRecord
  2
DOT
 70
64
  3
. . . . . . . . . . . . . . . . . . . .
 72
65
 73
2
 40
0.2
 49
0.1
 74
0
 49
-0.1
 74
0
  0
LTYPE
  5
1F9
100
AcDbSymbolTableRecord
100
AcDbLinetypeTableRecord
  2
DASHED
 70
64
  3
- - - - - - - - - - - - - - - - - - - -
 72
65
 73
2
 40
0.2
 49
0.1
 74
0
 49
-0.1
 74
0
  0
ENDTAB
  0
TABLE
  2
LAYER
  5
2
100
AcDbSymbolTable
 70
36
  0
LAYER
  5
10
100
AcDbSymbolTableRecord
100
AcDbLayerTableRecord
  2
0
 70
0
 62
7
  6
CONTINUOUS
370
-3
390
F
  0
LAYER
  5
1FA
100
AcDbSymbolTableRecord
100
AcDbLayerTableRecord
  2
DEFAULT_1
 70
0
 62
7
  6
CENTER
370
-3
390
F
  0
LAYER
  5
1FB
100
AcDbSymbolTableRecord
100
AcDbLayerTableRecord
  2
DEFAULT_2
 70
0
 62
8
  6
HIDDEN
370
-3
390
F
  0
LAYER
  5
1FC
100
AcDbSymbolTableRecord
100
AcDbLayerTableRecord
  2
DEFAULT_3
 70
0
 62
7
  6
PHANTOM
370
-3
390
F
  0
LAYER
  5
1FD
100
AcDbSymbolTableRecord
100
AcDbLayerTableRecord
  2
00_COMPONENTS
 70
0
 62
7
  6
CONTINUOUS
370
-3
390
F
  0
LAYER
  5
1FE
100
AcDbSymbolTableRecord
100
AcDbLayerTableRecord
  2
01_1_DEFAULT_DATUMS
 70
0
 62
7
  6
CONTINUOUS
370
-3
390
F
  0
LAYER
  5
1FF
100
AcDbSymbolTableRecord
100
AcDbLayerTableRecord
  2
01_PLANES
 70
0
 62
7
  6
CONTINUOUS
370
-3
390
F
  0
LAYER
  5
200
100
AcDbSymbolTableRecord
100
AcDbLayerTableRecord
  2
02_COORD_SYS
 70
0
 62
7
  6
CONTINUOUS
370
-3
390
F
  0
LAYER
  5
201
100
AcDbSymbolTableRecord
100
AcDbLayerTableRecord
  2
03_AXES
 70
0
 62
7
  6
CONTINUOUS
370
-3
390
F
  0
LAYER
  5
202
100
AcDbSymbolTableRecord
100
AcDbLayerTableRecord
  2
04_POINTS
 70
0
 62
7
  6
CONTINUOUS
370
-3
390
F
  0
LAYER
  5
203
100
AcDbSymbolTableRecord
100
AcDbLayerTableRecord
  2
05_CURVES
 70
0
 62
7
  6
CONTINUOUS
370
-3
390
F
  0
LAYER
  5
204
100
AcDbSymbolTableRecord
100
AcDbLayerTableRecord
  2
06_SURFS
 70
0
 62
7
  6
CONTINUOUS
370
-3
390
F
  0
LAYER
  5
205
100
AcDbSymbolTableRecord
100
AcDbLayerTableRecord
  2
07_COSMETICS
 70
0
 62
7
  6
CONTINUOUS
370
-3
390
F
  0
LAYER
  5
206
100
AcDbSymbolTableRecord
100
AcDbLayerTableRecord
  2
10_NOTES
 70
0
 62
7
  6
CONTINUOUS
370
-3
390
F
  0
LAYER
  5
207
100
AcDbSymbolTableRecord
100
AcDbLayerTableRecord
  2
11_NOTES_PUB
 70
0
 62
7
  6
CONTINUOUS
370
-3
390
F
  0
LAYER
  5
208
100
AcDbSymbolTableRecord
100
AcDbLayerTableRecord
  2
13_REF_GTOL
 70
0
 62
7
  6
CONTINUOUS
370
-3
390
F
  0
LAYER
  5
209
100
AcDbSymbolTableRecord
100
AcDbLayerTableRecord
  2
16_MISC
 70
0
 62
7
  6
CONTINUOUS
370
-3
390
F
  0
LAYER
  5
20A
100
AcDbSymbolTableRecord
100
AcDbLayerTableRecord
  2
17_NO_PRINT
 70
0
 62
7
  6
CONTINUOUS
370
-3
390
F
  0
LAYER
  5
20B
100
AcDbSymbolTableRecord
100
AcDbLayerTableRecord
  2
18_DATUM_CAMS_JOINTS
 70
0
 62
7
  6
CONTINUOUS
370
-3
390
F
  0
LAYER
  5
20C
100
AcDbSymbolTableRecord
100
AcDbLayerTableRecord
  2
19_DATUM_FUNCTIONAL
 70
0
 62
7
  6
CONTINUOUS
370
-3
390
F
  0
LAYER
  5
20D
100
AcDbSymbolTableRecord
100
AcDbLayerTableRecord
  2
20_DATUM_KINEMATIC_SCHEME
 70
0
 62
7
  6
CONTINUOUS
370
-3
390
F
  0
ENDTAB
  0
TABLE
  2
STYLE
  5
3
100
AcDbSymbolTable
 70
1
  0
STYLE
  5
11
100
AcDbSymbolTableRecord
100
AcDbTextStyleTableRecord
  2
STANDARD
 70
0
 40
0.0
 41
0.8
 50
0.0
 71
0
 42
0.2
  3
txt
  4

  0
STYLE
  5
20E
100
AcDbSymbolTableRecord
100
AcDbTextStyleTableRecord
  2
TEXTSTYLE_1
 70
0
 40
0.0
 41
0.8
 50
0.0
 71
0
 42
0.2
  3
gdt
  4

  0
ENDTAB
  0
TABLE
  2
VIEW
  5
6
100
AcDbSymbolTable
 70
0
  0
ENDTAB
  0
TABLE
  2
UCS
  5
7
100
AcDbSymbolTable
 70
0
  0
ENDTAB
  0
TABLE
  2
APPID
  5
9
100
AcDbSymbolTable
 70
1
  0
APPID
  5
20F
100
AcDbSymbolTableRecord
100
AcDbRegAppTableRecord
  2
ACAD
 70
0
  0
ENDTAB
  0
TABLE
  2
BLOCK_RECORD
  5
1
100
AcDbSymbolTable
 70
0
  0
BLOCK_RECORD
  5
210
100
AcDbSymbolTableRecord
100
AcDbBlockTableRecord
  2
*Model_Space
  0
BLOCK_RECORD
  5
211
100
AcDbSymbolTableRecord
100
AcDbBlockTableRecord
  2
*Paper_Space
  0
BLOCK_RECORD
  5
212
100
AcDbSymbolTableRecord
100
AcDbBlockTableRecord
  2
_FILLED
  0
ENDTAB
  0
TABLE
  2
DIMSTYLE
  5
A
100
AcDbSymbolTable
 70
1
100
AcDbDimStyleTable
 71
0
  0
DIMSTYLE
105
213
100
AcDbSymbolTableRecord
100
AcDbDimStyleTableRecord
  2
STANDARD
 70
0
  3

  4

 40
1.0
 41
2.2120526225
 42
1.0
 43
0.38
 44
1.0
 45
0.0
 46
0.0
 47
0.01
 48
0.01
140
3.0968736716
141
0.09
142
0.0
143
25.4
144
1.0
145
0.0
146
1.0
147
0.625
 71
1
 72
0
 73
0
 74
0
 75
0
 76
0
 77
1
 78
8
 79
2
170
0
171
1
172
0
173
0
174
0
175
0
176
0
177
0
178
0
270
2
179
2
271
2
272
2
273
2
274
2
275
0
280
0
281
0
282
0
283
1
284
8
285
0
286
0
287
3
288
0
340
11
278
46
341
212
342
212
343
212
344
212
  0
ENDTAB
  0
ENDSEC
  0
SECTION
  2
BLOCKS
  0
BLOCK
  5
20
100
AcDbEntity
  8
0
100
AcDbBlockBegin
  2
*Model_Space
 70
0
 10
0.0
 20
0.0
 30
0.0
  3
*Model_Space
  1

  0
ENDBLK
  5
21
100
AcDbEntity
  8
0
100
AcDbBlockEnd
  0
BLOCK
  5
1C
100
AcDbEntity
  8
0
100
AcDbBlockBegin
  2
*Paper_Space
 70
0
 10
0.0
 20
0.0
 30
0.0
  3
*Paper_Space
  1

  0
ENDBLK
  5
1D
100
AcDbEntity
  8
0
100
AcDbBlockEnd
  0
BLOCK
  5
214
100
AcDbEntity
  8
0
100
AcDbBlockBegin
  2
_FILLED
 70
64
 10
0.0
 20
0.0
  3
_FILLED
  1

  0
SOLID
  5
215
100
AcDbEntity
  8
0
  6
BYBLOCK
 62
0
100
AcDbTrace
 10
0.0
 20
0.0
 11
-1.0
 21
0.25
 12
-1.0
 22
-0.25
 13
-1.0
 23
-0.25
  0
ENDBLK
  5
216
100
AcDbEntity
  8
0
  6
BYBLOCK
 62
0
100
AcDbBlockEnd
  0
ENDSEC
  0
SECTION
  2
ENTITIES
  0
LINE
  5
217
100
AcDbEntity
  8
0
100
AcDbLine
 62
7
  6
CONTINUOUS
 10
21.9775355983
 20
160.0892350856
 11
21.9775355983
 21
102.8892350856
  0
LINE
  5
218
100
AcDbEntity
  8
0
100
AcDbLine
 62
7
  6
CONTINUOUS
 10
25.0896948234
 20
105.8892350856
 11
25.0896915418
 21
157.1055808159
  0
LINE
  5
219
100
AcDbEntity
  8
0
100
AcDbLine
 62
7
  6
CONTINUOUS
 10
29.4775355983
 20
160.0892350856
 11
29.4775355983
 21
102.8892350856
  0
LINE
  5
21A
100
AcDbEntity
  8
0
100
AcDbLine
 62
7
  6
CONTINUOUS
 10
38.4275355983
 20
162.0892350856
 11
38.4275355983
 21
160.0892350856
  0
LINE
  5
21B
100
AcDbEntity
  8
0
100
AcDbLine
 62
7
  6
CONTINUOUS
 10
43.2275355983
 20
160.0892350856
 11
43.2275355983
 21
162.0892350856
  0
LINE
  5
21C
100
AcDbEntity
  8
0
100
AcDbLine
 62
7
  6
CONTINUOUS
 10
44.7275355983
 20
162.0892350856
 11
44.7275355983
 21
163.5892350856
  0
LINE
  5
21D
100
AcDbEntity
  8
0
100
AcDbLine
 62
7
  6
CONTINUOUS
 10
45.2275355983
 20
163.5892350856
 11
45.2275355983
 21
165.5892350856
  0
LINE
  5
21E
100
AcDbEntity
  8
0
100
AcDbLine
 62
7
  6
CONTINUOUS
 10
47.9775355983
 20
162.5195357974
 11
47.9775355983
 21
160.0892350856
  0
LINE
  5
21F
100
AcDbEntity
  8
0
100
AcDbLine
 62
7
  6
CONTINUOUS
 10
47.9775355983
 20
102.8892350856
 11
47.9775355983
 21
100.4589343738
  0
LINE
  5
220
100
AcDbEntity
  8
0
100
AcDbLine
 62
7
  6
CONTINUOUS
 10
52.2275355983
 20
165.5892350856
 11
52.2275355983
 21
163.5892350856
  0
LINE
  5
221
100
AcDbEntity
  8
0
100
AcDbLine
 62
7
  6
CONTINUOUS
 10
52.6700089577
 20
113.450368588
 11
52.6700089577
 21
149.5281015832
  0
LINE
  5
222
100
AcDbEntity
  8
0
100
AcDbLine
 62
7
  6
CONTINUOUS
 10
52.7275355983
 20
163.5892350856
 11
52.7275355983
 21
163.0740277374
  0
LINE
  5
223
100
AcDbEntity
  8
0
100
AcDbLine
 62
7
  6
CONTINUOUS
 10
57.4775355983
 20
165.5892350856
 11
57.2275355983
 21
164.1714146307
  0
LINE
  5
224
100
AcDbEntity
  8
0
100
AcDbLine
 62
7
  6
CONTINUOUS
 10
53.1614460501
 20
115.4892350856
 11
53.1614460501
 21
147.4892350856
  0
LINE
  5
225
100
AcDbEntity
  8
0
100
AcDbLine
 62
7
  6
CONTINUOUS
 10
57.2275355983
 20
163.5009785492
 11
57.2275355983
 21
164.1714146307
  0
LINE
  5
226
100
AcDbEntity
  8
0
100
AcDbLine
 62
7
  6
CONTINUOUS
 10
75.9775355983
 20
98.4892350856
 11
81.9775355983
 21
98.4892350856
  0
LINE
  5
227
100
AcDbEntity
  8
0
100
AcDbLine
 62
7
  6
CONTINUOUS
 10
81.9775355983
 20
98.9892350856
 11
143.9775355983
 21
98.9892350856
  0
LINE
  5
228
100
AcDbEntity
  8
0
100
AcDbLine
 62
7
  6
CONTINUOUS
 10
70.9775355983
 20
165.5892350856
 11
70.755072853
 21
164.3275861625
  0
LINE
  5
229
100
AcDbEntity
  8
0
100
AcDbLine
 62
7
  6
CONTINUOUS
 10
81.9775355983
 20
102.1673109298
 11
50.7594861618
 21
102.1673109298
  0
LINE
  5
22A
100
AcDbEntity
  8
0
100
AcDbLine
 62
7
  6
CONTINUOUS
 10
125.5775355983
 20
102.3078093891
 11
107.5775355983
 21
102.3078093891
  0
LINE
  5
22B
100
AcDbEntity
  8
0
100
AcDbLine
 62
7
  6
CONTINUOUS
 10
137.9775355983
 20
102.3203226426
 11
125.5775355983
 21
102.3203226426
  0
LINE
  5
22C
100
AcDbEntity
  8
0
100
AcDbLine
 62
7
  6
CONTINUOUS
 10
107.5775355983
 20
102.3203226426
 11
81.9775355983
 21
102.3203226426
  0
LINE
  5
22D
100
AcDbEntity
  8
0
100
AcDbLine
 62
7
  6
CONTINUOUS
 10
21.9775419791
 20
102.8892350856
 11
50.3395596082
 21
102.8892350856
  0
LINE
  5
22E
100
AcDbEntity
  8
0
100
AcDbLine
 62
7
  6
CONTINUOUS
 10
143.9775355983
 20
105.7892350856
 11
137.9775355983
 21
105.7892350856
  0
LINE
  5
22F
100
AcDbEntity
  8
0
100
AcDbLine
 62
7
  6
CONTINUOUS
 10
75.9775355983
 20
105.8892350856
 11
25.0896948234
 21
105.8892350856
  0
LINE
  5
230
100
AcDbEntity
  8
0
100
AcDbLine
 62
7
  6
CONTINUOUS
 10
50.9689442511
 20
106.6215217603
 11
81.9775355983
 21
106.6215217603
  0
LINE
  5
231
100
AcDbEntity
  8
0
100
AcDbLine
 62
7
  6
CONTINUOUS
 10
81.9775355983
 20
106.7745334731
 11
107.5775355983
 21
106.7745334731
  0
LINE
  5
232
100
AcDbEntity
  8
0
100
AcDbLine
 62
7
  6
CONTINUOUS
 10
125.5775355983
 20
106.7745334731
 11
137.9775355983
 21
106.7745334731
  0
LINE
  5
233
100
AcDbEntity
  8
0
100
AcDbLine
 62
7
  6
CONTINUOUS
 10
107.5775355983
 20
106.80548257
 11
125.5775355983
 21
106.80548257
  0
LINE
  5
234
100
AcDbEntity
  8
0
100
AcDbLine
 62
7
  6
CONTINUOUS
 10
81.9775355983
 20
109.0117238203
 11
51.335848682
 21
109.0117238203
  0
LINE
  5
235
100
AcDbEntity
  8
0
100
AcDbLine
 62
7
  6
CONTINUOUS
 10
137.9775355983
 20
109.4877358115
 11
125.5775355983
 21
109.4877358115
  0
LINE
  5
236
100
AcDbEntity
  8
0
100
AcDbLine
 62
7
  6
CONTINUOUS
 10
107.5775355983
 20
109.4877358115
 11
81.9775355983
 21
109.4877358115
  0
LINE
  5
237
100
AcDbEntity
  8
0
100
AcDbLine
 62
7
  6
CONTINUOUS
 10
125.5775355983
 20
109.5077358115
 11
107.5775355983
 21
109.5077358115
  0
LINE
  5
238
100
AcDbEntity
  8
0
100
AcDbLine
 62
7
  6
CONTINUOUS
 10
52.0773876194
 20
110.4435079791
 11
81.9775355983
 21
110.4435079791
  0
LINE
  5
239
100
AcDbEntity
  8
0
100
AcDbLine
 62
7
  6
CONTINUOUS
 10
81.9775355983
 20
110.9195199703
 11
107.5775355983
 21
110.9195199703
  0
LINE
  5
23A
100
AcDbEntity
  8
0
100
AcDbLine
 62
7
  6
CONTINUOUS
 10
125.5775355983
 20
110.9195199703
 11
137.9775355983
 21
110.9195199703
  0
LINE
  5
23B
100
AcDbEntity
  8
0
100
AcDbLine
 62
7
  6
CONTINUOUS
 10
107.5775355983
 20
110.9395199703
 11
125.5775355983
 21
110.9395199703
  0
LINE
  5
23C
100
AcDbEntity
  8
0
100
AcDbLine
 62
7
  6
CONTINUOUS
 10
67.219295846
 20
164.2181445881
 11
66.9775355983
 21
165.5892350856
  0
LINE
  5
23D
100
AcDbEntity
  8
0
100
AcDbLine
 62
7
  6
CONTINUOUS
 10
145.9775355983
 20
111.4892350856
 11
143.9775355983
 21
111.4892350856
  0
LINE
  5
23E
100
AcDbEntity
  8
0
100
AcDbLine
 62
7
  6
CONTINUOUS
 10
137.9775355983
 20
115.4892350856
 11
125.5775355983
 21
115.4892350856
  0
LINE
  5
23F
100
AcDbEntity
  8
0
100
AcDbLine
 62
7
  6
CONTINUOUS
 10
107.5775355983
 20
115.4892350856
 11
53.1614460501
 21
115.4892350856
  0
LINE
  5
240
100
AcDbEntity
  8
0
100
AcDbLine
 62
7
  6
CONTINUOUS
 10
125.5775355983
 20
115.9469564581
 11
107.5775355983
 21
115.9469564581
  0
LINE
  5
241
100
AcDbEntity
  8
0
100
AcDbLine
 62
7
  6
CONTINUOUS
 10
81.9775355983
 20
98.4892350856
 11
81.9775355983
 21
164.4892350856
  0
LINE
  5
242
100
AcDbEntity
  8
0
100
AcDbLine
 62
7
  6
CONTINUOUS
 10
80.6714952771
 20
164.4892350856
 11
80.4775355983
 21
165.5892350856
  0
LINE
  5
243
100
AcDbEntity
  8
0
100
AcDbLine
 62
7
  6
CONTINUOUS
 10
168.9775355983
 20
127.4892350856
 11
145.9775355983
 21
127.4892350856
  0
LINE
  5
244
100
AcDbEntity
  8
0
100
AcDbLine
 62
7
  6
CONTINUOUS
 10
168.9775355983
 20
135.4892350856
 11
145.9775355983
 21
135.4892350856
  0
LINE
  5
245
100
AcDbEntity
  8
0
100
AcDbLine
 62
7
  6
CONTINUOUS
 10
107.5775355983
 20
98.9892559182
 11
107.5775355983
 21
163.989214253
  0
LINE
  5
246
100
AcDbEntity
  8
0
100
AcDbLine
 62
7
  6
CONTINUOUS
 10
53.1614460501
 20
147.4892350856
 11
107.5775355983
 21
147.4892350856
  0
LINE
  5
247
100
AcDbEntity
  8
0
100
AcDbLine
 62
7
  6
CONTINUOUS
 10
125.5775355983
 20
147.4892350856
 11
137.9775355983
 21
147.4892350856
  0
LINE
  5
248
100
AcDbEntity
  8
0
100
AcDbLine
 62
7
  6
CONTINUOUS
 10
107.5775355983
 20
147.9069564581
 11
125.5775355983
 21
147.9069564581
  0
LINE
  5
249
100
AcDbEntity
  8
0
100
AcDbLine
 62
7
  6
CONTINUOUS
 10
145.9775355983
 20
151.4892350856
 11
143.9775355983
 21
151.4892350856
  0
LINE
  5
24A
100
AcDbEntity
  8
0
100
AcDbLine
 62
7
  6
CONTINUOUS
 10
125.5775355983
 20
152.0389502009
 11
107.5775355983
 21
152.0389502009
  0
LINE
  5
24B
100
AcDbEntity
  8
0
100
AcDbLine
 62
7
  6
CONTINUOUS
 10
137.9775355983
 20
152.0589502009
 11
125.5775355983
 21
152.0589502009
  0
LINE
  5
24C
100
AcDbEntity
  8
0
100
AcDbLine
 62
7
  6
CONTINUOUS
 10
107.5775355983
 20
152.0589502009
 11
81.9775355983
 21
152.0589502009
  0
LINE
  5
24D
100
AcDbEntity
  8
0
100
AcDbLine
 62
7
  6
CONTINUOUS
 10
81.9775355983
 20
152.5349621921
 11
52.0773876194
 21
152.5349621921
  0
LINE
  5
24E
100
AcDbEntity
  8
0
100
AcDbLine
 62
7
  6
CONTINUOUS
 10
107.5775355983
 20
153.4707343597
 11
125.5775355983
 21
153.4707343597
  0
LINE
  5
24F
100
AcDbEntity
  8
0
100
AcDbLine
 62
7
  6
CONTINUOUS
 10
81.9775355983
 20
153.4907343597
 11
107.5775355983
 21
153.4907343597
  0
LINE
  5
250
100
AcDbEntity
  8
0
100
AcDbLine
 62
7
  6
CONTINUOUS
 10
125.5775355983
 20
153.4907343597
 11
137.9775355983
 21
153.4907343597
  0
LINE
  5
251
100
AcDbEntity
  8
0
100
AcDbLine
 62
7
  6
CONTINUOUS
 10
51.335848682
 20
153.9667463509
 11
81.9775355983
 21
153.9667463509
  0
LINE
  5
252
100
AcDbEntity
  8
0
100
AcDbLine
 62
7
  6
CONTINUOUS
 10
125.5775355983
 20
156.1729876012
 11
107.5775355983
 21
156.1729876012
  0
LINE
  5
253
100
AcDbEntity
  8
0
100
AcDbLine
 62
7
  6
CONTINUOUS
 10
137.9775355983
 20
156.203936698
 11
125.5775355983
 21
156.203936698
  0
LINE
  5
254
100
AcDbEntity
  8
0
100
AcDbLine
 62
7
  6
CONTINUOUS
 10
107.5775355983
 20
156.203936698
 11
81.9775355983
 21
156.203936698
  0
LINE
  5
255
100
AcDbEntity
  8
0
100
AcDbLine
 62
7
  6
CONTINUOUS
 10
81.9775355983
 20
156.3569484108
 11
50.9689442511
 21
156.3569484108
  0
LINE
  5
256
100
AcDbEntity
  8
0
100
AcDbLine
 62
7
  6
CONTINUOUS
 10
25.0896948234
 20
157.0892350856
 11
29.4775355983
 21
157.0892350856
  0
LINE
  5
257
100
AcDbEntity
  8
0
100
AcDbLine
 62
7
  6
CONTINUOUS
 10
137.9775355983
 20
157.1892350856
 11
143.9775355983
 21
157.1892350856
  0
LINE
  5
258
100
AcDbEntity
  8
0
100
AcDbLine
 62
7
  6
CONTINUOUS
 10
125.5775355983
 20
98.9892559182
 11
125.5775355983
 21
163.989214253
  0
LINE
  5
259
100
AcDbEntity
  8
0
100
AcDbLine
 62
7
  6
CONTINUOUS
 10
21.9775419791
 20
160.0892350856
 11
50.3395596082
 21
160.0892350856
  0
LINE
  5
25A
100
AcDbEntity
  8
0
100
AcDbLine
 62
7
  6
CONTINUOUS
 10
81.9775355983
 20
160.6581475285
 11
107.5775355983
 21
160.6581475285
  0
LINE
  5
25B
100
AcDbEntity
  8
0
100
AcDbLine
 62
7
  6
CONTINUOUS
 10
125.5775355983
 20
160.6581475285
 11
137.9775355983
 21
160.6581475285
  0
LINE
  5
25C
100
AcDbEntity
  8
0
100
AcDbLine
 62
7
  6
CONTINUOUS
 10
107.5775355983
 20
160.670660782
 11
125.5775355983
 21
160.670660782
  0
LINE
  5
25D
100
AcDbEntity
  8
0
100
AcDbLine
 62
7
  6
CONTINUOUS
 10
50.7594861618
 20
160.8111592413
 11
81.9775355983
 21
160.8111592413
  0
LINE
  5
25E
100
AcDbEntity
  8
0
100
AcDbLine
 62
7
  6
CONTINUOUS
 10
38.4275355983
 20
162.0892350856
 11
47.9775355983
 21
162.0892350856
  0
LINE
  5
25F
100
AcDbEntity
  8
0
100
AcDbLine
 62
7
  6
CONTINUOUS
 10
44.7275355983
 20
163.5892350856
 11
52.7275355983
 21
163.5892350856
  0
LINE
  5
260
100
AcDbEntity
  8
0
100
AcDbLine
 62
7
  6
CONTINUOUS
 10
143.9775355983
 20
163.9892350856
 11
81.9775355983
 21
163.9892350856
  0
LINE
  5
261
100
AcDbEntity
  8
0
100
AcDbLine
 62
7
  6
CONTINUOUS
 10
81.9775355983
 20
164.4892350856
 11
75.9775355983
 21
164.4892350856
  0
LINE
  5
262
100
AcDbEntity
  8
0
100
AcDbLine
 62
7
  6
CONTINUOUS
 10
45.2275355983
 20
165.5892350856
 11
52.2275355983
 21
165.5892350856
  0
LINE
  5
263
100
AcDbEntity
  8
0
100
AcDbLine
 62
7
  6
CONTINUOUS
 10
57.4775355983
 20
165.5892350856
 11
66.9775355983
 21
165.5892350856
  0
LINE
  5
264
100
AcDbEntity
  8
0
100
AcDbLine
 62
7
  6
CONTINUOUS
 10
70.9775355983
 20
165.5892350856
 11
80.4775355983
 21
165.5892350856
  0
LINE
  5
265
100
AcDbEntity
  8
0
100
AcDbLine
 62
7
  6
CONTINUOUS
 10
137.9775355983
 20
98.9892350856
 11
137.9775355983
 21
115.4892350856
  0
LINE
  5
266
100
AcDbEntity
  8
0
100
AcDbLine
 62
7
  6
CONTINUOUS
 10
137.9775355983
 20
147.4892350856
 11
137.9775355983
 21
163.9892350856
  0
LINE
  5
267
100
AcDbEntity
  8
0
100
AcDbLine
 62
7
  6
CONTINUOUS
 10
143.9775355983
 20
98.9892350856
 11
143.9775355983
 21
163.9892350856
  0
LINE
  5
268
100
AcDbEntity
  8
0
100
AcDbLine
 62
7
  6
CONTINUOUS
 10
145.9775355983
 20
151.4889063959
 11
145.9775355983
 21
111.4895637753
  0
LINE
  5
269
100
AcDbEntity
  8
0
100
AcDbLine
 62
7
  6
CONTINUOUS
 10
168.9775355983
 20
135.4889771565
 11
168.9775355983
 21
127.4894930147
  0
ARC
  5
26A
100
AcDbEntity
  8
0
100
AcDbCircle
 62
7
  6
CONTINUOUS
 10
75.9775355983
 20
298.4892350856
 40
200.0
100
AcDbArc
 50
261.9521537527
 51
270.0
  0
ARC
  5
26B
100
AcDbEntity
  8
0
100
AcDbCircle
 62
7
  6
CONTINUOUS
 10
75.9775355983
 20
-35.5107649144
 40
200.0
100
AcDbArc
 50
90.0
 51
98.0478429158
  0
SPLINE
  5
26C
100
AcDbEntity
  8
0
100
AcDbSpline
 62
7
  6
CONTINUOUS
 70
0
 71
3
 72
17
 73
13
 74
0
 42
0.0000001
 43
0.0000001
 44
0.0000000001
 40
0.0
 40
0.0
 40
0.0
 40
0.0
 40
0.375024486
 40
0.5442886237
 40
0.6927843205
 40
0.7575315424
 40
0.8151825806
 40
0.8653263089
 40
0.9076360627
 40
0.9419278884
 40
0.9682497617
 40
1.0
 40
1.0
 40
1.0
 40
1.0
 10
25.0896915418
 20
157.1055808159
 30
0.0
 10
25.0893888104
 20
157.4883025777
 30
0.0
 10
25.0742042806
 20
158.044006364
 30
0.0
 10
25.0205104607
 20
158.7490668433
 30
0.0
 10
24.9759707722
 20
159.1370250615
 30
0.0
 10
24.9332550571
 20
159.4102154852
 30
0.0
 10
24.9004542746
 20
159.5832076059
 30
0.0
 10
24.8656560931
 20
159.732595873
 30
0.0
 10
24.8298951915
 20
159.8565319678
 30
0.0
 10
24.7919049251
 20
159.9559563591
 30
0.0
 10
24.7508525017
 20
160.0369452054
 30
0.0
 10
24.7020331433
 20
160.0892350856
 30
0.0
 10
24.6696312298
 20
160.0892350856
 30
0.0
  0
SPLINE
  5
26D
100
AcDbEntity
  8
0
100
AcDbSpline
 62
7
  6
CONTINUOUS
 70
0
 71
3
 72
17
 73
13
 74
0
 42
0.0000001
 43
0.0000001
 44
0.0000000001
 40
0.0
 40
0.0
 40
0.0
 40
0.0
 40
0.0317290024
 40
0.0580711894
 40
0.0924005544
 40
0.134758777
 40
0.1849583689
 40
0.242666752
 40
0.3074701227
 40
0.4560532341
 40
0.6253385607
 40
1.0
 40
1.0
 40
1.0
 40
1.0
 10
24.6696312298
 20
102.8892350856
 30
0.0
 10
24.7021840365
 20
102.8892350856
 30
0.0
 10
24.7511700013
 20
102.9419576225
 30
0.0
 10
24.7923281074
 20
103.0234448471
 30
0.0
 10
24.8304361903
 20
103.1235590632
 30
0.0
 10
24.8662958779
 20
103.2483289492
 30
0.0
 10
24.9011784075
 20
103.3987083954
 30
0.0
 10
24.9340443012
 20
103.5728194289
 30
0.0
 10
24.9768102922
 20
103.8477021376
 30
0.0
 10
25.0213383559
 20
104.2379261498
 30
0.0
 10
25.0748199061
 20
104.9465200438
 30
0.0
 10
25.0896948234
 20
105.5048460249
 30
0.0
 10
25.0896948234
 20
105.8892350856
 30
0.0
  0
SPLINE
  5
26E
100
AcDbEntity
  8
0
100
AcDbSpline
 62
7
  6
CONTINUOUS
 70
0
 71
3
 72
15
 73
11
 74
0
 42
0.0000001
 43
0.0000001
 44
0.0000000001
 40
0.0
 40
0.0
 40
0.0
 40
0.0
 40
0.1281190672
 40
0.2533811868
 40
0.3755010332
 40
0.4959058103
 40
0.6175860012
 40
0.7423313154
 40
0.8700331635
 40
1.0
 40
1.0
 40
1.0
 40
1.0
 10
60.4202963828
 20
163.8108151207
 30
0.0
 10
60.3669389107
 20
163.8660092934
 30
0.0
 10
60.2551755182
 20
163.9695181167
 30
0.0
 10
60.0665082444
 20
164.0945863169
 30
0.0
 10
59.8565762964
 20
164.1708292761
 30
0.0
 10
59.6342298841
 20
164.1770302904
 30
0.0
 10
59.4212089728
 20
164.1108551694
 30
0.0
 10
59.2290879327
 20
163.9923004024
 30
0.0
 10
59.0569838659
 20
163.83991454
 30
0.0
 10
58.9541218636
 20
163.7243932518
 30
0.0
 10
58.9048075328
 20
163.6641211009
 30
0.0
  0
SPLINE
  5
26F
100
AcDbEntity
  8
0
100
AcDbSpline
 62
7
  6
CONTINUOUS
 70
0
 71
3
 72
12
 73
8
 74
0
 42
0.0000001
 43
0.0000001
 44
0.0000000001
 40
0.0
 40
0.0
 40
0.0
 40
0.0
 40
0.3298007409
 40
0.6153090387
 40
0.8418868784
 40
0.9298881676
 40
1.0
 40
1.0
 40
1.0
 40
1.0
 10
50.9689442511
 20
106.6215217603
 30
0.0
 10
50.981714664
 20
106.888171809
 30
0.0
 10
51.0145783769
 20
107.3853745974
 30
0.0
 10
51.0922264736
 20
108.0625315021
 30
0.0
 10
51.1790910447
 20
108.5414100851
 30
0.0
 10
51.2644408284
 20
108.8410575751
 30
0.0
 10
51.3108112555
 20
108.9607936495
 30
0.0
 10
51.335848682
 20
109.0117238203
 30
0.0
  0
SPLINE
  5
270
100
AcDbEntity
  8
0
100
AcDbSpline
 62
7
  6
CONTINUOUS
 70
0
 71
3
 72
8
 73
4
 74
0
 42
0.0000001
 43
0.0000001
 44
0.0000000001
 40
0.0
 40
0.0
 40
0.0
 40
0.0
 40
1.0
 40
1.0
 40
1.0
 40
1.0
 10
50.7594861618
 20
102.1673109298
 30
0.0
 10
50.8280216283
 20
103.6521076919
 30
0.0
 10
50.8978401008
 20
105.1368457908
 30
0.0
 10
50.9689442511
 20
106.6215217603
 30
0.0
  0
SPLINE
  5
271
100
AcDbEntity
  8
0
100
AcDbSpline
 62
7
  6
CONTINUOUS
 70
0
 71
3
 72
9
 73
5
 74
0
 42
0.0000001
 43
0.0000001
 44
0.0000000001
 40
0.0
 40
0.0
 40
0.0
 40
0.0
 40
0.4660866004
 40
1.0
 40
1.0
 40
1.0
 40
1.0
 10
50.5851857102
 20
100.1068889264
 30
0.0
 10
50.627917705
 20
100.425360886
 30
0.0
 10
50.6991359039
 20
101.111403705
 30
0.0
 10
50.7425184471
 20
101.7996056395
 30
0.0
 10
50.7594905754
 20
102.1673008259
 30
0.0
  0
SPLINE
  5
272
100
AcDbEntity
  8
0
100
AcDbSpline
 62
7
  6
CONTINUOUS
 70
0
 71
3
 72
9
 73
5
 74
0
 42
0.0000001
 43
0.0000001
 44
0.0000000001
 40
0.0
 40
0.0
 40
0.0
 40
0.0
 40
0.5339166968
 40
1.0
 40
1.0
 40
1.0
 40
1.0
 10
50.7594894722
 20
160.8111668326
 30
0.0
 10
50.7425237648
 20
161.1787229871
 30
0.0
 10
50.6991754473
 20
161.8666613856
 30
0.0
 10
50.6279900705
 20
162.5524414718
 30
0.0
 10
50.5852739327
 20
162.8707886773
 30
0.0
  0
SPLINE
  5
273
100
AcDbEntity
  8
0
100
AcDbSpline
 62
7
  6
CONTINUOUS
 70
0
 71
3
 72
8
 73
4
 74
0
 42
0.0000001
 43
0.0000001
 44
0.0000000001
 40
0.0
 40
0.0
 40
0.0
 40
0.0
 40
1.0
 40
1.0
 40
1.0
 40
1.0
 10
50.9689442511
 20
156.3569484108
 30
0.0
 10
50.8978401008
 20
157.8416243804
 30
0.0
 10
50.8280216146
 20
159.3263624786
 30
0.0
 10
50.7594861618
 20
160.8111592413
 30
0.0
  0
SPLINE
  5
274
100
AcDbEntity
  8
0
100
AcDbSpline
 62
7
  6
CONTINUOUS
 70
0
 71
3
 72
12
 73
8
 74
0
 42
0.0000001
 43
0.0000001
 44
0.0000000001
 40
0.0
 40
0.0
 40
0.0
 40
0.0
 40
0.0701118334
 40
0.1581131246
 40
0.3846909676
 40
0.6701992638
 40
1.0
 40
1.0
 40
1.0
 40
1.0
 10
51.335848682
 20
153.9667463509
 30
0.0
 10
51.3108112551
 20
154.0176765224
 30
0.0
 10
51.2644408279
 20
154.1374125993
 30
0.0
 10
51.1790910424
 20
154.4370600941
 30
0.0
 10
51.0922264723
 20
154.9159386804
 30
0.0
 10
51.0145783761
 20
155.5930955826
 30
0.0
 10
50.9817146638
 20
156.090298366
 30
0.0
 10
50.9689442511
 20
156.3569484108
 30
0.0
  0
SPLINE
  5
275
100
AcDbEntity
  8
0
100
AcDbSpline
 62
7
  6
CONTINUOUS
 70
0
 71
3
 72
13
 73
9
 74
0
 42
0.0000001
 43
0.0000001
 44
0.0000000001
 40
0.0
 40
0.0
 40
0.0
 40
0.0
 40
0.3285560427
 40
0.6116899935
 40
0.7324915878
 40
0.8379762766
 40
0.9273065465
 40
1.0
 40
1.0
 40
1.0
 40
1.0
 10
52.6700089577
 20
149.5281015832
 30
0.0
 10
52.6437361047
 20
149.8643358344
 30
0.0
 10
52.5810819747
 20
150.4893444316
 30
0.0
 10
52.465414312
 20
151.2329248984
 30
0.0
 10
52.3539807745
 20
151.743977373
 30
0.0
 10
52.2694857413
 20
152.0569432663
 30
0.0
 10
52.1808410183
 20
152.31702131
 30
0.0
 10
52.1130604789
 20
152.4694225372
 30
0.0
 10
52.0773876194
 20
152.5349621921
 30
0.0
  0
SPLINE
  5
276
100
AcDbEntity
  8
0
100
AcDbSpline
 62
7
  6
CONTINUOUS
 70
0
 71
3
 72
13
 73
9
 74
0
 42
0.0000001
 43
0.0000001
 44
0.0000000001
 40
0.0
 40
0.0
 40
0.0
 40
0.0
 40
0.0726934641
 40
0.1620237544
 40
0.2675084656
 40
0.3883100757
 40
0.6714440065
 40
1.0
 40
1.0
 40
1.0
 40
1.0
 10
52.0773876194
 20
110.4435079791
 30
0.0
 10
52.1130604841
 20
110.5090476435
 30
0.0
 10
52.1808410295
 20
110.6614489031
 30
0.0
 10
52.2694857744
 20
110.921526997
 30
0.0
 10
52.353980817
 20
111.2344929505
 30
0.0
 10
52.465414342
 20
111.7455454468
 30
0.0
 10
52.5810819971
 20
112.4891258591
 30
0.0
 10
52.6437361086
 20
113.114134387
 30
0.0
 10
52.6700089577
 20
113.450368588
 30
0.0
  0
SPLINE
  5
277
100
AcDbEntity
  8
0
100
AcDbSpline
 62
7
  6
CONTINUOUS
 70
0
 71
3
 72
10
 73
6
 74
0
 42
0.0000001
 43
0.0000001
 44
0.0000000001
 40
0.0
 40
0.0
 40
0.0
 40
0.0
 40
0.241397597
 40
0.4904003274
 40
1.0
 40
1.0
 40
1.0
 40
1.0
 10
52.6700089577
 20
113.450368588
 30
0.0
 10
52.6831773219
 20
113.6188944454
 30
0.0
 10
52.7363087346
 20
113.9591255283
 30
0.0
 10
52.8996539469
 20
114.6402770208
 30
0.0
 10
53.0566715643
 20
115.1481140739
 30
0.0
 10
53.1614460501
 20
115.4892350856
 30
0.0
  0
SPLINE
  5
278
100
AcDbEntity
  8
0
100
AcDbSpline
 62
7
  6
CONTINUOUS
 70
0
 71
3
 72
10
 73
6
 74
0
 42
0.0000001
 43
0.0000001
 44
0.0000000001
 40
0.0
 40
0.0
 40
0.0
 40
0.0
 40
0.5095997687
 40
0.7586024333
 40
1.0
 40
1.0
 40
1.0
 40
1.0
 10
53.1614460501
 20
147.4892350856
 30
0.0
 10
53.0566715447
 20
147.8303561608
 30
0.0
 10
52.8996538489
 20
148.3381932177
 30
0.0
 10
52.7363088267
 20
149.0193447489
 30
0.0
 10
52.6831773202
 20
149.3595757473
 30
0.0
 10
52.6700089577
 20
149.5281015832
 30
0.0
  0
ELLIPSE
  5
279
100
AcDbEntity
  8
0
100
AcDbEllipse
 62
7
  6
CONTINUOUS
 10
321.9775355983
 20
167.714217402
 30
0.0
 11
274.0
 21
-0.0
 31
0.0
 40
0.3214450805
 41
-2.984865268
 42
-2.9683851004
  0
ELLIPSE
  5
27A
100
AcDbEntity
  8
0
100
AcDbEllipse
 62
7
  6
CONTINUOUS
 10
321.9775355983
 20
95.2642527692
 30
0.0
 11
274.0
 21
0.0
 31
0.0
 40
0.3214450805
 41
2.9683851004
 42
2.984865268
  0
ENDSEC
  0
SECTION
  2
OBJECTS
  0
DICTIONARY
  5
C
100
AcDbDictionary
280
0
281
1
  3
ACAD_GROUP
350
D
  3
ACAD_MLINESTYLE
350
17
  3
ACAD_LAYOUT
350
1A
  3
ACAD_PLOTSETTINGS
350
19
  3
ACAD_PLOTSTYLENAME
350
E
  0
DICTIONARY
  5
D
102
{ACAD_REACTORS
330
C
102
}
100
AcDbDictionary
280
0
281
1
  0
ACDBDICTIONARYWDFLT
  5
E
102
{ACAD_REACTORS
330
C
102
}
100
AcDbDictionary
281
1
  3
Normal
350
F
100
AcDbDictionaryWithDefault
340
F
  0
DICTIONARY
  5
17
102
{ACAD_REACTORS
330
C
102
}
100
AcDbDictionary
280
0
281
1
  3
Standard
350
18
  0
DICTIONARY
  5
19
102
{ACAD_REACTORS
330
C
102
}
100
AcDbDictionary
281
1
  0
DICTIONARY
  5
1A
102
{ACAD_REACTORS
330
C
102
}
100
AcDbDictionary
281
1
  3
Model
350
27B
  3
Layout1
350
27C
  0
ACDBPLACEHOLDER
  5
F
102
{ACAD_REACTORS
330
E
102
}
  0
MLINESTYLE
  5
18
102
{ACAD_REACTORS
330
17
102
}
100
AcDbMlineStyle
  2
STANDARD
 70
0
  3

 62
256
 51
90.0
 52
90.0
 71
2
 49
0.5
 62
256
  6
BYLAYER
 49
-0.5
 62
256
  6
BYLAYER
  0
LAYOUT
  5
27B
102
{ACAD_REACTORS
330
1A
102
}
100
AcDbPlotSettings
  1

  2
none_device
  4

  6

 40
0.0
 41
0.0
 42
0.0
 43
0.0
 44
210.0
 45
297.0
 46
0.0
 47
0.0
 48
0.0
 49
0.0
140
0.0
141
0.0
142
1.0
143
1.0
 70
1024
 72
1
 73
0
 74
0
  7

 75
0
147
1.0
148
0.0
149
0.0
100
AcDbLayout
  1
Model
 70
0
 71
0
 10
0.0
 20
0.0
 11
210.0
 21
297.0
 12
0.0
 22
0.0
 32
0.0
 14
0.0
 24
0.0
 34
0.0
 15
0.0
 25
0.0
 35
0.0
146
0.0
 13
0.0
 23
0.0
 33
0.0
 16
1.0
 26
0.0
 36
0.0
 17
0.0
 27
1.0
 37
0.0
 76
0
330
210
345
0
346
0
  0
LAYOUT
  5
27C
102
{ACAD_REACTORS
330
1A
102
}
100
AcDbPlotSettings
  1

  2
none_device
  4

  6

 40
0.0
 41
0.0
 42
0.0
 43
0.0
 44
210.0
 45
297.0
 46
0.0
 47
0.0
 48
0.0
 49
0.0
140
0.0
141
0.0
142
1.0
143
1.0
 70
0
 72
1
 73
0
 74
0
  7

 75
0
147
1.0
148
0.0
149
0.0
100
AcDbLayout
  1
Layout1
 70
0
 71
1
 10
0.0
 20
0.0
 11
210.0
 21
297.0
 12
0.0
 22
0.0
 32
0.0
 14
0.0
 24
0.0
 34
0.0
 15
0.0
 25
0.0
 35
0.0
146
0.0
 13
0.0
 23
0.0
 33
0.0
 16
1.0
 26
0.0
 36
0.0
 17
0.0
 27
1.0
 37
0.0
 76
0
330
211
345
0
346
0
  0
ENDSEC
  0
EOF
