999
DXF file: C:\Users\sesa63760\Dev\_Creo\CAD\MCADPD0004077_3D-CAD\drw0001_1.dxf
999
Pro/ENGINEER 2019471 by Parametric Technology Corporation
  0
SECTION
  2
HEADER
  9
$ACADVER
  1
AC1024
  9
$DWGCODEPAGE
  3
ANSI_1252
  9
$EXTMAX
 10
180.8302030275
 20
255.7455728532
 30
0.0
  9
$EXTMIN
 10
-0.0
 20
0.0
 30
0.0
  9
$LIMMIN
 10
-0.0
 20
0.0
  9
$LIMMAX
 10
180.8302030275
 20
255.7455728532
  9
$VIEWCTR
 10
90.4151015137
 20
127.8727864266
  9
$VIEWSIZE
 40
255.7455728532
  9
$CLAYER
  8
0
  9
$LTSCALE
 40
16.6708225267
  9
$CELTYPE
  6
BYLAYER
  9
$DIMSCALE
 40
1.0
  9
$DIMASZ
 40
2.1527405122
  9
$DIMEXO
 40
1.0
  9
$DIMDLI
 40
11.5180228366
  9
$DIMEXE
 40
1.0
  9
$DIMCEN
 40
2.7279527771
  9
$DIMLFAC
 40
1.0
  9
$DIMBLK
  1
_FILLED
  9
$DIMALT
 70
0
  9
$DIMALTF
 40
0.0393700787
  9
$DIMTXT
 40
3.0138367171
  9
$DIMTOL
 70
1
  9
$DIMLIM
 70
0
  9
$DIMTFAC
 40
1.0
  9
$DIMTP
 40
0.01
  9
$DIMTM
 40
0.01
  9
$DIMGAP
 40
0.625
  9
$DIMDSEP
 70
46
  9
$AUNITS
 70
0
  9
$PDMODE
 70
3
  9
$PDSIZE
 40
0.3125
  9
$HANDSEED
  5
2D4
  9
$TILEMODE
 70
1
  9
$MEASUREMENT
 70
1
  9
$INSUNITS
 70
4
  0
ENDSEC
  0
SECTION
  2
CLASSES
  0
CLASS
  1
ACDBDICTIONARYWDFLT
  2
AcDbDictionaryWithDefault
  3
AutoCAD 2000
 90
0
 91
1
280
0
281
0
  0
CLASS
  1
ACDBPLACEHOLDER
  2
AcDbPlaceHolder
  3
AutoCAD 2000
 90
0
 91
1
280
0
281
0
  0
CLASS
  1
LAYOUT
  2
AcDbLayout
  3
AutoCAD 2000
 90
0
 91
0
280
0
281
0
  0
ENDSEC
  0
SECTION
  2
TABLES
  0
TABLE
  2
VPORT
  5
8
100
AcDbSymbolTable
 70
2
  0
VPORT
  5
1F4
100
AcDbSymbolTableRecord
100
AcDbViewportTableRecord
  2
*ACTIVE
 70
0
 10
0.0
 20
0.0
 11
1.0
 21
1.0
 12
90.4151015137
 22
127.8727864266
 13
0.0
 23
0.0
 14
1.0
 24
1.0
 15
0.0
 25
0.0
 16
0.0
 26
0.0
 36
1.0
 17
0.0
 27
0.0
 37
0.0
 40
255.7455728532
 41
0.7070707071
 42
50.0
 43
0.0
 44
0.0
 50
0.0
 51
0.0
 71
0
 72
100
 73
1
 74
1
 75
0
 76
0
 77
0
 78
0
  0
ENDTAB
  0
TABLE
  2
LTYPE
  5
5
100
AcDbSymbolTable
 70
6
  0
LTYPE
  5
14
100
AcDbSymbolTableRecord
100
AcDbLinetypeTableRecord
  2
BYBLOCK
 70
0
  3

 72
65
 73
0
 40
0.0
  0
LTYPE
  5
15
100
AcDbSymbolTableRecord
100
AcDbLinetypeTableRecord
  2
BYLAYER
 70
0
  3

 72
65
 73
0
 40
0.0
  0
LTYPE
  5
16
100
AcDbSymbolTableRecord
100
AcDbLinetypeTableRecord
  2
CONTINUOUS
 70
64
  3
Solid line
 72
65
 73
0
 40
0.0
  0
LTYPE
  5
1F5
100
AcDbSymbolTableRecord
100
AcDbLinetypeTableRecord
  2
CENTER
 70
64
  3
____ _ ____ _ ____ _ ____ _ ____ _ ____ _ ____
 72
65
 73
4
 40
0.6
 49
0.375
 74
0
 49
-0.075
 74
0
 49
0.075
 74
0
 49
-0.075
 74
0
  0
LTYPE
  5
1F6
100
AcDbSymbolTableRecord
100
AcDbLinetypeTableRecord
  2
HIDDEN
 70
64
  3
- - - - - - - - - - - - - - - - - - - -
 72
65
 73
2
 40
0.2
 49
0.1
 74
0
 49
-0.1
 74
0
  0
LTYPE
  5
1F7
100
AcDbSymbolTableRecord
100
AcDbLinetypeTableRecord
  2
PHANTOM
 70
64
  3
_____ _ _ _____ _ _ _____ _ _ _____
 72
65
 73
6
 40
0.8
 49
0.45
 74
0
 49
-0.05
 74
0
 49
0.1
 74
0
 49
-0.05
 74
0
 49
0.1
 74
0
 49
-0.05
 74
0
  0
LTYPE
  5
1F8
100
AcDbSymbolTableRecord
100
AcDbLinetypeTableRecord
  2
DOT
 70
64
  3
. . . . . . . . . . . . . . . . . . . .
 72
65
 73
2
 40
0.2
 49
0.1
 74
0
 49
-0.1
 74
0
  0
LTYPE
  5
1F9
100
AcDbSymbolTableRecord
100
AcDbLinetypeTableRecord
  2
DASHED
 70
64
  3
- - - - - - - - - - - - - - - - - - - -
 72
65
 73
2
 40
0.2
 49
0.1
 74
0
 49
-0.1
 74
0
  0
ENDTAB
  0
TABLE
  2
LAYER
  5
2
100
AcDbSymbolTable
 70
36
  0
LAYER
  5
10
100
AcDbSymbolTableRecord
100
AcDbLayerTableRecord
  2
0
 70
0
 62
7
  6
CONTINUOUS
370
-3
390
F
  0
LAYER
  5
1FA
100
AcDbSymbolTableRecord
100
AcDbLayerTableRecord
  2
DEFAULT_1
 70
0
 62
7
  6
CENTER
370
-3
390
F
  0
LAYER
  5
1FB
100
AcDbSymbolTableRecord
100
AcDbLayerTableRecord
  2
DEFAULT_2
 70
0
 62
7
  6
HIDDEN
370
-3
390
F
  0
LAYER
  5
1FC
100
AcDbSymbolTableRecord
100
AcDbLayerTableRecord
  2
DEFAULT_3
 70
0
 62
7
  6
PHANTOM
370
-3
390
F
  0
LAYER
  5
1FD
100
AcDbSymbolTableRecord
100
AcDbLayerTableRecord
  2
00_COMPONENTS
 70
0
 62
7
  6
CONTINUOUS
370
-3
390
F
  0
LAYER
  5
1FE
100
AcDbSymbolTableRecord
100
AcDbLayerTableRecord
  2
01_1_DEFAULT_DATUMS
 70
0
 62
7
  6
CONTINUOUS
370
-3
390
F
  0
LAYER
  5
1FF
100
AcDbSymbolTableRecord
100
AcDbLayerTableRecord
  2
01_PLANES
 70
0
 62
7
  6
CONTINUOUS
370
-3
390
F
  0
LAYER
  5
200
100
AcDbSymbolTableRecord
100
AcDbLayerTableRecord
  2
02_COORD_SYS
 70
0
 62
7
  6
CONTINUOUS
370
-3
390
F
  0
LAYER
  5
201
100
AcDbSymbolTableRecord
100
AcDbLayerTableRecord
  2
03_AXES
 70
0
 62
7
  6
CONTINUOUS
370
-3
390
F
  0
LAYER
  5
202
100
AcDbSymbolTableRecord
100
AcDbLayerTableRecord
  2
04_POINTS
 70
0
 62
7
  6
CONTINUOUS
370
-3
390
F
  0
LAYER
  5
203
100
AcDbSymbolTableRecord
100
AcDbLayerTableRecord
  2
05_CURVES
 70
0
 62
7
  6
CONTINUOUS
370
-3
390
F
  0
LAYER
  5
204
100
AcDbSymbolTableRecord
100
AcDbLayerTableRecord
  2
06_SURFS
 70
0
 62
7
  6
CONTINUOUS
370
-3
390
F
  0
LAYER
  5
205
100
AcDbSymbolTableRecord
100
AcDbLayerTableRecord
  2
07_COSMETICS
 70
0
 62
7
  6
CONTINUOUS
370
-3
390
F
  0
LAYER
  5
206
100
AcDbSymbolTableRecord
100
AcDbLayerTableRecord
  2
10_NOTES
 70
0
 62
7
  6
CONTINUOUS
370
-3
390
F
  0
LAYER
  5
207
100
AcDbSymbolTableRecord
100
AcDbLayerTableRecord
  2
11_NOTES_PUB
 70
0
 62
7
  6
CONTINUOUS
370
-3
390
F
  0
LAYER
  5
208
100
AcDbSymbolTableRecord
100
AcDbLayerTableRecord
  2
13_REF_GTOL
 70
0
 62
7
  6
CONTINUOUS
370
-3
390
F
  0
LAYER
  5
209
100
AcDbSymbolTableRecord
100
AcDbLayerTableRecord
  2
16_MISC
 70
0
 62
7
  6
CONTINUOUS
370
-3
390
F
  0
LAYER
  5
20A
100
AcDbSymbolTableRecord
100
AcDbLayerTableRecord
  2
17_NO_PRINT
 70
0
 62
7
  6
CONTINUOUS
370
-3
390
F
  0
LAYER
  5
20B
100
AcDbSymbolTableRecord
100
AcDbLayerTableRecord
  2
18_DATUM_CAMS_JOINTS
 70
0
 62
7
  6
CONTINUOUS
370
-3
390
F
  0
LAYER
  5
20C
100
AcDbSymbolTableRecord
100
AcDbLayerTableRecord
  2
19_DATUM_FUNCTIONAL
 70
0
 62
7
  6
CONTINUOUS
370
-3
390
F
  0
LAYER
  5
20D
100
AcDbSymbolTableRecord
100
AcDbLayerTableRecord
  2
20_DATUM_KINEMATIC_SCHEME
 70
0
 62
7
  6
CONTINUOUS
370
-3
390
F
  0
ENDTAB
  0
TABLE
  2
STYLE
  5
3
100
AcDbSymbolTable
 70
1
  0
STYLE
  5
11
100
AcDbSymbolTableRecord
100
AcDbTextStyleTableRecord
  2
STANDARD
 70
0
 40
0.0
 41
1.0
 50
0.0
 71
0
 42
0.2
  3
ARIAL.TTF
  4

  0
STYLE
  5
20E
100
AcDbSymbolTableRecord
100
AcDbTextStyleTableRecord
  2
TEXTSTYLE_1
 70
0
 40
0.0
 41
0.8
 50
0.0
 71
0
 42
0.2
  3
gdt
  4

  0
ENDTAB
  0
TABLE
  2
VIEW
  5
6
100
AcDbSymbolTable
 70
0
  0
ENDTAB
  0
TABLE
  2
UCS
  5
7
100
AcDbSymbolTable
 70
0
  0
ENDTAB
  0
TABLE
  2
APPID
  5
9
100
AcDbSymbolTable
 70
1
  0
APPID
  5
20F
100
AcDbSymbolTableRecord
100
AcDbRegAppTableRecord
  2
ACAD
 70
0
  0
ENDTAB
  0
TABLE
  2
BLOCK_RECORD
  5
1
100
AcDbSymbolTable
 70
0
  0
BLOCK_RECORD
  5
210
100
AcDbSymbolTableRecord
100
AcDbBlockTableRecord
  2
*Model_Space
  0
BLOCK_RECORD
  5
211
100
AcDbSymbolTableRecord
100
AcDbBlockTableRecord
  2
*Paper_Space
  0
BLOCK_RECORD
  5
212
100
AcDbSymbolTableRecord
100
AcDbBlockTableRecord
  2
_FILLED
  0
ENDTAB
  0
TABLE
  2
DIMSTYLE
  5
A
100
AcDbSymbolTable
 70
1
100
AcDbDimStyleTable
 71
0
  0
DIMSTYLE
105
213
100
AcDbSymbolTableRecord
100
AcDbDimStyleTableRecord
  2
STANDARD
 70
0
  3

  4

 40
1.0
 41
2.1527405122
 42
1.0
 43
0.38
 44
1.0
 45
0.0
 46
0.0
 47
0.01
 48
0.01
140
3.0138367171
141
0.09
142
0.0
143
25.4
144
1.0
145
0.0
146
1.0
147
0.625
 71
1
 72
0
 73
0
 74
0
 75
0
 76
0
 77
1
 78
8
 79
2
170
0
171
1
172
0
173
0
174
0
175
0
176
0
177
0
178
0
270
2
179
2
271
2
272
2
273
2
274
2
275
0
280
0
281
0
282
0
283
1
284
8
285
0
286
0
287
3
288
0
340
11
278
46
341
212
342
212
343
212
344
212
  0
ENDTAB
  0
ENDSEC
  0
SECTION
  2
BLOCKS
  0
BLOCK
  5
20
100
AcDbEntity
  8
0
100
AcDbBlockBegin
  2
*Model_Space
 70
0
 10
0.0
 20
0.0
 30
0.0
  3
*Model_Space
  1

  0
ENDBLK
  5
21
100
AcDbEntity
  8
0
100
AcDbBlockEnd
  0
BLOCK
  5
1C
100
AcDbEntity
  8
0
100
AcDbBlockBegin
  2
*Paper_Space
 70
0
 10
0.0
 20
0.0
 30
0.0
  3
*Paper_Space
  1

  0
ENDBLK
  5
1D
100
AcDbEntity
  8
0
100
AcDbBlockEnd
  0
BLOCK
  5
214
100
AcDbEntity
  8
0
100
AcDbBlockBegin
  2
_FILLED
 70
64
 10
0.0
 20
0.0
  3
_FILLED
  1

  0
SOLID
  5
215
100
AcDbEntity
  8
0
  6
BYBLOCK
 62
0
100
AcDbTrace
 10
0.0
 20
0.0
 11
-1.0
 21
0.25
 12
-1.0
 22
-0.25
 13
-1.0
 23
-0.25
  0
ENDBLK
  5
216
100
AcDbEntity
  8
0
  6
BYBLOCK
 62
0
100
AcDbBlockEnd
  0
ENDSEC
  0
SECTION
  2
ENTITIES
  0
LINE
  5
217
100
AcDbEntity
  8
0
100
AcDbLine
 62
7
  6
BYLAYER
 10
21.6987287722
 20
135.955339153
 11
21.6987287722
 21
160.8587766992
  0
LINE
  5
218
100
AcDbEntity
  8
0
100
AcDbLine
 62
7
  6
BYLAYER
 10
21.5021773077
 20
135.0029389687
 11
20.9783840521
 21
97.9765894584
  0
LINE
  5
219
100
AcDbEntity
  8
0
100
AcDbLine
 62
7
  6
BYLAYER
 10
78.4745947694
 20
195.0261966589
 11
80.3929193919
 21
196.133735285
  0
LINE
  5
21A
100
AcDbEntity
  8
0
100
AcDbLine
 62
7
  6
BYLAYER
 10
21.6987287722
 20
160.8587766992
 11
77.9157508438
 21
193.3154957848
  0
LINE
  5
21B
100
AcDbEntity
  8
0
100
AcDbLine
 62
7
  6
BYLAYER
 10
83.1855743855
 20
196.3580116638
 11
88.6261069644
 21
199.4990858631
  0
LINE
  5
21C
100
AcDbEntity
  8
0
100
AcDbLine
 62
7
  6
BYLAYER
 10
77.3124602889
 20
192.3140212393
 11
78.1940532666
 21
192.8230061441
  0
LINE
  5
21D
100
AcDbEntity
  8
0
100
AcDbLine
 62
7
  6
BYLAYER
 10
81.0224921672
 20
191.190043126
 11
80.1408991894
 21
190.6810582212
  0
LINE
  5
21E
100
AcDbEntity
  8
0
100
AcDbLine
 62
7
  6
BYLAYER
 10
20.9783840521
 20
97.9765894584
 11
42.6799116989
 21
85.4474900758
  0
LINE
  5
21F
100
AcDbEntity
  8
0
100
AcDbLine
 62
7
  6
BYLAYER
 10
45.7272244322
 20
83.6881630502
 11
67.428752079
 21
71.1590636676
  0
LINE
  5
220
100
AcDbEntity
  8
0
100
AcDbLine
 62
7
  6
BYLAYER
 10
70.4760648124
 20
69.399736642
 11
92.1775924592
 21
56.8706372594
  0
LINE
  5
221
100
AcDbEntity
  8
0
100
AcDbLine
 62
7
  6
BYLAYER
 10
95.733116995
 20
57.2865396248
 11
94.3155270872
 21
58.1049670244
  0
LINE
  5
222
100
AcDbEntity
  8
0
100
AcDbLine
 62
7
  6
BYLAYER
 10
70.510704501
 20
71.848376835
 11
69.566686707
 21
72.3933934326
  0
LINE
  5
223
100
AcDbEntity
  8
0
100
AcDbLine
 62
7
  6
BYLAYER
 10
45.7618641209
 20
86.1368032432
 11
44.8178463269
 21
86.6818198408
  0
LINE
  5
224
100
AcDbEntity
  8
0
100
AcDbLine
 62
7
  6
BYLAYER
 10
81.0224921672
 20
189.8019890169
 11
80.1408991894
 21
189.2930041121
  0
LINE
  5
225
100
AcDbEntity
  8
0
100
AcDbLine
 62
7
  6
BYLAYER
 10
90.6060718966
 20
190.3544596482
 11
92.4445418734
 21
191.4158944483
  0
LINE
  5
226
100
AcDbEntity
  8
0
100
AcDbLine
 62
7
  6
BYLAYER
 10
90.6060718966
 20
189.1297060225
 11
92.4445418734
 21
190.1911408226
  0
LINE
  5
227
100
AcDbEntity
  8
0
100
AcDbLine
 62
7
  6
BYLAYER
 10
44.8178463269
 20
86.6818198408
 11
44.5737283807
 21
123.8285764468
  0
LINE
  5
228
100
AcDbEntity
  8
0
100
AcDbLine
 62
7
  6
BYLAYER
 10
42.7154689106
 20
122.7555573847
 11
42.6799116989
 21
85.4474900758
  0
LINE
  5
229
100
AcDbEntity
  8
0
100
AcDbLine
 62
7
  6
BYLAYER
 10
99.1620842623
 20
187.5376072803
 11
97.3236142855
 21
186.4761724803
  0
LINE
  5
22A
100
AcDbEntity
  8
0
100
AcDbLine
 62
7
  6
BYLAYER
 10
97.9953673468
 20
186.2516407452
 11
94.3184273933
 21
184.128771145
  0
LINE
  5
22B
100
AcDbEntity
  8
0
100
AcDbLine
 62
7
  6
BYLAYER
 10
46.2510176892
 20
120.7145126593
 11
45.7272244322
 21
83.6881630502
  0
LINE
  5
22C
100
AcDbEntity
  8
0
100
AcDbLine
 62
7
  6
BYLAYER
 10
97.9953673468
 20
184.2103847023
 11
96.0862322542
 21
183.1081516222
  0
LINE
  5
22D
100
AcDbEntity
  8
0
100
AcDbLine
 62
7
  6
BYLAYER
 10
25.3278054026
 20
140.3657941806
 11
23.5105523592
 21
139.3166089096
  0
LINE
  5
22E
100
AcDbEntity
  8
0
100
AcDbLine
 62
7
  6
BYLAYER
 10
110.3697292463
 20
187.1906281341
 11
110.1575980952
 21
187.068154888
  0
LINE
  5
22F
100
AcDbEntity
  8
0
100
AcDbLine
 62
7
  6
BYLAYER
 10
62.4634457471
 20
159.3279654822
 11
63.1705495843
 21
159.7362096361
  0
LINE
  5
230
100
AcDbEntity
  8
0
100
AcDbLine
 62
7
  6
BYLAYER
 10
30.0777841374
 20
139.89531353
 11
28.2777009026
 21
138.8560411934
  0
LINE
  5
231
100
AcDbEntity
  8
0
100
AcDbLine
 62
7
  6
BYLAYER
 10
100.6824149196
 20
180.4546043543
 11
104.3593548731
 21
182.5774739545
  0
LINE
  5
232
100
AcDbEntity
  8
0
100
AcDbLine
 62
7
  6
BYLAYER
 10
108.602013224
 20
180.1280294274
 11
104.9250732705
 21
178.0051598272
  0
LINE
  5
233
100
AcDbEntity
  8
0
100
AcDbLine
 62
7
  6
BYLAYER
 10
69.039560303
 20
156.3478113736
 11
68.3324564658
 21
155.9395672197
  0
LINE
  5
234
100
AcDbEntity
  8
0
100
AcDbLine
 62
7
  6
BYLAYER
 10
116.3801636765
 20
183.4756362482
 11
116.5922948276
 21
183.5981094944
  0
LINE
  5
235
100
AcDbEntity
  8
0
100
AcDbLine
 62
7
  6
BYLAYER
 10
108.602013224
 20
178.0867733845
 11
106.6928781315
 21
176.9845403044
  0
LINE
  5
236
100
AcDbEntity
  8
0
100
AcDbLine
 62
7
  6
BYLAYER
 10
36.0562976347
 20
134.3651678734
 11
37.8563808695
 21
135.4044402099
  0
LINE
  5
237
100
AcDbEntity
  8
0
100
AcDbLine
 62
7
  6
BYLAYER
 10
62.4634457471
 20
159.3279654822
 11
62.4634457471
 21
155.9423682911
  0
LINE
  5
238
100
AcDbEntity
  8
0
100
AcDbLine
 62
7
  6
BYLAYER
 10
63.1705495843
 20
155.7038267405
 11
63.1705495843
 21
159.7362096361
  0
LINE
  5
239
100
AcDbEntity
  8
0
100
AcDbLine
 62
7
  6
BYLAYER
 10
111.2890607968
 20
174.3309930365
 11
114.9660007503
 21
176.4538626367
  0
LINE
  5
23A
100
AcDbEntity
  8
0
100
AcDbLine
 62
7
  6
BYLAYER
 10
115.3549122767
 20
176.06603324
 11
117.1933822535
 21
177.1274680401
  0
LINE
  5
23B
100
AcDbEntity
  8
0
100
AcDbLine
 62
7
  6
BYLAYER
 10
115.3549122767
 20
174.8412796143
 11
117.1933822535
 21
175.9027144144
  0
LINE
  5
23C
100
AcDbEntity
  8
0
100
AcDbLine
 62
7
  6
BYLAYER
 10
69.566686707
 20
72.3933934326
 11
69.3225687608
 21
109.5401500386
  0
LINE
  5
23D
100
AcDbEntity
  8
0
100
AcDbLine
 62
7
  6
BYLAYER
 10
67.4643092907
 20
108.4671309765
 11
67.428752079
 21
71.1590636676
  0
LINE
  5
23E
100
AcDbEntity
  8
0
100
AcDbLine
 62
7
  6
BYLAYER
 10
70.999858068
 20
106.4260861523
 11
70.4760648124
 21
69.399736642
  0
LINE
  5
23F
100
AcDbEntity
  8
0
100
AcDbLine
 62
7
  6
BYLAYER
 10
123.9109246424
 20
173.2491808721
 11
122.0724546656
 21
172.1877460721
  0
LINE
  5
240
100
AcDbEntity
  8
0
100
AcDbLine
 62
7
  6
BYLAYER
 10
44.5737283807
 20
123.8285764468
 11
42.7154690621
 21
122.7557163331
  0
LINE
  5
241
100
AcDbEntity
  8
0
100
AcDbLine
 62
7
  6
BYLAYER
 10
28.2777009026
 20
138.8560411934
 11
36.0564341185
 21
134.3650890762
  0
LINE
  5
242
100
AcDbEntity
  8
0
100
AcDbLine
 62
7
  6
BYLAYER
 10
53.0265412828
 20
124.5676147852
 11
60.8052744986
 21
120.076662668
  0
LINE
  5
243
100
AcDbEntity
  8
0
100
AcDbLine
 62
7
  6
BYLAYER
 10
77.7753816629
 20
110.279188377
 11
85.5541148788
 21
105.7882362598
  0
LINE
  5
244
100
AcDbEntity
  8
0
100
AcDbLine
 62
7
  6
BYLAYER
 10
30.0777841374
 20
139.89531353
 11
37.8563808695
 21
135.4044402099
  0
LINE
  5
245
100
AcDbEntity
  8
0
100
AcDbLine
 62
7
  6
BYLAYER
 10
54.8266245175
 20
125.6068871218
 11
62.6052212496
 21
121.1160138017
  0
LINE
  5
246
100
AcDbEntity
  8
0
100
AcDbLine
 62
7
  6
BYLAYER
 10
79.5754648977
 20
111.3184607136
 11
87.3540616298
 21
106.8275873935
  0
LINE
  5
247
100
AcDbEntity
  8
0
100
AcDbLine
 62
7
  6
BYLAYER
 10
77.3124602889
 20
192.3140212393
 11
77.3124602889
 21
190.9259671302
  0
LINE
  5
248
100
AcDbEntity
  8
0
100
AcDbLine
 62
7
  6
BYLAYER
 10
77.9157508438
 20
192.6623291245
 11
77.9157508438
 21
193.7428825766
  0
LINE
  5
249
100
AcDbEntity
  8
0
100
AcDbLine
 62
7
  6
BYLAYER
 10
50.0766457827
 20
126.0773677724
 11
48.2593927393
 21
125.0281825014
  0
LINE
  5
24A
100
AcDbEntity
  8
0
100
AcDbLine
 62
7
  6
BYLAYER
 10
87.2122861272
 20
145.039539074
 11
87.9193899644
 21
145.4477832279
  0
LINE
  5
24B
100
AcDbEntity
  8
0
100
AcDbLine
 62
7
  6
BYLAYER
 10
54.8266245175
 20
125.6068871218
 11
53.0265412828
 21
124.5676147852
  0
LINE
  5
24C
100
AcDbEntity
  8
0
100
AcDbLine
 62
7
  6
BYLAYER
 10
80.1408991894
 20
190.6810582212
 11
80.1408991894
 21
189.2930041121
  0
LINE
  5
24D
100
AcDbEntity
  8
0
100
AcDbLine
 62
7
  6
BYLAYER
 10
81.0224921672
 20
189.8019890169
 11
81.0224921672
 21
191.190043126
  0
LINE
  5
24E
100
AcDbEntity
  8
0
100
AcDbLine
 62
7
  6
BYLAYER
 10
93.7884006832
 20
142.0593849654
 11
93.0812968459
 21
141.6511408115
  0
LINE
  5
24F
100
AcDbEntity
  8
0
100
AcDbLine
 62
7
  6
BYLAYER
 10
60.8051380149
 20
120.0767414651
 11
62.6052212496
 21
121.1160138017
  0
LINE
  5
250
100
AcDbEntity
  8
0
100
AcDbLine
 62
7
  6
BYLAYER
 10
21.6987287722
 20
160.8587766992
 11
95.733116995
 21
118.1159697009
  0
LINE
  5
251
100
AcDbEntity
  8
0
100
AcDbLine
 62
7
  6
BYLAYER
 10
87.2122861272
 20
145.039539074
 11
87.2122861272
 21
141.6539418829
  0
LINE
  5
252
100
AcDbEntity
  8
0
100
AcDbLine
 62
7
  6
BYLAYER
 10
87.3157508438
 20
192.3548284674
 11
87.3157508438
 21
193.7428825766
  0
LINE
  5
253
100
AcDbEntity
  8
0
100
AcDbLine
 62
7
  6
BYLAYER
 10
87.9193899644
 20
141.4154003323
 11
87.9193899644
 21
145.4477832279
  0
LINE
  5
254
100
AcDbEntity
  8
0
100
AcDbLine
 62
7
  6
BYLAYER
 10
90.6060718966
 20
190.3544596482
 11
90.6060718966
 21
189.1297060225
  0
LINE
  5
255
100
AcDbEntity
  8
0
100
AcDbLine
 62
7
  6
BYLAYER
 10
92.4445418734
 20
190.1911408226
 11
92.4445418734
 21
191.4158944483
  0
LINE
  5
256
100
AcDbEntity
  8
0
100
AcDbLine
 62
7
  6
BYLAYER
 10
92.2131496709
 20
94.1787045683
 11
92.1775924592
 21
56.8706372594
  0
LINE
  5
257
100
AcDbEntity
  8
0
100
AcDbLine
 62
7
  6
BYLAYER
 10
140.1037526569
 20
161.7776068318
 11
141.9422226336
 21
162.8390416319
  0
LINE
  5
258
100
AcDbEntity
  8
0
100
AcDbLine
 62
7
  6
BYLAYER
 10
140.1037526569
 20
160.5528532061
 11
141.9422226336
 21
161.6142880062
  0
LINE
  5
259
100
AcDbEntity
  8
0
100
AcDbLine
 62
7
  6
BYLAYER
 10
94.3155270872
 20
58.1049670244
 11
94.0714091409
 21
95.2517236304
  0
LINE
  5
25A
100
AcDbEntity
  8
0
100
AcDbLine
 62
7
  6
BYLAYER
 10
95.733116995
 20
57.2865396248
 11
95.733116995
 21
118.1159697009
  0
LINE
  5
25B
100
AcDbEntity
  8
0
100
AcDbLine
 62
7
  6
BYLAYER
 10
97.9953673468
 20
186.2516407452
 11
97.9953673468
 21
184.2103847023
  0
LINE
  5
25C
100
AcDbEntity
  8
0
100
AcDbLine
 62
7
  6
BYLAYER
 10
148.6597650225
 20
158.9607544639
 11
146.8212950458
 21
157.8993196639
  0
LINE
  5
25D
100
AcDbEntity
  8
0
100
AcDbLine
 62
7
  6
BYLAYER
 10
144.9828609854
 20
153.2453810317
 11
145.8644539631
 21
153.7543659365
  0
LINE
  5
25E
100
AcDbEntity
  8
0
100
AcDbLine
 62
7
  6
BYLAYER
 10
69.3225687608
 20
109.5401500386
 11
67.4643094422
 21
108.4672899249
  0
LINE
  5
25F
100
AcDbEntity
  8
0
100
AcDbLine
 62
7
  6
BYLAYER
 10
74.8254861629
 20
111.7889413642
 11
73.0082331195
 21
110.7397560932
  0
LINE
  5
260
100
AcDbEntity
  8
0
100
AcDbLine
 62
7
  6
BYLAYER
 10
78.1940532666
 20
192.8230061441
 11
77.9159357477
 21
193.7428826267
  0
LINE
  5
261
100
AcDbEntity
  8
0
100
AcDbLine
 62
7
  6
BYLAYER
 10
148.6928928637
 20
152.1214029184
 11
147.811299886
 21
151.6124180136
  0
LINE
  5
262
100
AcDbEntity
  8
0
100
AcDbLine
 62
7
  6
BYLAYER
 10
79.5754648977
 20
111.3184607136
 11
77.7753816629
 21
110.279188377
  0
LINE
  5
263
100
AcDbEntity
  8
0
100
AcDbLine
 62
7
  6
BYLAYER
 10
148.6928928637
 20
150.7333488093
 11
147.811299886
 21
150.2243639045
  0
LINE
  5
264
100
AcDbEntity
  8
0
100
AcDbLine
 62
7
  6
BYLAYER
 10
154.4273076148
 20
153.3909282867
 11
152.5089829923
 21
152.2833896606
  0
LINE
  5
265
100
AcDbEntity
  8
0
100
AcDbLine
 62
7
  6
BYLAYER
 10
95.733116995
 20
118.1159697009
 11
152.5089829923
 21
150.8953355515
  0
LINE
  5
266
100
AcDbEntity
  8
0
100
AcDbLine
 62
7
  6
BYLAYER
 10
154.4273076148
 20
152.0028741776
 11
162.6604951873
 21
156.7562788648
  0
LINE
  5
267
100
AcDbEntity
  8
0
100
AcDbLine
 62
7
  6
BYLAYER
 10
44.8178463269
 20
86.6818198408
 11
42.6799116989
 21
85.4474900758
  0
LINE
  5
268
100
AcDbEntity
  8
0
100
AcDbLine
 62
7
  6
BYLAYER
 10
162.6604951873
 20
154.715022822
 11
155.8015879664
 21
150.7550545295
  0
LINE
  5
269
100
AcDbEntity
  8
0
100
AcDbLine
 62
7
  6
BYLAYER
 10
108.4064217462
 20
177.9738492663
 11
108.4064217462
 21
175.9952478179
  0
LINE
  5
26A
100
AcDbEntity
  8
0
100
AcDbLine
 62
7
  6
BYLAYER
 10
108.602013224
 20
180.1280294274
 11
108.602013224
 21
178.0867733845
  0
LINE
  5
26B
100
AcDbEntity
  8
0
100
AcDbLine
 62
7
  6
BYLAYER
 10
85.553978395
 20
105.7883150569
 11
87.3540616298
 21
106.8275873935
  0
LINE
  5
26C
100
AcDbEntity
  8
0
100
AcDbLine
 62
7
  6
BYLAYER
 10
115.3549122767
 20
176.06603324
 11
115.3549122767
 21
174.8412796143
  0
LINE
  5
26D
100
AcDbEntity
  8
0
100
AcDbLine
 62
7
  6
BYLAYER
 10
116.5922948276
 20
183.3531650416
 11
116.5922948276
 21
183.5981094944
  0
LINE
  5
26E
100
AcDbEntity
  8
0
100
AcDbLine
 62
7
  6
BYLAYER
 10
117.1933822535
 20
175.9027144144
 11
117.1933822535
 21
177.1274680401
  0
LINE
  5
26F
100
AcDbEntity
  8
0
100
AcDbLine
 62
7
  6
BYLAYER
 10
117.881012037
 20
185.3943688142
 11
117.881012037
 21
183.3531127714
  0
LINE
  5
270
100
AcDbEntity
  8
0
100
AcDbLine
 62
7
  6
BYLAYER
 10
94.0714091409
 20
95.2517236304
 11
92.2131498224
 21
94.1788635167
  0
LINE
  5
271
100
AcDbEntity
  8
0
100
AcDbLine
 62
7
  6
BYLAYER
 10
69.566686707
 20
72.3933934326
 11
67.4287520791
 21
71.1590636676
  0
LINE
  5
272
100
AcDbEntity
  8
0
100
AcDbLine
 62
7
  6
BYLAYER
 10
147.811299886
 20
150.2243639045
 11
144.9828609854
 21
151.8573269226
  0
LINE
  5
273
100
AcDbEntity
  8
0
100
AcDbLine
 62
7
  6
BYLAYER
 10
80.1408991894
 20
189.2930041121
 11
77.3124602889
 21
190.9259671302
  0
LINE
  5
274
100
AcDbEntity
  8
0
100
AcDbLine
 62
7
  6
BYLAYER
 10
140.1037526569
 20
161.7776068318
 11
140.1037526569
 21
160.5528532061
  0
LINE
  5
275
100
AcDbEntity
  8
0
100
AcDbLine
 62
7
  6
BYLAYER
 10
141.9422226336
 20
161.6142880062
 11
141.9422226336
 21
162.8390416319
  0
LINE
  5
276
100
AcDbEntity
  8
0
100
AcDbLine
 62
7
  6
BYLAYER
 10
144.9828609854
 20
153.2453810317
 11
144.9828609854
 21
151.8573269226
  0
LINE
  5
277
100
AcDbEntity
  8
0
100
AcDbLine
 62
7
  6
BYLAYER
 10
145.5861515404
 20
153.5936889169
 11
145.5861515404
 21
154.674242369
  0
LINE
  5
278
100
AcDbEntity
  8
0
100
AcDbLine
 62
7
  6
BYLAYER
 10
147.811299886
 20
151.6124180136
 11
144.9828609854
 21
153.2453810317
  0
LINE
  5
279
100
AcDbEntity
  8
0
100
AcDbLine
 62
7
  6
BYLAYER
 10
80.1408991894
 20
190.6810582212
 11
77.3124602889
 21
192.3140212393
  0
LINE
  5
27A
100
AcDbEntity
  8
0
100
AcDbLine
 62
7
  6
BYLAYER
 10
94.3184273933
 20
184.128771145
 11
100.6824149196
 21
180.4546043543
  0
LINE
  5
27B
100
AcDbEntity
  8
0
100
AcDbLine
 62
7
  6
BYLAYER
 10
104.9250732705
 20
178.0051598272
 11
111.2890607968
 21
174.3309930365
  0
LINE
  5
27C
100
AcDbEntity
  8
0
100
AcDbLine
 62
7
  6
BYLAYER
 10
113.1981958894
 20
175.4332261167
 11
108.602013224
 21
178.0867733845
  0
LINE
  5
27D
100
AcDbEntity
  8
0
100
AcDbLine
 62
7
  6
BYLAYER
 10
102.5915500122
 20
181.5568374345
 11
97.9953673468
 21
184.2103847023
  0
LINE
  5
27E
100
AcDbEntity
  8
0
100
AcDbLine
 62
7
  6
BYLAYER
 10
114.9660007503
 20
176.4538626367
 11
108.602013224
 21
180.1280294274
  0
LINE
  5
27F
100
AcDbEntity
  8
0
100
AcDbLine
 62
7
  6
BYLAYER
 10
104.3593548731
 20
182.5774739545
 11
97.9953673468
 21
186.2516407452
  0
LINE
  5
280
100
AcDbEntity
  8
0
100
AcDbLine
 62
7
  6
BYLAYER
 10
147.811299886
 20
151.6124180136
 11
147.811299886
 21
150.2243639045
  0
LINE
  5
281
100
AcDbEntity
  8
0
100
AcDbLine
 62
7
  6
BYLAYER
 10
148.6928928637
 20
150.7333488093
 11
148.6928928637
 21
152.1214029184
  0
LINE
  5
282
100
AcDbEntity
  8
0
100
AcDbLine
 62
7
  6
BYLAYER
 10
152.5089829923
 20
152.2833896606
 11
152.5089829923
 21
150.8953355515
  0
LINE
  5
283
100
AcDbEntity
  8
0
100
AcDbLine
 62
7
  6
BYLAYER
 10
88.6261069644
 20
199.4990858631
 11
110.1575980952
 21
187.068154888
  0
LINE
  5
284
100
AcDbEntity
  8
0
100
AcDbLine
 62
7
  6
BYLAYER
 10
116.3801636765
 20
183.4756362482
 11
162.6604951873
 21
156.7562788648
  0
LINE
  5
285
100
AcDbEntity
  8
0
100
AcDbLine
 62
7
  6
BYLAYER
 10
145.8644539631
 20
153.7543659365
 11
145.5864090151
 21
154.6742423697
  0
LINE
  5
286
100
AcDbEntity
  8
0
100
AcDbLine
 62
7
  6
BYLAYER
 10
154.4273076148
 20
152.0028741776
 11
154.4273076148
 21
153.3909282867
  0
LINE
  5
287
100
AcDbEntity
  8
0
100
AcDbLine
 62
7
  6
BYLAYER
 10
154.9861515404
 20
153.2861882599
 11
154.9861515404
 21
154.674242369
  0
LINE
  5
288
100
AcDbEntity
  8
0
100
AcDbLine
 62
7
  6
BYLAYER
 10
155.8015879664
 20
91.9668804961
 11
155.8015879664
 21
150.7550545295
  0
LINE
  5
289
100
AcDbEntity
  8
0
100
AcDbLine
 62
7
  6
BYLAYER
 10
94.3155270872
 20
58.1049670244
 11
92.1775924592
 21
56.8706372594
  0
LINE
  5
28A
100
AcDbEntity
  8
0
100
AcDbLine
 62
7
  6
BYLAYER
 10
155.8015879664
 20
91.9668804961
 11
95.733116995
 21
57.2865396248
  0
LINE
  5
28B
100
AcDbEntity
  8
0
100
AcDbLine
 62
7
  6
BYLAYER
 10
162.6604951873
 20
156.7562788648
 11
162.6604951873
 21
154.715022822
  0
SPLINE
  5
28C
100
AcDbEntity
  8
0
100
AcDbSpline
 62
7
  6
BYLAYER
 70
0
 71
3
 72
17
 73
13
 74
0
 42
0.0000001
 43
0.0000001
 44
0.0000000001
 40
0.0
 40
0.0
 40
0.0
 40
0.0
 40
0.0428570067
 40
0.0874847375
 40
0.1353155696
 40
0.1872804663
 40
0.3045411342
 40
0.4382089814
 40
0.5825525483
 40
0.7297137407
 40
0.8713041361
 40
1.0
 40
1.0
 40
1.0
 40
1.0
 10
89.2148700574
 20
188.4153160628
 30
0.0
 10
89.2148926363
 20
188.2801041711
 30
0.0
 10
89.2509806991
 20
188.002907928
 30
0.0
 10
89.4100418365
 20
187.6027209991
 30
0.0
 10
89.6678936265
 20
187.2232081048
 30
0.0
 10
90.1535819405
 20
186.735914795
 30
0.0
 10
90.9809755197
 20
186.2321441311
 30
0.0
 10
92.1707531623
 20
185.8347522414
 30
0.0
 10
93.5059358239
 20
185.6471249232
 30
0.0
 10
94.8782985469
 20
185.6851297119
 30
0.0
 10
96.1758491882
 20
185.944667112
 30
0.0
 10
96.9719818491
 20
186.2731586103
 30
0.0
 10
97.3236142855
 20
186.4761724803
 30
0.0
  0
SPLINE
  5
28D
100
AcDbEntity
  8
0
100
AcDbSpline
 62
7
  6
BYLAYER
 70
0
 71
3
 72
17
 73
13
 74
0
 42
0.0000001
 43
0.0000001
 44
0.0000000001
 40
0.0
 40
0.0
 40
0.0
 40
0.0
 40
0.0428570067
 40
0.0874847375
 40
0.1353155696
 40
0.1872804663
 40
0.3045411342
 40
0.4382089814
 40
0.5825525483
 40
0.7297137407
 40
0.8713041361
 40
1.0
 40
1.0
 40
1.0
 40
1.0
 10
138.7125508177
 20
159.8384632464
 30
0.0
 10
138.7125733966
 20
159.7032513547
 30
0.0
 10
138.7486614594
 20
159.4260551116
 30
0.0
 10
138.9077225968
 20
159.0258681827
 30
0.0
 10
139.1655743868
 20
158.6463552883
 30
0.0
 10
139.6512627008
 20
158.1590619786
 30
0.0
 10
140.47865628
 20
157.6552913147
 30
0.0
 10
141.6684339226
 20
157.257899425
 30
0.0
 10
143.0036165841
 20
157.0702721068
 30
0.0
 10
144.3759793072
 20
157.1082768954
 30
0.0
 10
145.6735299485
 20
157.3678142956
 30
0.0
 10
146.4696626094
 20
157.6963057939
 30
0.0
 10
146.8212950458
 20
157.8993196639
 30
0.0
  0
SPLINE
  5
28E
100
AcDbEntity
  8
0
100
AcDbSpline
 62
7
  6
BYLAYER
 70
0
 71
3
 72
17
 73
13
 74
0
 42
0.0000001
 43
0.0000001
 44
0.0000000001
 40
0.0
 40
0.0
 40
0.0
 40
0.0
 40
0.1286926208
 40
0.2702795078
 40
0.4174383051
 40
0.5617803148
 40
0.6954501289
 40
0.8127134773
 40
0.8646759206
 40
0.9125113962
 40
0.9571388332
 40
1.0
 40
1.0
 40
1.0
 40
1.0
 10
110.3697292463
 20
187.1906281341
 30
0.0
 10
110.6954426719
 20
187.3786777455
 30
0.0
 10
111.4328893995
 20
187.6829606422
 30
0.0
 10
112.6347989375
 20
187.9233815138
 30
0.0
 10
113.9060130358
 20
187.9585885094
 30
0.0
 10
115.1428101828
 20
187.7847782757
 30
0.0
 10
116.2448987011
 20
187.416658723
 30
0.0
 10
117.0114261267
 20
186.9501057118
 30
0.0
 10
117.4612312153
 20
186.4986312622
 30
0.0
 10
117.7002497587
 20
186.1471726395
 30
0.0
 10
117.8474144963
 20
185.7763890104
 30
0.0
 10
117.8810089215
 20
185.5196295316
 30
0.0
 10
117.8809918065
 20
185.3943688645
 30
0.0
  0
SPLINE
  5
28F
100
AcDbEntity
  8
0
100
AcDbSpline
 62
7
  6
BYLAYER
 70
0
 71
3
 72
17
 73
13
 74
0
 42
0.0000001
 43
0.0000001
 44
0.0000000001
 40
0.0
 40
0.0
 40
0.0
 40
0.0
 40
0.0428570067
 40
0.0874847375
 40
0.1353155696
 40
0.1872804663
 40
0.3045411342
 40
0.4382089814
 40
0.5825525483
 40
0.7297137407
 40
0.8713041361
 40
1.0
 40
1.0
 40
1.0
 40
1.0
 10
113.9637104375
 20
174.1268896546
 30
0.0
 10
113.9637330164
 20
173.9916777629
 30
0.0
 10
113.9998210793
 20
173.7144815198
 30
0.0
 10
114.1588822166
 20
173.3142945909
 30
0.0
 10
114.4167340066
 20
172.9347816965
 30
0.0
 10
114.9024223207
 20
172.4474883868
 30
0.0
 10
115.7298158999
 20
171.9437177229
 30
0.0
 10
116.9195935424
 20
171.5463258332
 30
0.0
 10
118.254776204
 20
171.358698515
 30
0.0
 10
119.627138927
 20
171.3967033036
 30
0.0
 10
120.9246895684
 20
171.6562407038
 30
0.0
 10
121.7208222293
 20
171.9847322021
 30
0.0
 10
122.0724546656
 20
172.1877460721
 30
0.0
  0
SPLINE
  5
290
100
AcDbEntity
  8
0
100
AcDbSpline
 62
7
  6
BYLAYER
 70
0
 71
3
 72
11
 73
7
 74
0
 42
0.0000001
 43
0.0000001
 44
0.0000000001
 40
0.0
 40
0.0
 40
0.0
 40
0.0
 40
0.2897494628
 40
0.5490839184
 40
0.7822245071
 40
1.0
 40
1.0
 40
1.0
 40
1.0
 10
123.9109246424
 20
173.2491808721
 30
0.0
 10
124.1193810029
 20
173.3695324896
 30
0.0
 10
124.4975412568
 20
173.629935448
 30
0.0
 10
124.9494269038
 20
174.1049364794
 30
0.0
 10
125.2352583405
 20
174.6303124407
 30
0.0
 10
125.3021566922
 20
175.0074112677
 30
0.0
 10
125.3021264816
 20
175.1883244575
 30
0.0
  0
SPLINE
  5
291
100
AcDbEntity
  8
0
100
AcDbSpline
 62
7
  6
BYLAYER
 70
0
 71
3
 72
11
 73
7
 74
0
 42
0.0000001
 43
0.0000001
 44
0.0000000001
 40
0.0
 40
0.0
 40
0.0
 40
0.0
 40
0.2897494628
 40
0.5490839184
 40
0.7822245071
 40
1.0
 40
1.0
 40
1.0
 40
1.0
 10
148.6597650225
 20
158.9607544639
 30
0.0
 10
148.868221383
 20
159.0811060814
 30
0.0
 10
149.246381637
 20
159.3415090398
 30
0.0
 10
149.6982672839
 20
159.8165100712
 30
0.0
 10
149.9840987206
 20
160.3418860325
 30
0.0
 10
150.0509970723
 20
160.7189848595
 30
0.0
 10
150.0509668618
 20
160.8998980493
 30
0.0
  0
SPLINE
  5
292
100
AcDbEntity
  8
0
100
AcDbSpline
 62
7
  6
BYLAYER
 70
0
 71
3
 72
11
 73
7
 74
0
 42
0.0000001
 43
0.0000001
 44
0.0000000001
 40
0.0
 40
0.0
 40
0.0
 40
0.0
 40
0.2897494628
 40
0.5490839184
 40
0.7822245071
 40
1.0
 40
1.0
 40
1.0
 40
1.0
 10
99.1620842623
 20
187.5376072803
 30
0.0
 10
99.3705406227
 20
187.6579588978
 30
0.0
 10
99.7487008767
 20
187.9183618562
 30
0.0
 10
100.2005865236
 20
188.3933628876
 30
0.0
 10
100.4864179603
 20
188.918738849
 30
0.0
 10
100.553316312
 20
189.2958376759
 30
0.0
 10
100.5532861015
 20
189.4767508657
 30
0.0
  0
SPLINE
  5
293
100
AcDbEntity
  8
0
100
AcDbSpline
 62
7
  6
BYLAYER
 70
0
 71
3
 72
11
 73
7
 74
0
 42
0.0000001
 43
0.0000001
 44
0.0000000001
 40
0.0
 40
0.0
 40
0.0
 40
0.0
 40
0.2897031353
 40
0.5490914015
 40
0.7822201129
 40
1.0
 40
1.0
 40
1.0
 40
1.0
 10
93.7884006832
 20
142.0593849654
 30
0.0
 10
93.9704962832
 20
142.1645172815
 30
0.0
 10
94.3008654947
 20
142.3920649309
 30
0.0
 10
94.6957102419
 20
142.8070153203
 30
0.0
 10
94.9454708994
 20
143.2660631623
 30
0.0
 10
95.003869211
 20
143.5955201862
 30
0.0
 10
95.0038811762
 20
143.7535841046
 30
0.0
  0
SPLINE
  5
294
100
AcDbEntity
  8
0
100
AcDbSpline
 62
7
  6
BYLAYER
 70
0
 71
3
 72
11
 73
7
 74
0
 42
0.0000001
 43
0.0000001
 44
0.0000000001
 40
0.0
 40
0.0
 40
0.0
 40
0.0
 40
0.2897031353
 40
0.5490914015
 40
0.7822201129
 40
1.0
 40
1.0
 40
1.0
 40
1.0
 10
69.039560303
 20
156.3478113736
 30
0.0
 10
69.221655903
 20
156.4529436897
 30
0.0
 10
69.5520251145
 20
156.6804913391
 30
0.0
 10
69.9468698617
 20
157.0954417285
 30
0.0
 10
70.1966305192
 20
157.5544895705
 30
0.0
 10
70.2550288308
 20
157.8839465944
 30
0.0
 10
70.2550407961
 20
158.0420105128
 30
0.0
  0
SPLINE
  5
295
100
AcDbEntity
  8
0
100
AcDbSpline
 62
7
  6
BYLAYER
 70
0
 71
3
 72
17
 73
13
 74
0
 42
0.0000001
 43
0.0000001
 44
0.0000000001
 40
0.0
 40
0.0
 40
0.0
 40
0.0
 40
0.1286923135
 40
0.2702768943
 40
0.4174369699
 40
0.5617815367
 40
0.695451526
 40
0.8127169744
 40
0.8646791577
 40
0.9125145568
 40
0.9571433807
 40
1.0
 40
1.0
 40
1.0
 40
1.0
 10
146.9627358322
 20
156.5929739152
 30
0.0
 10
147.3106567399
 20
156.7938449459
 30
0.0
 10
148.0983816301
 20
157.1188627746
 30
0.0
 10
149.382234842
 20
157.3756809552
 30
0.0
 10
150.7401291851
 20
157.4133044351
 30
0.0
 10
152.0612709713
 20
157.2276452519
 30
0.0
 10
153.2385109467
 20
156.8344100861
 30
0.0
 10
154.0573212998
 20
156.3360548927
 30
0.0
 10
154.5377842596
 20
155.853783444
 30
0.0
 10
154.79312396
 20
155.4783660544
 30
0.0
 10
154.9502249495
 20
155.0822734019
 30
0.0
 10
154.9861379164
 20
154.8080296273
 30
0.0
 10
154.9861390349
 20
154.6742424322
 30
0.0
  0
SPLINE
  5
296
100
AcDbEntity
  8
0
100
AcDbSpline
 62
7
  6
BYLAYER
 70
0
 71
3
 72
11
 73
7
 74
0
 42
0.0000001
 43
0.0000001
 44
0.0000000001
 40
0.0
 40
0.0
 40
0.0
 40
0.0
 40
0.2897031353
 40
0.5490914015
 40
0.7822201129
 40
1.0
 40
1.0
 40
1.0
 40
1.0
 10
152.8317465509
 20
153.2045756527
 30
0.0
 10
152.9897089991
 20
153.2957747703
 30
0.0
 10
153.2762943392
 20
153.4931655023
 30
0.0
 10
153.6188102645
 20
153.8531224666
 30
0.0
 10
153.835470112
 20
154.2513326428
 30
0.0
 10
153.8861288883
 20
154.5371266876
 30
0.0
 10
153.8861392678
 20
154.6742423759
 30
0.0
  0
SPLINE
  5
297
100
AcDbEntity
  8
0
100
AcDbSpline
 62
7
  6
BYLAYER
 70
0
 71
3
 72
17
 73
13
 74
0
 42
0.0000001
 43
0.0000001
 44
0.0000000001
 40
0.0
 40
0.0
 40
0.0
 40
0.0
 40
0.0428584629
 40
0.08748393
 40
0.135317815
 40
0.1872795469
 40
0.3045398917
 40
0.4382057949
 40
0.5825481992
 40
0.7297130515
 40
0.8713063844
 40
1.0
 40
1.0
 40
1.0
 40
1.0
 10
79.0157631164
 20
193.7428825696
 30
0.0
 10
79.0157553589
 20
193.640403023
 30
0.0
 10
79.0432251536
 20
193.4303370171
 30
0.0
 10
79.1636379176
 20
193.1269861013
 30
0.0
 10
79.3591713556
 20
192.8394242739
 30
0.0
 10
79.7271918753
 20
192.4700496398
 30
0.0
 10
80.3543185119
 20
192.0883138603
 30
0.0
 10
81.256009965
 20
191.7871150927
 30
0.0
 10
82.2679380066
 20
191.6448893118
 30
0.0
 10
83.3080544034
 20
191.6736819285
 30
0.0
 10
84.2914681372
 20
191.8703917448
 30
0.0
 10
84.8948509632
 20
192.1193558816
 30
0.0
 10
85.1613458544
 20
192.2732158603
 30
0.0
  0
SPLINE
  5
298
100
AcDbEntity
  8
0
100
AcDbSpline
 62
7
  6
BYLAYER
 70
0
 71
3
 72
9
 73
5
 74
0
 42
0.0000001
 43
0.0000001
 44
0.0000000001
 40
0.0
 40
0.0
 40
0.0
 40
0.0
 40
0.5080567011
 40
1.0
 40
1.0
 40
1.0
 40
1.0
 10
117.7312771544
 20
182.6960644874
 30
0.0
 10
117.7795641809
 20
182.800223134
 30
0.0
 10
117.8547502214
 20
183.0152947598
 30
0.0
 10
117.880988622
 20
183.2419469147
 30
0.0
 10
117.8809970371
 20
183.3531127799
 30
0.0
  0
SPLINE
  5
299
100
AcDbEntity
  8
0
100
AcDbSpline
 62
7
  6
BYLAYER
 70
0
 71
3
 72
10
 73
6
 74
0
 42
0.0000001
 43
0.0000001
 44
0.0000000001
 40
0.0
 40
0.0
 40
0.0
 40
0.0
 40
0.2345690948
 40
0.4760579474
 40
1.0
 40
1.0
 40
1.0
 40
1.0
 10
77.9157691738
 20
193.7428826253
 30
0.0
 10
77.9157662426
 20
193.8546052396
 30
0.0
 10
77.9404492307
 20
194.0820956872
 30
0.0
 10
78.0897191157
 20
194.5371820364
 30
0.0
 10
78.3046785779
 20
194.8434330471
 30
0.0
 10
78.4745947694
 20
195.0261966589
 30
0.0
  0
SPLINE
  5
29A
100
AcDbEntity
  8
0
100
AcDbSpline
 62
7
  6
BYLAYER
 70
0
 71
3
 72
17
 73
13
 74
0
 42
0.0000001
 43
0.0000001
 44
0.0000000001
 40
0.0
 40
0.0
 40
0.0
 40
0.0
 40
0.0428584629
 40
0.08748393
 40
0.135317815
 40
0.1872795469
 40
0.3045398917
 40
0.4382057949
 40
0.5825481992
 40
0.7297130515
 40
0.8713063844
 40
1.0
 40
1.0
 40
1.0
 40
1.0
 10
85.9968056342
 20
143.3453399348
 30
0.0
 10
85.9967966914
 20
143.2272037908
 30
0.0
 10
86.0284632604
 20
142.9850443672
 30
0.0
 10
86.1672724189
 20
142.6353481727
 30
0.0
 10
86.392679021
 20
142.3038532883
 30
0.0
 10
86.8169248978
 20
141.8780464185
 30
0.0
 10
87.5398625484
 20
141.4379898949
 30
0.0
 10
88.5793124179
 20
141.0907746489
 30
0.0
 10
89.745840577
 20
140.9268199292
 30
0.0
 10
90.9448636455
 20
140.9600114179
 30
0.0
 10
92.0785211442
 20
141.1867741228
 30
0.0
 10
92.7740874575
 20
141.4737744471
 30
0.0
 10
93.0812968459
 20
141.6511408115
 30
0.0
  0
SPLINE
  5
29B
100
AcDbEntity
  8
0
100
AcDbSpline
 62
7
  6
BYLAYER
 70
0
 71
3
 72
17
 73
13
 74
0
 42
0.0000001
 43
0.0000001
 44
0.0000000001
 40
0.0
 40
0.0
 40
0.0
 40
0.0
 40
0.0428584629
 40
0.08748393
 40
0.135317815
 40
0.1872795469
 40
0.3045398917
 40
0.4382057949
 40
0.5825481992
 40
0.7297130515
 40
0.8713063844
 40
1.0
 40
1.0
 40
1.0
 40
1.0
 10
61.247965254
 20
157.633766343
 30
0.0
 10
61.2479563113
 20
157.515630199
 30
0.0
 10
61.2796228802
 20
157.2734707754
 30
0.0
 10
61.4184320387
 20
156.9237745809
 30
0.0
 10
61.6438386408
 20
156.5922796965
 30
0.0
 10
62.0680845177
 20
156.1664728267
 30
0.0
 10
62.7910221683
 20
155.7264163031
 30
0.0
 10
63.8304720378
 20
155.3792010571
 30
0.0
 10
64.9970001968
 20
155.2152463374
 30
0.0
 10
66.1960232654
 20
155.2484378261
 30
0.0
 10
67.3296807641
 20
155.475200531
 30
0.0
 10
68.0252470774
 20
155.7622008554
 30
0.0
 10
68.3324564658
 20
155.9395672197
 30
0.0
  0
SPLINE
  5
29C
100
AcDbEntity
  8
0
100
AcDbSpline
 62
7
  6
BYLAYER
 70
0
 71
3
 72
17
 73
13
 74
0
 42
0.0000001
 43
0.0000001
 44
0.0000000001
 40
0.0
 40
0.0
 40
0.0
 40
0.0
 40
0.0428584629
 40
0.08748393
 40
0.135317815
 40
0.1872795469
 40
0.3045398917
 40
0.4382057949
 40
0.5825481992
 40
0.7297130515
 40
0.8713063844
 40
1.0
 40
1.0
 40
1.0
 40
1.0
 10
146.686163813
 20
154.6742423621
 30
0.0
 10
146.6861560554
 20
154.5717628154
 30
0.0
 10
146.7136258502
 20
154.3616968095
 30
0.0
 10
146.8340386142
 20
154.0583458937
 30
0.0
 10
147.0295720522
 20
153.7707840663
 30
0.0
 10
147.3975925718
 20
153.4014094323
 30
0.0
 10
148.0247192085
 20
153.0196736528
 30
0.0
 10
148.9264106616
 20
152.7184748851
 30
0.0
 10
149.9383387031
 20
152.5762491042
 30
0.0
 10
150.9784550999
 20
152.6050417209
 30
0.0
 10
151.9618688337
 20
152.8017515372
 30
0.0
 10
152.5652516598
 20
153.050715674
 30
0.0
 10
152.8317465509
 20
153.2045756527
 30
0.0
  0
SPLINE
  5
29D
100
AcDbEntity
  8
0
100
AcDbSpline
 62
7
  6
BYLAYER
 70
0
 71
3
 72
11
 73
7
 74
0
 42
0.0000001
 43
0.0000001
 44
0.0000000001
 40
0.0
 40
0.0
 40
0.0
 40
0.0
 40
0.2177575931
 40
0.450921392
 40
0.7102213916
 40
1.0
 40
1.0
 40
1.0
 40
1.0
 10
145.5861562005
 20
154.6742423715
 30
0.0
 10
145.5861601687
 20
154.8532370817
 30
0.0
 10
145.6523271516
 20
155.2263679055
 30
0.0
 10
145.9351529236
 20
155.7461933431
 30
0.0
 10
146.3822556976
 20
156.2162379884
 30
0.0
 10
146.7564523323
 20
156.4738767919
 30
0.0
 10
146.9627358322
 20
156.5929739152
 30
0.0
  0
SPLINE
  5
29E
100
AcDbEntity
  8
0
100
AcDbSpline
 62
7
  6
BYLAYER
 70
0
 71
3
 72
11
 73
7
 74
0
 42
0.0000001
 43
0.0000001
 44
0.0000000001
 40
0.0
 40
0.0
 40
0.0
 40
0.0
 40
0.2897031353
 40
0.5490914015
 40
0.7822201129
 40
1.0
 40
1.0
 40
1.0
 40
1.0
 10
85.1613458544
 20
192.2732158603
 30
0.0
 10
85.3193083025
 20
192.3644149779
 30
0.0
 10
85.6058936427
 20
192.5618057099
 30
0.0
 10
85.9484095679
 20
192.9217626742
 30
0.0
 10
86.1650694154
 20
193.3199728504
 30
0.0
 10
86.2157281918
 20
193.6057668952
 30
0.0
 10
86.2157385712
 20
193.7428825835
 30
0.0
  0
SPLINE
  5
29F
100
AcDbEntity
  8
0
100
AcDbSpline
 62
7
  6
BYLAYER
 70
0
 71
3
 72
16
 73
12
 74
0
 42
0.0000001
 43
0.0000001
 44
0.0000000001
 40
0.0
 40
0.0
 40
0.0
 40
0.0
 40
0.1416383383
 40
0.289106316
 40
0.4359834788
 40
0.5759348732
 40
0.703619746
 40
0.8157759662
 40
0.9126365034
 40
0.9570052856
 40
1.0
 40
1.0
 40
1.0
 40
1.0
 10
80.3929193919
 20
196.133735285
 30
0.0
 10
80.7612436368
 20
196.2478785645
 30
0.0
 10
81.5348539041
 20
196.4138417061
 30
0.0
 10
82.7236566348
 20
196.4850350698
 30
0.0
 10
83.9060362167
 20
196.3826402567
 30
0.0
 10
85.0069619981
 20
196.1131032763
 30
0.0
 10
85.9585208308
 20
195.6918691081
 30
0.0
 10
86.7035790123
 20
195.1428089202
 30
0.0
 10
87.1241241446
 20
194.5760208147
 30
0.0
 10
87.2885371853
 20
194.0985680871
 30
0.0
 10
87.3157473049
 20
193.8599341413
 30
0.0
 10
87.3157457893
 20
193.742882576
 30
0.0
  0
SPLINE
  5
2A0
100
AcDbEntity
  8
0
100
AcDbSpline
 62
7
  6
BYLAYER
 70
0
 71
3
 72
11
 73
7
 74
0
 42
0.0000001
 43
0.0000001
 44
0.0000000001
 40
0.0
 40
0.0
 40
0.0
 40
0.0
 40
0.2897031353
 40
0.5490914015
 40
0.7822201129
 40
1.0
 40
1.0
 40
1.0
 40
1.0
 10
62.4634457471
 20
159.3279654822
 30
0.0
 10
62.2813501471
 20
159.2228331661
 30
0.0
 10
61.9509809355
 20
158.9952855168
 30
0.0
 10
61.5561361884
 20
158.5803351273
 30
0.0
 10
61.3063755308
 20
158.1212872853
 30
0.0
 10
61.2479772192
 20
157.7918302615
 30
0.0
 10
61.247965254
 20
157.633766343
 30
0.0
  0
SPLINE
  5
2A1
100
AcDbEntity
  8
0
100
AcDbSpline
 62
7
  6
BYLAYER
 70
0
 71
3
 72
15
 73
11
 74
0
 42
0.0000001
 43
0.0000001
 44
0.0000000001
 40
0.0
 40
0.0
 40
0.0
 40
0.0
 40
0.1214544313
 40
0.2541445417
 40
0.3932723285
 40
0.5331409879
 40
0.6679821515
 40
0.7926795444
 40
0.9036584273
 40
1.0
 40
1.0
 40
1.0
 40
1.0
 10
117.1933822535
 20
175.9027144144
 30
0.0
 10
117.4906951928
 20
176.0743670953
 30
0.0
 10
118.1541998041
 20
176.3634962016
 30
0.0
 10
119.2381623321
 20
176.6281730361
 30
0.0
 10
120.4013711422
 20
176.7327635895
 30
0.0
 10
121.5734904268
 20
176.6705875902
 30
0.0
 10
122.6843291118
 20
176.4456712574
 30
0.0
 10
123.6683253164
 20
176.0703671152
 30
0.0
 10
124.4680864148
 20
175.5662445933
 30
0.0
 10
124.8736728479
 20
175.127948581
 30
0.0
 10
125.0183336191
 20
174.8972266902
 30
0.0
  0
SPLINE
  5
2A2
100
AcDbEntity
  8
0
100
AcDbSpline
 62
7
  6
BYLAYER
 70
0
 71
3
 72
11
 73
7
 74
0
 42
0.0000001
 43
0.0000001
 44
0.0000000001
 40
0.0
 40
0.0
 40
0.0
 40
0.0
 40
0.2586381766
 40
0.5203295469
 40
0.7714091642
 40
1.0
 40
1.0
 40
1.0
 40
1.0
 10
81.0224921672
 20
189.8019890169
 30
0.0
 10
81.4488808792
 20
189.71328673
 30
0.0
 10
82.3239537778
 20
189.6112652371
 30
0.0
 10
83.6270730153
 20
189.6690705006
 30
0.0
 10
84.8539080009
 20
189.9287226172
 30
0.0
 10
85.6058145993
 20
190.2436372304
 30
0.0
 10
85.939166552
 20
190.4360969212
 30
0.0
  0
SPLINE
  5
2A3
100
AcDbEntity
  8
0
100
AcDbSpline
 62
7
  6
BYLAYER
 70
0
 71
3
 72
11
 73
7
 74
0
 42
0.0000001
 43
0.0000001
 44
0.0000000001
 40
0.0
 40
0.0
 40
0.0
 40
0.0
 40
0.2897284101
 40
0.549085741
 40
0.7822188008
 40
1.0
 40
1.0
 40
1.0
 40
1.0
 10
85.939166552
 20
190.4360969212
 30
0.0
 10
86.1454131255
 20
190.5551727252
 30
0.0
 10
86.5195784487
 20
190.8128520986
 30
0.0
 10
86.9667265687
 20
191.2828272314
 30
0.0
 10
87.2495488789
 20
191.8026909847
 30
0.0
 10
87.3157546807
 20
192.1758153482
 30
0.0
 10
87.3157255985
 20
192.3548284255
 30
0.0
  0
SPLINE
  5
2A4
100
AcDbEntity
  8
0
100
AcDbSpline
 62
7
  6
BYLAYER
 70
0
 71
3
 72
17
 73
13
 74
0
 42
0.0000001
 43
0.0000001
 44
0.0000000001
 40
0.0
 40
0.0
 40
0.0
 40
0.0
 40
0.0428584629
 40
0.08748393
 40
0.135317815
 40
0.1872795469
 40
0.3045398917
 40
0.4382057949
 40
0.5825481992
 40
0.7297130515
 40
0.8713063844
 40
1.0
 40
1.0
 40
1.0
 40
1.0
 10
70.2550407961
 20
158.0420105128
 30
0.0
 10
70.2550497388
 20
158.1601466569
 30
0.0
 10
70.2233831699
 20
158.4023060804
 30
0.0
 10
70.0845740114
 20
158.7520022749
 30
0.0
 10
69.8591674093
 20
159.0834971593
 30
0.0
 10
69.4349215324
 20
159.5093040291
 30
0.0
 10
68.7119838818
 20
159.9493605527
 30
0.0
 10
67.6725340123
 20
160.2965757987
 30
0.0
 10
66.5060058533
 20
160.4605305184
 30
0.0
 10
65.3069827847
 20
160.4273390297
 30
0.0
 10
64.173325286
 20
160.2005763248
 30
0.0
 10
63.4777589727
 20
159.9135760005
 30
0.0
 10
63.1705495843
 20
159.7362096361
 30
0.0
  0
SPLINE
  5
2A5
100
AcDbEntity
  8
0
100
AcDbSpline
 62
7
  6
BYLAYER
 70
0
 71
3
 72
9
 73
5
 74
0
 42
0.0000001
 43
0.0000001
 44
0.0000000001
 40
0.0
 40
0.0
 40
0.0
 40
0.0
 40
0.2455717787
 40
1.0
 40
1.0
 40
1.0
 40
1.0
 10
138.8391709613
 20
159.2426100591
 30
0.0
 10
138.8489106362
 20
159.2664921086
 30
0.0
 10
138.8906077316
 20
159.3629052892
 30
0.0
 10
138.9403074219
 20
159.4558152944
 30
0.0
 10
138.9815271887
 20
159.5234850913
 30
0.0
  0
SPLINE
  5
2A6
100
AcDbEntity
  8
0
100
AcDbSpline
 62
7
  6
BYLAYER
 70
0
 71
3
 72
9
 73
5
 74
0
 42
0.0000001
 43
0.0000001
 44
0.0000000001
 40
0.0
 40
0.0
 40
0.0
 40
0.0
 40
0.2275609693
 40
1.0
 40
1.0
 40
1.0
 40
1.0
 10
138.9815271887
 20
159.5234850913
 30
0.0
 10
139.041988381
 20
159.6227432124
 30
0.0
 10
139.3435410129
 20
160.037254024
 30
0.0
 10
139.7620967711
 20
160.3555992659
 30
0.0
 10
140.1037526569
 20
160.5528532061
 30
0.0
  0
SPLINE
  5
2A7
100
AcDbEntity
  8
0
100
AcDbSpline
 62
7
  6
BYLAYER
 70
0
 71
3
 72
15
 73
11
 74
0
 42
0.0000001
 43
0.0000001
 44
0.0000000001
 40
0.0
 40
0.0
 40
0.0
 40
0.0
 40
0.1144492357
 40
0.2377932694
 40
0.3674963548
 40
0.5004759675
 40
0.6333894719
 40
0.7628993479
 40
0.8859388262
 40
1.0
 40
1.0
 40
1.0
 40
1.0
 10
69.3225687608
 20
109.5401500386
 30
0.0
 10
69.319084993
 20
110.0702653997
 30
0.0
 10
69.2160470557
 20
111.1720851484
 30
0.0
 10
68.8226503389
 20
112.8327317604
 30
0.0
 10
68.1986089421
 20
114.512922913
 30
0.0
 10
67.3670304541
 20
116.1500617177
 30
0.0
 10
66.3587837987
 20
117.6836578638
 30
0.0
 10
65.2110434222
 20
119.0569300702
 30
0.0
 10
63.9666294757
 20
120.2188476455
 30
0.0
 10
63.0627704434
 20
120.8518536276
 30
0.0
 10
62.6052212496
 20
121.1160138017
 30
0.0
  0
SPLINE
  5
2A8
100
AcDbEntity
  8
0
100
AcDbSpline
 62
7
  6
BYLAYER
 70
0
 71
3
 72
9
 73
5
 74
0
 42
0.0000001
 43
0.0000001
 44
0.0000000001
 40
0.0
 40
0.0
 40
0.0
 40
0.0
 40
0.2455717787
 40
1.0
 40
1.0
 40
1.0
 40
1.0
 10
114.0903305812
 20
173.5310364674
 30
0.0
 10
114.1000702561
 20
173.5549185168
 30
0.0
 10
114.1417673515
 20
173.6513316974
 30
0.0
 10
114.1914670417
 20
173.7442417026
 30
0.0
 10
114.2326868085
 20
173.8119114995
 30
0.0
  0
SPLINE
  5
2A9
100
AcDbEntity
  8
0
100
AcDbSpline
 62
7
  6
BYLAYER
 70
0
 71
3
 72
9
 73
5
 74
0
 42
0.0000001
 43
0.0000001
 44
0.0000000001
 40
0.0
 40
0.0
 40
0.0
 40
0.0
 40
0.2275609693
 40
1.0
 40
1.0
 40
1.0
 40
1.0
 10
114.2326868085
 20
173.8119114995
 30
0.0
 10
114.2931480008
 20
173.9111696206
 30
0.0
 10
114.5947006328
 20
174.3256804322
 30
0.0
 10
115.013256391
 20
174.6440256741
 30
0.0
 10
115.3549122767
 20
174.8412796143
 30
0.0
  0
SPLINE
  5
2AA
100
AcDbEntity
  8
0
100
AcDbSpline
 62
7
  6
BYLAYER
 70
0
 71
3
 72
11
 73
7
 74
0
 42
0.0000001
 43
0.0000001
 44
0.0000000001
 40
0.0
 40
0.0
 40
0.0
 40
0.0
 40
0.2897031353
 40
0.5490914015
 40
0.7822201129
 40
1.0
 40
1.0
 40
1.0
 40
1.0
 10
80.0701558333
 20
195.2125492928
 30
0.0
 10
79.9121933851
 20
195.1213501752
 30
0.0
 10
79.625608045
 20
194.9239594433
 30
0.0
 10
79.2830921197
 20
194.5640024789
 30
0.0
 10
79.0664322722
 20
194.1657923027
 30
0.0
 10
79.0157734959
 20
193.8799982579
 30
0.0
 10
79.0157631164
 20
193.7428825696
 30
0.0
  0
SPLINE
  5
2AB
100
AcDbEntity
  8
0
100
AcDbSpline
 62
7
  6
BYLAYER
 70
0
 71
3
 72
12
 73
8
 74
0
 42
0.0000001
 43
0.0000001
 44
0.0000000001
 40
0.0
 40
0.0
 40
0.0
 40
0.0
 40
0.2895808293
 40
0.5486330495
 40
0.7816360177
 40
0.891837832
 40
1.0
 40
1.0
 40
1.0
 40
1.0
 10
54.8266245175
 20
125.6068871218
 30
0.0
 10
54.4096284597
 20
125.8476344616
 30
0.0
 10
53.580289205
 20
126.2422057354
 30
0.0
 10
52.3064900593
 20
126.5501577413
 30
0.0
 10
51.2893222703
 20
126.5231996485
 30
0.0
 10
50.5631630582
 20
126.3220535608
 30
0.0
 10
50.2324049157
 20
126.167280069
 30
0.0
 10
50.0766538351
 20
126.0773538272
 30
0.0
  0
SPLINE
  5
2AC
100
AcDbEntity
  8
0
100
AcDbSpline
 62
7
  6
BYLAYER
 70
0
 71
3
 72
11
 73
7
 74
0
 42
0.0000001
 43
0.0000001
 44
0.0000000001
 40
0.0
 40
0.0
 40
0.0
 40
0.0
 40
0.2285908986
 40
0.4796705397
 40
0.7413618918
 40
1.0
 40
1.0
 40
1.0
 40
1.0
 10
85.939166552
 20
191.8241510303
 30
0.0
 10
85.6058145076
 20
191.6316912866
 30
0.0
 10
84.8539077597
 20
191.3167766401
 30
0.0
 10
83.6270726478
 20
191.0571245639
 30
0.0
 10
82.3239535143
 20
190.999319367
 30
0.0
 10
81.4488807665
 20
191.1013408626
 30
0.0
 10
81.0224921672
 20
191.190043126
 30
0.0
  0
SPLINE
  5
2AD
100
AcDbEntity
  8
0
100
AcDbSpline
 62
7
  6
BYLAYER
 70
0
 71
3
 72
17
 73
13
 74
0
 42
0.0000001
 43
0.0000001
 44
0.0000000001
 40
0.0
 40
0.0
 40
0.0
 40
0.0
 40
0.0428570067
 40
0.0874847375
 40
0.1353155696
 40
0.1872804663
 40
0.3045411342
 40
0.4382089814
 40
0.5825525483
 40
0.7297137407
 40
0.8713041361
 40
1.0
 40
1.0
 40
1.0
 40
1.0
 10
125.3021264816
 20
175.1883244575
 30
0.0
 10
125.3021039027
 20
175.3235363492
 30
0.0
 10
125.2660158399
 20
175.6007325923
 30
0.0
 10
125.1069547025
 20
176.0009195213
 30
0.0
 10
124.8491029125
 20
176.3804324156
 30
0.0
 10
124.3634145985
 20
176.8677257253
 30
0.0
 10
123.5360210193
 20
177.3714963892
 30
0.0
 10
122.3462433767
 20
177.7688882789
 30
0.0
 10
121.0110607151
 20
177.9565155971
 30
0.0
 10
119.6386979921
 20
177.9185108085
 30
0.0
 10
118.3411473508
 20
177.6589734083
 30
0.0
 10
117.5450146899
 20
177.33048191
 30
0.0
 10
117.1933822535
 20
177.1274680401
 30
0.0
  0
SPLINE
  5
2AE
100
AcDbEntity
  8
0
100
AcDbSpline
 62
7
  6
BYLAYER
 70
0
 71
3
 72
9
 73
5
 74
0
 42
0.0000001
 43
0.0000001
 44
0.0000000001
 40
0.0
 40
0.0
 40
0.0
 40
0.0
 40
0.2455717787
 40
1.0
 40
1.0
 40
1.0
 40
1.0
 10
89.341490201
 20
187.8194628756
 30
0.0
 10
89.351229876
 20
187.843344925
 30
0.0
 10
89.3929269713
 20
187.9397581056
 30
0.0
 10
89.4426266616
 20
188.0326681108
 30
0.0
 10
89.4838464284
 20
188.1003379077
 30
0.0
  0
SPLINE
  5
2AF
100
AcDbEntity
  8
0
100
AcDbSpline
 62
7
  6
BYLAYER
 70
0
 71
3
 72
9
 73
5
 74
0
 42
0.0000001
 43
0.0000001
 44
0.0000000001
 40
0.0
 40
0.0
 40
0.0
 40
0.0
 40
0.2275609693
 40
1.0
 40
1.0
 40
1.0
 40
1.0
 10
89.4838464284
 20
188.1003379077
 30
0.0
 10
89.5443076207
 20
188.1995960288
 30
0.0
 10
89.8458602526
 20
188.6141068404
 30
0.0
 10
90.2644160108
 20
188.9324520824
 30
0.0
 10
90.6060718966
 20
189.1297060225
 30
0.0
  0
SPLINE
  5
2B0
100
AcDbEntity
  8
0
100
AcDbSpline
 62
7
  6
BYLAYER
 70
0
 71
3
 72
13
 73
9
 74
0
 42
0.0000001
 43
0.0000001
 44
0.0000000001
 40
0.0
 40
0.0
 40
0.0
 40
0.0
 40
0.1161189919
 40
0.2420070198
 40
0.5090877424
 40
0.7711118413
 40
0.8911247077
 40
1.0
 40
1.0
 40
1.0
 40
1.0
 10
80.0701558333
 20
192.7630420415
 30
0.0
 10
80.2599881933
 20
192.8726411514
 30
0.0
 10
80.6779521274
 20
193.0633763732
 30
0.0
 10
81.6047203564
 20
193.3273215215
 30
0.0
 10
82.8503866654
 20
193.4263605248
 30
0.0
 10
84.0755962151
 20
193.2353780939
 30
0.0
 10
84.9426274882
 20
192.899645876
 30
0.0
 10
85.3163261526
 20
192.6765248945
 30
0.0
 10
85.4800897435
 20
192.5523391977
 30
0.0
  0
SPLINE
  5
2B1
100
AcDbEntity
  8
0
100
AcDbSpline
 62
7
  6
BYLAYER
 70
0
 71
3
 72
9
 73
5
 74
0
 42
0.0000001
 43
0.0000001
 44
0.0000000001
 40
0.0
 40
0.0
 40
0.0
 40
0.0
 40
0.4948734197
 40
1.0
 40
1.0
 40
1.0
 40
1.0
 10
152.5089829923
 20
152.2833896606
 30
0.0
 10
151.9026032833
 20
152.0954732537
 30
0.0
 10
150.6202118036
 20
151.8925351689
 30
0.0
 10
149.3272934686
 20
151.9894276038
 30
0.0
 10
148.6928928637
 20
152.1214029184
 30
0.0
  0
SPLINE
  5
2B2
100
AcDbEntity
  8
0
100
AcDbSpline
 62
7
  6
BYLAYER
 70
0
 71
3
 72
10
 73
6
 74
0
 42
0.0000001
 43
0.0000001
 44
0.0000000001
 40
0.0
 40
0.0
 40
0.0
 40
0.0
 40
0.5238706845
 40
0.7654355331
 40
1.0
 40
1.0
 40
1.0
 40
1.0
 10
154.4273076148
 20
152.0028741776
 30
0.0
 10
154.5972001696
 20
152.1856123654
 30
0.0
 10
154.8121248092
 20
152.491877512
 30
0.0
 10
154.9614569337
 20
152.9469424955
 30
0.0
 10
154.9861399753
 20
153.1744682362
 30
0.0
 10
154.9861390327
 20
153.2861883229
 30
0.0
  0
SPLINE
  5
2B3
100
AcDbEntity
  8
0
100
AcDbSpline
 62
7
  6
BYLAYER
 70
0
 71
3
 72
17
 73
13
 74
0
 42
0.0000001
 43
0.0000001
 44
0.0000000001
 40
0.0
 40
0.0
 40
0.0
 40
0.0
 40
0.0428570067
 40
0.0874847375
 40
0.1353155696
 40
0.1872804663
 40
0.3045411342
 40
0.4382089814
 40
0.5825525483
 40
0.7297137407
 40
0.8713041361
 40
1.0
 40
1.0
 40
1.0
 40
1.0
 10
150.0509668618
 20
160.8998980493
 30
0.0
 10
150.0509442828
 20
161.035109941
 30
0.0
 10
150.01485622
 20
161.3123061841
 30
0.0
 10
149.8557950827
 20
161.712493113
 30
0.0
 10
149.5979432927
 20
162.0920060074
 30
0.0
 10
149.1122549786
 20
162.5792993171
 30
0.0
 10
148.2848613994
 20
163.083069981
 30
0.0
 10
147.0950837569
 20
163.4804618707
 30
0.0
 10
145.7599010953
 20
163.6680891889
 30
0.0
 10
144.3875383722
 20
163.6300844003
 30
0.0
 10
143.0899877309
 20
163.3705470001
 30
0.0
 10
142.29385507
 20
163.0420555018
 30
0.0
 10
141.9422226336
 20
162.8390416319
 30
0.0
  0
SPLINE
  5
2B4
100
AcDbEntity
  8
0
100
AcDbSpline
 62
7
  6
BYLAYER
 70
0
 71
3
 72
11
 73
7
 74
0
 42
0.0000001
 43
0.0000001
 44
0.0000000001
 40
0.0
 40
0.0
 40
0.0
 40
0.0
 40
0.2897031353
 40
0.5490914015
 40
0.7822201129
 40
1.0
 40
1.0
 40
1.0
 40
1.0
 10
147.7405565299
 20
156.1439090852
 30
0.0
 10
147.5825940817
 20
156.0527099676
 30
0.0
 10
147.2960087415
 20
155.8553192357
 30
0.0
 10
146.9534928163
 20
155.4953622714
 30
0.0
 10
146.7368329688
 20
155.0971520951
 30
0.0
 10
146.6861741925
 20
154.8113580503
 30
0.0
 10
146.686163813
 20
154.6742423621
 30
0.0
  0
SPLINE
  5
2B5
100
AcDbEntity
  8
0
100
AcDbSpline
 62
7
  6
BYLAYER
 70
0
 71
3
 72
13
 73
9
 74
0
 42
0.0000001
 43
0.0000001
 44
0.0000000001
 40
0.0
 40
0.0
 40
0.0
 40
0.0
 40
0.1161189919
 40
0.2420070198
 40
0.5090877424
 40
0.7711118413
 40
0.8911247077
 40
1.0
 40
1.0
 40
1.0
 40
1.0
 10
147.7405565299
 20
153.6944018339
 30
0.0
 10
147.9303888899
 20
153.8040009438
 30
0.0
 10
148.348352824
 20
153.9947361656
 30
0.0
 10
149.275121053
 20
154.2586813139
 30
0.0
 10
150.5207873619
 20
154.3577203172
 30
0.0
 10
151.7459969117
 20
154.1667378863
 30
0.0
 10
152.6130281847
 20
153.8310056685
 30
0.0
 10
152.9867268492
 20
153.6078846869
 30
0.0
 10
153.1504904401
 20
153.4836989901
 30
0.0
  0
SPLINE
  5
2B6
100
AcDbEntity
  8
0
100
AcDbSpline
 62
7
  6
BYLAYER
 70
0
 71
3
 72
11
 73
7
 74
0
 42
0.0000001
 43
0.0000001
 44
0.0000000001
 40
0.0
 40
0.0
 40
0.0
 40
0.0
 40
0.236872399
 40
0.4996356496
 40
0.7625757447
 40
1.0
 40
1.0
 40
1.0
 40
1.0
 10
83.3976276933
 20
191.7400328376
 30
0.0
 10
83.2873463293
 20
191.804379169
 30
0.0
 10
83.0302253179
 20
191.8984343608
 30
0.0
 10
82.6186139492
 20
191.9438597607
 30
0.0
 10
82.2065660652
 20
191.8996749423
 30
0.0
 10
81.9487628868
 20
191.8064290859
 30
0.0
 10
81.8379301462
 20
191.7424401551
 30
0.0
  0
SPLINE
  5
2B7
100
AcDbEntity
  8
0
100
AcDbSpline
 62
7
  6
BYLAYER
 70
0
 71
3
 72
15
 73
11
 74
0
 42
0.0000001
 43
0.0000001
 44
0.0000000001
 40
0.0
 40
0.0
 40
0.0
 40
0.0
 40
0.1144492357
 40
0.2377932694
 40
0.3674963548
 40
0.5004759675
 40
0.6333894719
 40
0.7628993479
 40
0.8859388262
 40
1.0
 40
1.0
 40
1.0
 40
1.0
 10
94.0714091409
 20
95.2517236304
 30
0.0
 10
94.0679253732
 20
95.7818389915
 30
0.0
 10
93.9648874358
 20
96.8836587402
 30
0.0
 10
93.571490719
 20
98.5443053522
 30
0.0
 10
92.9474493223
 20
100.2244965048
 30
0.0
 10
92.1158708342
 20
101.8616353094
 30
0.0
 10
91.1076241789
 20
103.3952314556
 30
0.0
 10
89.9598838024
 20
104.768503662
 30
0.0
 10
88.7154698558
 20
105.9304212373
 30
0.0
 10
87.8116108236
 20
106.5634272194
 30
0.0
 10
87.3540616298
 20
106.8275873935
 30
0.0
  0
SPLINE
  5
2B8
100
AcDbEntity
  8
0
100
AcDbSpline
 62
7
  6
BYLAYER
 70
0
 71
3
 72
9
 73
5
 74
0
 42
0.0000001
 43
0.0000001
 44
0.0000000001
 40
0.0
 40
0.0
 40
0.0
 40
0.0
 40
0.5051265803
 40
1.0
 40
1.0
 40
1.0
 40
1.0
 10
148.6928928637
 20
150.7333488093
 30
0.0
 10
149.3272934686
 20
150.6013734947
 30
0.0
 10
150.6202118036
 20
150.5044810598
 30
0.0
 10
151.9026032833
 20
150.7074191446
 30
0.0
 10
152.5089829923
 20
150.8953355515
 30
0.0
  0
SPLINE
  5
2B9
100
AcDbEntity
  8
0
100
AcDbSpline
 62
7
  6
BYLAYER
 70
0
 71
3
 72
9
 73
5
 74
0
 42
0.0000001
 43
0.0000001
 44
0.0000000001
 40
0.0
 40
0.0
 40
0.0
 40
0.0
 40
0.2435645296
 40
1.0
 40
1.0
 40
1.0
 40
1.0
 10
79.7479516629
 20
192.5496728363
 30
0.0
 10
79.7729296064
 20
192.5686792947
 30
0.0
 10
79.8768145136
 20
192.6449536713
 30
0.0
 10
79.9857371084
 20
192.7143031588
 30
0.0
 10
80.0701558333
 20
192.7630420415
 30
0.0
  0
SPLINE
  5
2BA
100
AcDbEntity
  8
0
100
AcDbSpline
 62
7
  6
BYLAYER
 70
0
 71
3
 72
11
 73
7
 74
0
 42
0.0000001
 43
0.0000001
 44
0.0000000001
 40
0.0
 40
0.0
 40
0.0
 40
0.0
 40
0.2177827614
 40
0.4509125417
 40
0.7102912579
 40
1.0
 40
1.0
 40
1.0
 40
1.0
 10
87.3157457893
 20
193.742882576
 30
0.0
 10
87.3157434713
 20
193.563868299
 30
0.0
 10
87.2495629647
 20
193.190748845
 30
0.0
 10
86.9667125475
 20
192.6708727458
 30
0.0
 10
86.5195506275
 20
192.2009190888
 30
0.0
 10
86.1453990246
 20
191.9432186931
 30
0.0
 10
85.939166552
 20
191.8241510303
 30
0.0
  0
SPLINE
  5
2BB
100
AcDbEntity
  8
0
100
AcDbSpline
 62
7
  6
BYLAYER
 70
0
 71
3
 72
15
 73
11
 74
0
 42
0.0000001
 43
0.0000001
 44
0.0000000001
 40
0.0
 40
0.0
 40
0.0
 40
0.0
 40
0.1144492357
 40
0.2377932694
 40
0.3674963548
 40
0.5004759675
 40
0.6333894719
 40
0.7628993479
 40
0.8859388262
 40
1.0
 40
1.0
 40
1.0
 40
1.0
 10
44.5737283807
 20
123.8285764468
 30
0.0
 10
44.5702446129
 20
124.3586918079
 30
0.0
 10
44.4672066755
 20
125.4605115566
 30
0.0
 10
44.0738099587
 20
127.1211581686
 30
0.0
 10
43.449768562
 20
128.8013493212
 30
0.0
 10
42.618190074
 20
130.4384881259
 30
0.0
 10
41.6099434186
 20
131.972084272
 30
0.0
 10
40.4622030421
 20
133.3453564784
 30
0.0
 10
39.2177890955
 20
134.5072740537
 30
0.0
 10
38.3139300633
 20
135.1402800358
 30
0.0
 10
37.8563808695
 20
135.4044402099
 30
0.0
  0
SPLINE
  5
2BC
100
AcDbEntity
  8
0
100
AcDbSpline
 62
7
  6
BYLAYER
 70
0
 71
3
 72
11
 73
7
 74
0
 42
0.0000001
 43
0.0000001
 44
0.0000000001
 40
0.0
 40
0.0
 40
0.0
 40
0.0
 40
0.2897494628
 40
0.5490839184
 40
0.7822245071
 40
1.0
 40
1.0
 40
1.0
 40
1.0
 10
115.3549122767
 20
176.06603324
 30
0.0
 10
115.1464559163
 20
175.9456816226
 30
0.0
 10
114.7682956623
 20
175.6852786641
 30
0.0
 10
114.3164100154
 20
175.2102776327
 30
0.0
 10
114.0305785787
 20
174.6849016714
 30
0.0
 10
113.963680227
 20
174.3078028444
 30
0.0
 10
113.9637104375
 20
174.1268896546
 30
0.0
  0
SPLINE
  5
2BD
100
AcDbEntity
  8
0
100
AcDbSpline
 62
7
  6
BYLAYER
 70
0
 71
3
 72
17
 73
13
 74
0
 42
0.0000001
 43
0.0000001
 44
0.0000000001
 40
0.0
 40
0.0
 40
0.0
 40
0.0
 40
0.0428584629
 40
0.08748393
 40
0.135317815
 40
0.1872795469
 40
0.3045398917
 40
0.4382057949
 40
0.5825481992
 40
0.7297130515
 40
0.8713063844
 40
1.0
 40
1.0
 40
1.0
 40
1.0
 10
86.2157385712
 20
193.7428825835
 30
0.0
 10
86.2157463288
 20
193.8453621301
 30
0.0
 10
86.1882765341
 20
194.0554281361
 30
0.0
 10
86.0678637701
 20
194.3587790518
 30
0.0
 10
85.8723303321
 20
194.6463408792
 30
0.0
 10
85.5043098124
 20
195.0157155133
 30
0.0
 10
84.8771831757
 20
195.3974512928
 30
0.0
 10
83.9754917226
 20
195.6986500604
 30
0.0
 10
82.9635636811
 20
195.8408758413
 30
0.0
 10
81.9234472843
 20
195.8120832247
 30
0.0
 10
80.9400335505
 20
195.6153734083
 30
0.0
 10
80.3366507245
 20
195.3664092716
 30
0.0
 10
80.0701558333
 20
195.2125492928
 30
0.0
  0
SPLINE
  5
2BE
100
AcDbEntity
  8
0
100
AcDbSpline
 62
7
  6
BYLAYER
 70
0
 71
3
 72
12
 73
8
 74
0
 42
0.0000001
 43
0.0000001
 44
0.0000000001
 40
0.0
 40
0.0
 40
0.0
 40
0.0
 40
0.2895808293
 40
0.5486330495
 40
0.7816360177
 40
0.891837832
 40
1.0
 40
1.0
 40
1.0
 40
1.0
 10
30.0777841374
 20
139.89531353
 30
0.0
 10
29.6607880796
 20
140.1360608698
 30
0.0
 10
28.8314488249
 20
140.5306321436
 30
0.0
 10
27.5576496792
 20
140.8385841495
 30
0.0
 10
26.5404818902
 20
140.8116260567
 30
0.0
 10
25.814322678
 20
140.610479969
 30
0.0
 10
25.4835645355
 20
140.4557064772
 30
0.0
 10
25.3278134549
 20
140.3657802355
 30
0.0
  0
SPLINE
  5
2BF
100
AcDbEntity
  8
0
100
AcDbSpline
 62
7
  6
BYLAYER
 70
0
 71
3
 72
11
 73
7
 74
0
 42
0.0000001
 43
0.0000001
 44
0.0000000001
 40
0.0
 40
0.0
 40
0.0
 40
0.0
 40
0.2897494628
 40
0.5490839184
 40
0.7822245071
 40
1.0
 40
1.0
 40
1.0
 40
1.0
 10
140.1037526569
 20
161.7776068318
 30
0.0
 10
139.8952962964
 20
161.6572552144
 30
0.0
 10
139.5171360425
 20
161.3968522559
 30
0.0
 10
139.0652503955
 20
160.9218512245
 30
0.0
 10
138.7794189588
 20
160.3964752632
 30
0.0
 10
138.7125206071
 20
160.0193764362
 30
0.0
 10
138.7125508177
 20
159.8384632464
 30
0.0
  0
SPLINE
  5
2C0
100
AcDbEntity
  8
0
100
AcDbSpline
 62
7
  6
BYLAYER
 70
0
 71
3
 72
11
 73
7
 74
0
 42
0.0000001
 43
0.0000001
 44
0.0000000001
 40
0.0
 40
0.0
 40
0.0
 40
0.0
 40
0.236872399
 40
0.4996356496
 40
0.7625757447
 40
1.0
 40
1.0
 40
1.0
 40
1.0
 10
151.0680283898
 20
152.67139263
 30
0.0
 10
150.9577470258
 20
152.7357389614
 30
0.0
 10
150.7006260145
 20
152.8297941532
 30
0.0
 10
150.2890146458
 20
152.8752195531
 30
0.0
 10
149.8769667618
 20
152.8310347347
 30
0.0
 10
149.6191635834
 20
152.7377888783
 30
0.0
 10
149.5083308427
 20
152.6737999476
 30
0.0
  0
SPLINE
  5
2C1
100
AcDbEntity
  8
0
100
AcDbSpline
 62
7
  6
BYLAYER
 70
0
 71
3
 72
11
 73
7
 74
0
 42
0.0000001
 43
0.0000001
 44
0.0000000001
 40
0.0
 40
0.0
 40
0.0
 40
0.0
 40
0.2177827477
 40
0.4509152641
 40
0.7103063952
 40
1.0
 40
1.0
 40
1.0
 40
1.0
 10
117.8809918065
 20
185.3943688645
 30
0.0
 10
117.8809689081
 20
185.2267809665
 30
0.0
 10
117.8190734735
 20
184.8774707336
 30
0.0
 10
117.5542476922
 20
184.3907671051
 30
0.0
 10
117.1356207051
 20
183.9508233834
 30
0.0
 10
116.7853535255
 20
183.7095713202
 30
0.0
 10
116.5922948276
 20
183.5981094944
 30
0.0
  0
SPLINE
  5
2C2
100
AcDbEntity
  8
0
100
AcDbSpline
 62
7
  6
BYLAYER
 70
0
 71
3
 72
17
 73
13
 74
0
 42
0.0000001
 43
0.0000001
 44
0.0000000001
 40
0.0
 40
0.0
 40
0.0
 40
0.0
 40
0.0428570067
 40
0.0874847375
 40
0.1353155696
 40
0.1872804663
 40
0.3045411342
 40
0.4382089814
 40
0.5825525483
 40
0.7297137407
 40
0.8713041361
 40
1.0
 40
1.0
 40
1.0
 40
1.0
 10
100.5532861015
 20
189.4767508657
 30
0.0
 10
100.5532635226
 20
189.6119627574
 30
0.0
 10
100.5171754597
 20
189.8891590005
 30
0.0
 10
100.3581143224
 20
190.2893459295
 30
0.0
 10
100.1002625324
 20
190.6688588238
 30
0.0
 10
99.6145742183
 20
191.1561521335
 30
0.0
 10
98.7871806391
 20
191.6599227974
 30
0.0
 10
97.5974029966
 20
192.0573146871
 30
0.0
 10
96.262220335
 20
192.2449420053
 30
0.0
 10
94.889857612
 20
192.2069372167
 30
0.0
 10
93.5923069706
 20
191.9473998165
 30
0.0
 10
92.7961743097
 20
191.6189083183
 30
0.0
 10
92.4445418734
 20
191.4158944483
 30
0.0
  0
SPLINE
  5
2C3
100
AcDbEntity
  8
0
100
AcDbSpline
 62
7
  6
BYLAYER
 70
0
 71
3
 72
12
 73
8
 74
0
 42
0.0000001
 43
0.0000001
 44
0.0000000001
 40
0.0
 40
0.0
 40
0.0
 40
0.0
 40
0.2895808293
 40
0.5486330495
 40
0.7816360177
 40
0.891837832
 40
1.0
 40
1.0
 40
1.0
 40
1.0
 10
79.5754648977
 20
111.3184607136
 30
0.0
 10
79.1584688399
 20
111.5592080534
 30
0.0
 10
78.3291295852
 20
111.9537793272
 30
0.0
 10
77.0553304395
 20
112.2617313331
 30
0.0
 10
76.0381626505
 20
112.2347732403
 30
0.0
 10
75.3120034383
 20
112.0336271525
 30
0.0
 10
74.9812452958
 20
111.8788536608
 30
0.0
 10
74.8254942152
 20
111.788927419
 30
0.0
  0
SPLINE
  5
2C4
100
AcDbEntity
  8
0
100
AcDbSpline
 62
7
  6
BYLAYER
 70
0
 71
3
 72
9
 73
5
 74
0
 42
0.0000001
 43
0.0000001
 44
0.0000000001
 40
0.0
 40
0.0
 40
0.0
 40
0.0
 40
0.2435645296
 40
1.0
 40
1.0
 40
1.0
 40
1.0
 10
147.4183523595
 20
153.4810326287
 30
0.0
 10
147.443330303
 20
153.5000390871
 30
0.0
 10
147.5472152101
 20
153.5763134637
 30
0.0
 10
147.656137805
 20
153.6456629513
 30
0.0
 10
147.7405565299
 20
153.6944018339
 30
0.0
  0
SPLINE
  5
2C5
100
AcDbEntity
  8
0
100
AcDbSpline
 62
7
  6
BYLAYER
 70
0
 71
3
 72
17
 73
13
 74
0
 42
0.0000001
 43
0.0000001
 44
0.0000000001
 40
0.0
 40
0.0
 40
0.0
 40
0.0
 40
0.0428584629
 40
0.08748393
 40
0.135317815
 40
0.1872795469
 40
0.3045398917
 40
0.4382057949
 40
0.5825481992
 40
0.7297130515
 40
0.8713063844
 40
1.0
 40
1.0
 40
1.0
 40
1.0
 10
153.8861392678
 20
154.6742423759
 30
0.0
 10
153.8861470254
 20
154.7767219225
 30
0.0
 10
153.8586772306
 20
154.9867879285
 30
0.0
 10
153.7382644666
 20
155.2901388442
 30
0.0
 10
153.5427310286
 20
155.5777006716
 30
0.0
 10
153.174710509
 20
155.9470753057
 30
0.0
 10
152.5475838723
 20
156.3288110852
 30
0.0
 10
151.6458924192
 20
156.6300098528
 30
0.0
 10
150.6339643776
 20
156.7722356337
 30
0.0
 10
149.5938479809
 20
156.7434430171
 30
0.0
 10
148.610434247
 20
156.5467332007
 30
0.0
 10
148.007051421
 20
156.297769064
 30
0.0
 10
147.7405565299
 20
156.1439090852
 30
0.0
  0
SPLINE
  5
2C6
100
AcDbEntity
  8
0
100
AcDbSpline
 62
7
  6
BYLAYER
 70
0
 71
3
 72
10
 73
6
 74
0
 42
0.0000001
 43
0.0000001
 44
0.0000000001
 40
0.0
 40
0.0
 40
0.0
 40
0.0
 40
0.2345644609
 40
0.4761293305
 40
1.0
 40
1.0
 40
1.0
 40
1.0
 10
154.9861390349
 20
154.6742424322
 30
0.0
 10
154.9861399689
 20
154.5625223486
 30
0.0
 10
154.9614569446
 20
154.3349965994
 30
0.0
 10
154.8121247736
 20
153.8799316306
 30
0.0
 10
154.5972001643
 20
153.5736664688
 30
0.0
 10
154.4273076148
 20
153.3909282867
 30
0.0
  0
SPLINE
  5
2C7
100
AcDbEntity
  8
0
100
AcDbSpline
 62
7
  6
BYLAYER
 70
0
 71
3
 72
11
 73
7
 74
0
 42
0.0000001
 43
0.0000001
 44
0.0000000001
 40
0.0
 40
0.0
 40
0.0
 40
0.0
 40
0.2897494628
 40
0.5490839184
 40
0.7822245071
 40
1.0
 40
1.0
 40
1.0
 40
1.0
 10
90.6060718966
 20
190.3544596482
 30
0.0
 10
90.3976155361
 20
190.2341080308
 30
0.0
 10
90.0194552822
 20
189.9737050724
 30
0.0
 10
89.5675696352
 20
189.4987040409
 30
0.0
 10
89.2817381985
 20
188.9733280796
 30
0.0
 10
89.2148398468
 20
188.5962292526
 30
0.0
 10
89.2148700574
 20
188.4153160628
 30
0.0
  0
SPLINE
  5
2C8
100
AcDbEntity
  8
0
100
AcDbSpline
 62
7
  6
BYLAYER
 70
0
 71
3
 72
15
 73
11
 74
0
 42
0.0000001
 43
0.0000001
 44
0.0000000001
 40
0.0
 40
0.0
 40
0.0
 40
0.0
 40
0.1214544313
 40
0.2541445417
 40
0.3932723285
 40
0.5331409879
 40
0.6679821515
 40
0.7926795444
 40
0.9036584273
 40
1.0
 40
1.0
 40
1.0
 40
1.0
 10
92.4445418734
 20
190.1911408226
 30
0.0
 10
92.7418548127
 20
190.3627935035
 30
0.0
 10
93.405359424
 20
190.6519226098
 30
0.0
 10
94.4893219519
 20
190.9165994443
 30
0.0
 10
95.652530762
 20
191.0211899977
 30
0.0
 10
96.8246500467
 20
190.9590139984
 30
0.0
 10
97.9354887317
 20
190.7340976656
 30
0.0
 10
98.9194849362
 20
190.3587935234
 30
0.0
 10
99.7192460347
 20
189.8546710015
 30
0.0
 10
100.1248324677
 20
189.4163749892
 30
0.0
 10
100.269493239
 20
189.1856530985
 30
0.0
  0
SPLINE
  5
2C9
100
AcDbEntity
  8
0
100
AcDbSpline
 62
7
  6
BYLAYER
 70
0
 71
3
 72
17
 73
13
 74
0
 42
0.0000001
 43
0.0000001
 44
0.0000000001
 40
0.0
 40
0.0
 40
0.0
 40
0.0
 40
0.0428584629
 40
0.08748393
 40
0.135317815
 40
0.1872795469
 40
0.3045398917
 40
0.4382057949
 40
0.5825481992
 40
0.7297130515
 40
0.8713063844
 40
1.0
 40
1.0
 40
1.0
 40
1.0
 10
95.0038811762
 20
143.7535841046
 30
0.0
 10
95.003890119
 20
143.8717202486
 30
0.0
 10
94.97222355
 20
144.1138796722
 30
0.0
 10
94.8334143915
 20
144.4635758667
 30
0.0
 10
94.6080077894
 20
144.7950707511
 30
0.0
 10
94.1837619126
 20
145.2208776209
 30
0.0
 10
93.460824262
 20
145.6609341445
 30
0.0
 10
92.4213743924
 20
146.0081493905
 30
0.0
 10
91.2548462334
 20
146.1721041102
 30
0.0
 10
90.0558231649
 20
146.1389126215
 30
0.0
 10
88.9221656662
 20
145.9121499166
 30
0.0
 10
88.2265993529
 20
145.6251495923
 30
0.0
 10
87.9193899644
 20
145.4477832279
 30
0.0
  0
SPLINE
  5
2CA
100
AcDbEntity
  8
0
100
AcDbSpline
 62
7
  6
BYLAYER
 70
0
 71
3
 72
15
 73
11
 74
0
 42
0.0000001
 43
0.0000001
 44
0.0000000001
 40
0.0
 40
0.0
 40
0.0
 40
0.0
 40
0.1214544313
 40
0.2541445417
 40
0.3932723285
 40
0.5331409879
 40
0.6679821515
 40
0.7926795444
 40
0.9036584273
 40
1.0
 40
1.0
 40
1.0
 40
1.0
 10
141.9422226336
 20
161.6142880062
 30
0.0
 10
142.239535573
 20
161.7859406871
 30
0.0
 10
142.9030401843
 20
162.0750697934
 30
0.0
 10
143.9870027122
 20
162.3397466279
 30
0.0
 10
145.1502115223
 20
162.4443371813
 30
0.0
 10
146.322330807
 20
162.3821611819
 30
0.0
 10
147.4331694919
 20
162.1572448492
 30
0.0
 10
148.4171656965
 20
161.781940707
 30
0.0
 10
149.2169267949
 20
161.2778181851
 30
0.0
 10
149.622513228
 20
160.8395221728
 30
0.0
 10
149.7671739993
 20
160.608800282
 30
0.0
  0
SPLINE
  5
2CB
100
AcDbEntity
  8
0
100
AcDbSpline
 62
7
  6
BYLAYER
 70
0
 71
3
 72
11
 73
7
 74
0
 42
0.0000001
 43
0.0000001
 44
0.0000000001
 40
0.0
 40
0.0
 40
0.0
 40
0.0
 40
0.2897031353
 40
0.5490914015
 40
0.7822201129
 40
1.0
 40
1.0
 40
1.0
 40
1.0
 10
87.2122861272
 20
145.039539074
 30
0.0
 10
87.0301905272
 20
144.9344067579
 30
0.0
 10
86.6998213157
 20
144.7068591085
 30
0.0
 10
86.3049765685
 20
144.2919087191
 30
0.0
 10
86.055215911
 20
143.8328608771
 30
0.0
 10
85.9968175994
 20
143.5034038532
 30
0.0
 10
85.9968056342
 20
143.3453399348
 30
0.0
  0
ELLIPSE
  5
2CC
100
AcDbEntity
  8
0
100
AcDbEllipse
 62
7
  6
BYLAYER
 10
35.9976750185
 20
126.5745493294
 30
0.0
 11
-4.687204023
 21
8.2633882558
 31
0.0
 40
0.5823728149
 41
-2.3441487768
 42
-0.7809695818
  0
ELLIPSE
  5
2CD
100
AcDbEntity
  8
0
100
AcDbEllipse
 62
7
  6
BYLAYER
 10
60.7465153987
 20
112.2861229212
 30
0.0
 11
-4.687204023
 21
8.2633882558
 31
0.0
 40
0.5823728149
 41
-2.3441487767
 42
-0.7809695818
  0
ELLIPSE
  5
2CE
100
AcDbEntity
  8
0
100
AcDbEllipse
 62
7
  6
BYLAYER
 10
85.4953557788
 20
97.997696513
 30
0.0
 11
-4.687204023
 21
8.2633882558
 31
0.0
 40
0.5823728149
 41
-2.3441487767
 42
-0.7809695818
  0
ELLIPSE
  5
2CF
100
AcDbEntity
  8
0
100
AcDbEllipse
 62
7
  6
BYLAYER
 10
77.7167590467
 20
102.4885698331
 30
0.0
 11
-4.687204023
 21
8.2633882558
 31
0.0
 40
0.5823728149
 41
-0.7809492643
 42
0.7822299221
  0
ELLIPSE
  5
2D0
100
AcDbEntity
  8
0
100
AcDbEllipse
 62
7
  6
BYLAYER
 10
52.9679186666
 20
116.7769962413
 30
0.0
 11
-4.687204023
 21
8.2633882558
 31
0.0
 40
0.5823728149
 41
-0.7809492643
 42
0.782229903
  0
ELLIPSE
  5
2D1
100
AcDbEntity
  8
0
100
AcDbEllipse
 62
7
  6
BYLAYER
 10
28.2190782864
 20
131.0654226495
 30
0.0
 11
-4.687204023
 21
8.2633882558
 31
0.0
 40
0.5823728149
 41
-0.7809492643
 42
0.7822299221
  0
ENDSEC
  0
SECTION
  2
OBJECTS
  0
DICTIONARY
  5
C
100
AcDbDictionary
280
0
281
1
  3
ACAD_GROUP
350
D
  3
ACAD_MLINESTYLE
350
17
  3
ACAD_LAYOUT
350
1A
  3
ACAD_PLOTSETTINGS
350
19
  3
ACAD_PLOTSTYLENAME
350
E
  0
DICTIONARY
  5
D
102
{ACAD_REACTORS
330
C
102
}
100
AcDbDictionary
280
0
281
1
  0
ACDBDICTIONARYWDFLT
  5
E
102
{ACAD_REACTORS
330
C
102
}
100
AcDbDictionary
281
1
  3
Normal
350
F
100
AcDbDictionaryWithDefault
340
F
  0
DICTIONARY
  5
17
102
{ACAD_REACTORS
330
C
102
}
100
AcDbDictionary
280
0
281
1
  3
Standard
350
18
  0
DICTIONARY
  5
19
102
{ACAD_REACTORS
330
C
102
}
100
AcDbDictionary
281
1
  0
DICTIONARY
  5
1A
102
{ACAD_REACTORS
330
C
102
}
100
AcDbDictionary
281
1
  3
Model
350
2D2
  3
Layout1
350
2D3
  0
ACDBPLACEHOLDER
  5
F
102
{ACAD_REACTORS
330
E
102
}
  0
MLINESTYLE
  5
18
102
{ACAD_REACTORS
330
17
102
}
100
AcDbMlineStyle
  2
STANDARD
 70
0
  3

 62
256
 51
90.0
 52
90.0
 71
2
 49
0.5
 62
256
  6
BYLAYER
 49
-0.5
 62
256
  6
BYLAYER
  0
LAYOUT
  5
2D2
102
{ACAD_REACTORS
330
1A
102
}
100
AcDbPlotSettings
  1

  2
none_device
  4

  6

 40
0.0
 41
0.0
 42
0.0
 43
0.0
 44
210.0
 45
297.0
 46
0.0
 47
0.0
 48
0.0
 49
0.0
140
0.0
141
0.0
142
1.0
143
1.0
 70
1024
 72
1
 73
0
 74
0
  7

 75
0
147
1.0
148
0.0
149
0.0
100
AcDbLayout
  1
Model
 70
0
 71
0
 10
0.0
 20
0.0
 11
210.0
 21
297.0
 12
0.0
 22
0.0
 32
0.0
 14
0.0
 24
0.0
 34
0.0
 15
0.0
 25
0.0
 35
0.0
146
0.0
 13
0.0
 23
0.0
 33
0.0
 16
1.0
 26
0.0
 36
0.0
 17
0.0
 27
1.0
 37
0.0
 76
0
330
210
345
0
346
0
  0
LAYOUT
  5
2D3
102
{ACAD_REACTORS
330
1A
102
}
100
AcDbPlotSettings
  1

  2
none_device
  4

  6

 40
0.0
 41
0.0
 42
0.0
 43
0.0
 44
210.0
 45
297.0
 46
0.0
 47
0.0
 48
0.0
 49
0.0
140
0.0
141
0.0
142
1.0
143
1.0
 70
0
 72
1
 73
0
 74
0
  7

 75
0
147
1.0
148
0.0
149
0.0
100
AcDbLayout
  1
Layout1
 70
0
 71
1
 10
0.0
 20
0.0
 11
210.0
 21
297.0
 12
0.0
 22
0.0
 32
0.0
 14
0.0
 24
0.0
 34
0.0
 15
0.0
 25
0.0
 35
0.0
146
0.0
 13
0.0
 23
0.0
 33
0.0
 16
1.0
 26
0.0
 36
0.0
 17
0.0
 27
1.0
 37
0.0
 76
0
330
211
345
0
346
0
  0
ENDSEC
  0
EOF
