999
DXF file: C:\Users\sesa63760\Dev\_Creo\CAD\MCADPP0003448_3D-CAD\drw0001_2.dxf
999
Pro/ENGINEER 2019471 by Parametric Technology Corporation
  0
SECTION
  2
HEADER
  9
$ACADVER
  1
AC1024
  9
$DWGCODEPAGE
  3
ANSI_1252
  9
$EXTMAX
 10
143.4372672696
 20
202.8612779956
 30
0.0
  9
$EXTMIN
 10
0.0
 20
0.0
 30
0.0
  9
$LIMMIN
 10
0.0
 20
0.0
  9
$LIMMAX
 10
143.4372672696
 20
202.8612779956
  9
$VIEWCTR
 10
71.7186336348
 20
101.4306389978
  9
$VIEWSIZE
 40
202.8612779956
  9
$CLAYER
  8
0
  9
$LTSCALE
 40
13.223549973
  9
$CELTYPE
  6
BYLAYER
  9
$DIMSCALE
 40
1.0
  9
$DIMASZ
 40
1.7075865151
  9
$DIMEXO
 40
1.0
  9
$DIMDLI
 40
9.1362708905
  9
$DIMEXE
 40
1.0
  9
$DIMCEN
 40
2.163853632
  9
$DIMLFAC
 40
1.0
  9
$DIMBLK
  1
_FILLED
  9
$DIMALT
 70
0
  9
$DIMALTF
 40
0.0393700787
  9
$DIMTXT
 40
2.3906211212
  9
$DIMTOL
 70
1
  9
$DIMLIM
 70
0
  9
$DIMTFAC
 40
1.0
  9
$DIMTP
 40
0.01
  9
$DIMTM
 40
0.01
  9
$DIMGAP
 40
0.625
  9
$DIMDSEP
 70
46
  9
$AUNITS
 70
0
  9
$PDMODE
 70
3
  9
$PDSIZE
 40
0.3125
  9
$HANDSEED
  5
397
  9
$TILEMODE
 70
1
  9
$MEASUREMENT
 70
1
  9
$INSUNITS
 70
4
  0
ENDSEC
  0
SECTION
  2
CLASSES
  0
CLASS
  1
ACDBDICTIONARYWDFLT
  2
AcDbDictionaryWithDefault
  3
AutoCAD 2000
 90
0
 91
1
280
0
281
0
  0
CLASS
  1
ACDBPLACEHOLDER
  2
AcDbPlaceHolder
  3
AutoCAD 2000
 90
0
 91
1
280
0
281
0
  0
CLASS
  1
LAYOUT
  2
AcDbLayout
  3
AutoCAD 2000
 90
0
 91
0
280
0
281
0
  0
ENDSEC
  0
SECTION
  2
TABLES
  0
TABLE
  2
VPORT
  5
8
100
AcDbSymbolTable
 70
2
  0
VPORT
  5
1F4
100
AcDbSymbolTableRecord
100
AcDbViewportTableRecord
  2
*ACTIVE
 70
0
 10
0.0
 20
0.0
 11
1.0
 21
1.0
 12
71.7186336348
 22
101.4306389978
 13
0.0
 23
0.0
 14
1.0
 24
1.0
 15
0.0
 25
0.0
 16
0.0
 26
0.0
 36
1.0
 17
0.0
 27
0.0
 37
0.0
 40
202.8612779956
 41
0.7070707071
 42
50.0
 43
0.0
 44
0.0
 50
0.0
 51
0.0
 71
0
 72
100
 73
1
 74
1
 75
0
 76
0
 77
0
 78
0
  0
ENDTAB
  0
TABLE
  2
LTYPE
  5
5
100
AcDbSymbolTable
 70
6
  0
LTYPE
  5
14
100
AcDbSymbolTableRecord
100
AcDbLinetypeTableRecord
  2
BYBLOCK
 70
0
  3

 72
65
 73
0
 40
0.0
  0
LTYPE
  5
15
100
AcDbSymbolTableRecord
100
AcDbLinetypeTableRecord
  2
BYLAYER
 70
0
  3

 72
65
 73
0
 40
0.0
  0
LTYPE
  5
16
100
AcDbSymbolTableRecord
100
AcDbLinetypeTableRecord
  2
CONTINUOUS
 70
64
  3
Solid line
 72
65
 73
0
 40
0.0
  0
LTYPE
  5
1F5
100
AcDbSymbolTableRecord
100
AcDbLinetypeTableRecord
  2
CENTER
 70
64
  3
____ _ ____ _ ____ _ ____ _ ____ _ ____ _ ____
 72
65
 73
4
 40
0.6
 49
0.375
 74
0
 49
-0.075
 74
0
 49
0.075
 74
0
 49
-0.075
 74
0
  0
LTYPE
  5
1F6
100
AcDbSymbolTableRecord
100
AcDbLinetypeTableRecord
  2
HIDDEN
 70
64
  3
- - - - - - - - - - - - - - - - - - - -
 72
65
 73
2
 40
0.2
 49
0.1
 74
0
 49
-0.1
 74
0
  0
LTYPE
  5
1F7
100
AcDbSymbolTableRecord
100
AcDbLinetypeTableRecord
  2
PHANTOM
 70
64
  3
_____ _ _ _____ _ _ _____ _ _ _____
 72
65
 73
6
 40
0.8
 49
0.45
 74
0
 49
-0.05
 74
0
 49
0.1
 74
0
 49
-0.05
 74
0
 49
0.1
 74
0
 49
-0.05
 74
0
  0
LTYPE
  5
1F8
100
AcDbSymbolTableRecord
100
AcDbLinetypeTableRecord
  2
DOT
 70
64
  3
. . . . . . . . . . . . . . . . . . . .
 72
65
 73
2
 40
0.2
 49
0.1
 74
0
 49
-0.1
 74
0
  0
LTYPE
  5
1F9
100
AcDbSymbolTableRecord
100
AcDbLinetypeTableRecord
  2
DASHED
 70
64
  3
- - - - - - - - - - - - - - - - - - - -
 72
65
 73
2
 40
0.2
 49
0.1
 74
0
 49
-0.1
 74
0
  0
ENDTAB
  0
TABLE
  2
LAYER
  5
2
100
AcDbSymbolTable
 70
36
  0
LAYER
  5
10
100
AcDbSymbolTableRecord
100
AcDbLayerTableRecord
  2
0
 70
0
 62
7
  6
CONTINUOUS
370
-3
390
F
  0
LAYER
  5
1FA
100
AcDbSymbolTableRecord
100
AcDbLayerTableRecord
  2
DEFAULT_1
 70
0
 62
7
  6
CENTER
370
-3
390
F
  0
LAYER
  5
1FB
100
AcDbSymbolTableRecord
100
AcDbLayerTableRecord
  2
DEFAULT_2
 70
0
 62
8
  6
HIDDEN
370
-3
390
F
  0
LAYER
  5
1FC
100
AcDbSymbolTableRecord
100
AcDbLayerTableRecord
  2
DEFAULT_3
 70
0
 62
7
  6
PHANTOM
370
-3
390
F
  0
LAYER
  5
1FD
100
AcDbSymbolTableRecord
100
AcDbLayerTableRecord
  2
00_COMPONENTS
 70
0
 62
7
  6
CONTINUOUS
370
-3
390
F
  0
LAYER
  5
1FE
100
AcDbSymbolTableRecord
100
AcDbLayerTableRecord
  2
00_COMPONENTS_1
 70
0
 62
7
  6
CONTINUOUS
370
-3
390
F
  0
LAYER
  5
1FF
100
AcDbSymbolTableRecord
100
AcDbLayerTableRecord
  2
00_COMPONENTS_10
 70
0
 62
7
  6
CONTINUOUS
370
-3
390
F
  0
LAYER
  5
200
100
AcDbSymbolTableRecord
100
AcDbLayerTableRecord
  2
00_COMPONENTS_11
 70
0
 62
7
  6
CONTINUOUS
370
-3
390
F
  0
LAYER
  5
201
100
AcDbSymbolTableRecord
100
AcDbLayerTableRecord
  2
00_COMPONENTS_12
 70
0
 62
7
  6
CONTINUOUS
370
-3
390
F
  0
LAYER
  5
202
100
AcDbSymbolTableRecord
100
AcDbLayerTableRecord
  2
00_COMPONENTS_13
 70
0
 62
7
  6
CONTINUOUS
370
-3
390
F
  0
LAYER
  5
203
100
AcDbSymbolTableRecord
100
AcDbLayerTableRecord
  2
00_COMPONENTS_14
 70
0
 62
7
  6
CONTINUOUS
370
-3
390
F
  0
LAYER
  5
204
100
AcDbSymbolTableRecord
100
AcDbLayerTableRecord
  2
00_COMPONENTS_15
 70
0
 62
7
  6
CONTINUOUS
370
-3
390
F
  0
LAYER
  5
205
100
AcDbSymbolTableRecord
100
AcDbLayerTableRecord
  2
00_COMPONENTS_16
 70
0
 62
7
  6
CONTINUOUS
370
-3
390
F
  0
LAYER
  5
206
100
AcDbSymbolTableRecord
100
AcDbLayerTableRecord
  2
00_COMPONENTS_17
 70
0
 62
7
  6
CONTINUOUS
370
-3
390
F
  0
LAYER
  5
207
100
AcDbSymbolTableRecord
100
AcDbLayerTableRecord
  2
00_COMPONENTS_18
 70
0
 62
7
  6
CONTINUOUS
370
-3
390
F
  0
LAYER
  5
208
100
AcDbSymbolTableRecord
100
AcDbLayerTableRecord
  2
00_COMPONENTS_19
 70
0
 62
7
  6
CONTINUOUS
370
-3
390
F
  0
LAYER
  5
209
100
AcDbSymbolTableRecord
100
AcDbLayerTableRecord
  2
00_COMPONENTS_2
 70
0
 62
7
  6
CONTINUOUS
370
-3
390
F
  0
LAYER
  5
20A
100
AcDbSymbolTableRecord
100
AcDbLayerTableRecord
  2
00_COMPONENTS_20
 70
0
 62
7
  6
CONTINUOUS
370
-3
390
F
  0
LAYER
  5
20B
100
AcDbSymbolTableRecord
100
AcDbLayerTableRecord
  2
00_COMPONENTS_21
 70
0
 62
7
  6
CONTINUOUS
370
-3
390
F
  0
LAYER
  5
20C
100
AcDbSymbolTableRecord
100
AcDbLayerTableRecord
  2
00_COMPONENTS_22
 70
0
 62
7
  6
CONTINUOUS
370
-3
390
F
  0
LAYER
  5
20D
100
AcDbSymbolTableRecord
100
AcDbLayerTableRecord
  2
00_COMPONENTS_23
 70
0
 62
7
  6
CONTINUOUS
370
-3
390
F
  0
LAYER
  5
20E
100
AcDbSymbolTableRecord
100
AcDbLayerTableRecord
  2
00_COMPONENTS_24
 70
0
 62
7
  6
CONTINUOUS
370
-3
390
F
  0
LAYER
  5
20F
100
AcDbSymbolTableRecord
100
AcDbLayerTableRecord
  2
00_COMPONENTS_25
 70
0
 62
7
  6
CONTINUOUS
370
-3
390
F
  0
LAYER
  5
210
100
AcDbSymbolTableRecord
100
AcDbLayerTableRecord
  2
00_COMPONENTS_26
 70
0
 62
7
  6
CONTINUOUS
370
-3
390
F
  0
LAYER
  5
211
100
AcDbSymbolTableRecord
100
AcDbLayerTableRecord
  2
00_COMPONENTS_27
 70
0
 62
7
  6
CONTINUOUS
370
-3
390
F
  0
LAYER
  5
212
100
AcDbSymbolTableRecord
100
AcDbLayerTableRecord
  2
00_COMPONENTS_28
 70
0
 62
7
  6
CONTINUOUS
370
-3
390
F
  0
LAYER
  5
213
100
AcDbSymbolTableRecord
100
AcDbLayerTableRecord
  2
00_COMPONENTS_29
 70
0
 62
7
  6
CONTINUOUS
370
-3
390
F
  0
LAYER
  5
214
100
AcDbSymbolTableRecord
100
AcDbLayerTableRecord
  2
00_COMPONENTS_3
 70
0
 62
7
  6
CONTINUOUS
370
-3
390
F
  0
LAYER
  5
215
100
AcDbSymbolTableRecord
100
AcDbLayerTableRecord
  2
00_COMPONENTS_30
 70
0
 62
7
  6
CONTINUOUS
370
-3
390
F
  0
LAYER
  5
216
100
AcDbSymbolTableRecord
100
AcDbLayerTableRecord
  2
00_COMPONENTS_31
 70
0
 62
7
  6
CONTINUOUS
370
-3
390
F
  0
LAYER
  5
217
100
AcDbSymbolTableRecord
100
AcDbLayerTableRecord
  2
00_COMPONENTS_32
 70
0
 62
7
  6
CONTINUOUS
370
-3
390
F
  0
LAYER
  5
218
100
AcDbSymbolTableRecord
100
AcDbLayerTableRecord
  2
00_COMPONENTS_33
 70
0
 62
7
  6
CONTINUOUS
370
-3
390
F
  0
LAYER
  5
219
100
AcDbSymbolTableRecord
100
AcDbLayerTableRecord
  2
00_COMPONENTS_34
 70
0
 62
7
  6
CONTINUOUS
370
-3
390
F
  0
LAYER
  5
21A
100
AcDbSymbolTableRecord
100
AcDbLayerTableRecord
  2
00_COMPONENTS_35
 70
0
 62
7
  6
CONTINUOUS
370
-3
390
F
  0
LAYER
  5
21B
100
AcDbSymbolTableRecord
100
AcDbLayerTableRecord
  2
00_COMPONENTS_4
 70
0
 62
7
  6
CONTINUOUS
370
-3
390
F
  0
LAYER
  5
21C
100
AcDbSymbolTableRecord
100
AcDbLayerTableRecord
  2
00_COMPONENTS_6
 70
0
 62
7
  6
CONTINUOUS
370
-3
390
F
  0
LAYER
  5
21D
100
AcDbSymbolTableRecord
100
AcDbLayerTableRecord
  2
00_COMPONENTS_7
 70
0
 62
7
  6
CONTINUOUS
370
-3
390
F
  0
LAYER
  5
21E
100
AcDbSymbolTableRecord
100
AcDbLayerTableRecord
  2
00_COMPONENTS_8
 70
0
 62
7
  6
CONTINUOUS
370
-3
390
F
  0
LAYER
  5
21F
100
AcDbSymbolTableRecord
100
AcDbLayerTableRecord
  2
00_COMPONENTS_9
 70
0
 62
7
  6
CONTINUOUS
370
-3
390
F
  0
LAYER
  5
220
100
AcDbSymbolTableRecord
100
AcDbLayerTableRecord
  2
01_1_DEFAULT_DATUMS
 70
0
 62
7
  6
CONTINUOUS
370
-3
390
F
  0
LAYER
  5
221
100
AcDbSymbolTableRecord
100
AcDbLayerTableRecord
  2
01_PLANES
 70
0
 62
7
  6
CONTINUOUS
370
-3
390
F
  0
LAYER
  5
222
100
AcDbSymbolTableRecord
100
AcDbLayerTableRecord
  2
02_COORD_SYS
 70
0
 62
7
  6
CONTINUOUS
370
-3
390
F
  0
LAYER
  5
223
100
AcDbSymbolTableRecord
100
AcDbLayerTableRecord
  2
03_AXES
 70
0
 62
7
  6
CONTINUOUS
370
-3
390
F
  0
LAYER
  5
224
100
AcDbSymbolTableRecord
100
AcDbLayerTableRecord
  2
04_POINTS
 70
0
 62
7
  6
CONTINUOUS
370
-3
390
F
  0
LAYER
  5
225
100
AcDbSymbolTableRecord
100
AcDbLayerTableRecord
  2
05_CURVES
 70
0
 62
7
  6
CONTINUOUS
370
-3
390
F
  0
LAYER
  5
226
100
AcDbSymbolTableRecord
100
AcDbLayerTableRecord
  2
06_SURFS
 70
0
 62
7
  6
CONTINUOUS
370
-3
390
F
  0
LAYER
  5
227
100
AcDbSymbolTableRecord
100
AcDbLayerTableRecord
  2
07_ALL_COSMETICS_12
 70
0
 62
7
  6
CONTINUOUS
370
-3
390
F
  0
LAYER
  5
228
100
AcDbSymbolTableRecord
100
AcDbLayerTableRecord
  2
07_COSMETICS
 70
0
 62
7
  6
CONTINUOUS
370
-3
390
F
  0
LAYER
  5
229
100
AcDbSymbolTableRecord
100
AcDbLayerTableRecord
  2
10_NOTES
 70
0
 62
7
  6
CONTINUOUS
370
-3
390
F
  0
LAYER
  5
22A
100
AcDbSymbolTableRecord
100
AcDbLayerTableRecord
  2
11_NOTES_PUB
 70
0
 62
7
  6
CONTINUOUS
370
-3
390
F
  0
LAYER
  5
22B
100
AcDbSymbolTableRecord
100
AcDbLayerTableRecord
  2
13_REF_GTOL
 70
0
 62
7
  6
CONTINUOUS
370
-3
390
F
  0
LAYER
  5
22C
100
AcDbSymbolTableRecord
100
AcDbLayerTableRecord
  2
16_MISC
 70
0
 62
7
  6
CONTINUOUS
370
-3
390
F
  0
LAYER
  5
22D
100
AcDbSymbolTableRecord
100
AcDbLayerTableRecord
  2
17_NO_PRINT
 70
0
 62
7
  6
CONTINUOUS
370
-3
390
F
  0
LAYER
  5
22E
100
AcDbSymbolTableRecord
100
AcDbLayerTableRecord
  2
18_DATUM_CAMS_JOINTS
 70
0
 62
7
  6
CONTINUOUS
370
-3
390
F
  0
LAYER
  5
22F
100
AcDbSymbolTableRecord
100
AcDbLayerTableRecord
  2
19_DATUM_FUNCTIONAL
 70
0
 62
7
  6
CONTINUOUS
370
-3
390
F
  0
LAYER
  5
230
100
AcDbSymbolTableRecord
100
AcDbLayerTableRecord
  2
20_DATUM_KINEMATIC_SCHEME
 70
0
 62
7
  6
CONTINUOUS
370
-3
390
F
  0
LAYER
  5
231
100
AcDbSymbolTableRecord
100
AcDbLayerTableRecord
  2
INTFCLR_10
 70
0
 62
7
  6
CONTINUOUS
370
-3
390
F
  0
LAYER
  5
232
100
AcDbSymbolTableRecord
100
AcDbLayerTableRecord
  2
INTFCLR_166673
 70
0
 62
7
  6
CONTINUOUS
370
-3
390
F
  0
LAYER
  5
233
100
AcDbSymbolTableRecord
100
AcDbLayerTableRecord
  2
INTFCLR_167601
 70
0
 62
7
  6
CONTINUOUS
370
-3
390
F
  0
LAYER
  5
234
100
AcDbSymbolTableRecord
100
AcDbLayerTableRecord
  2
INTFCLR_170089
 70
0
 62
7
  6
CONTINUOUS
370
-3
390
F
  0
LAYER
  5
235
100
AcDbSymbolTableRecord
100
AcDbLayerTableRecord
  2
INTFCLR_24
 70
0
 62
7
  6
CONTINUOUS
370
-3
390
F
  0
LAYER
  5
236
100
AcDbSymbolTableRecord
100
AcDbLayerTableRecord
  2
INTFCLR_5
 70
0
 62
7
  6
CONTINUOUS
370
-3
390
F
  0
LAYER
  5
237
100
AcDbSymbolTableRecord
100
AcDbLayerTableRecord
  2
INTF_CYAN
 70
0
 62
7
  6
CONTINUOUS
370
-3
390
F
  0
LAYER
  5
238
100
AcDbSymbolTableRecord
100
AcDbLayerTableRecord
  2
INTF_YELLOW
 70
0
 62
7
  6
CONTINUOUS
370
-3
390
F
  0
ENDTAB
  0
TABLE
  2
STYLE
  5
3
100
AcDbSymbolTable
 70
1
  0
STYLE
  5
11
100
AcDbSymbolTableRecord
100
AcDbTextStyleTableRecord
  2
STANDARD
 70
0
 40
0.0
 41
0.8
 50
0.0
 71
0
 42
0.2
  3
txt
  4

  0
STYLE
  5
239
100
AcDbSymbolTableRecord
100
AcDbTextStyleTableRecord
  2
TEXTSTYLE_1
 70
0
 40
0.0
 41
0.8
 50
0.0
 71
0
 42
0.2
  3
gdt
  4

  0
ENDTAB
  0
TABLE
  2
VIEW
  5
6
100
AcDbSymbolTable
 70
0
  0
ENDTAB
  0
TABLE
  2
UCS
  5
7
100
AcDbSymbolTable
 70
0
  0
ENDTAB
  0
TABLE
  2
APPID
  5
9
100
AcDbSymbolTable
 70
1
  0
APPID
  5
23A
100
AcDbSymbolTableRecord
100
AcDbRegAppTableRecord
  2
ACAD
 70
0
  0
ENDTAB
  0
TABLE
  2
BLOCK_RECORD
  5
1
100
AcDbSymbolTable
 70
0
  0
BLOCK_RECORD
  5
23B
100
AcDbSymbolTableRecord
100
AcDbBlockTableRecord
  2
*Model_Space
  0
BLOCK_RECORD
  5
23C
100
AcDbSymbolTableRecord
100
AcDbBlockTableRecord
  2
*Paper_Space
  0
BLOCK_RECORD
  5
23D
100
AcDbSymbolTableRecord
100
AcDbBlockTableRecord
  2
_FILLED
  0
ENDTAB
  0
TABLE
  2
DIMSTYLE
  5
A
100
AcDbSymbolTable
 70
1
100
AcDbDimStyleTable
 71
0
  0
DIMSTYLE
105
23E
100
AcDbSymbolTableRecord
100
AcDbDimStyleTableRecord
  2
STANDARD
 70
0
  3

  4

 40
1.0
 41
1.7075865151
 42
1.0
 43
0.38
 44
1.0
 45
0.0
 46
0.0
 47
0.01
 48
0.01
140
2.3906211212
141
0.09
142
0.0
143
25.4
144
1.0
145
0.0
146
1.0
147
0.625
 71
1
 72
0
 73
0
 74
0
 75
0
 76
0
 77
1
 78
8
 79
2
170
0
171
1
172
0
173
0
174
0
175
0
176
0
177
0
178
0
270
2
179
2
271
2
272
2
273
2
274
2
275
0
280
0
281
0
282
0
283
1
284
8
285
0
286
0
287
3
288
0
340
11
278
46
341
23D
342
23D
343
23D
344
23D
  0
ENDTAB
  0
ENDSEC
  0
SECTION
  2
BLOCKS
  0
BLOCK
  5
20
100
AcDbEntity
  8
0
100
AcDbBlockBegin
  2
*Model_Space
 70
0
 10
0.0
 20
0.0
 30
0.0
  3
*Model_Space
  1

  0
ENDBLK
  5
21
100
AcDbEntity
  8
0
100
AcDbBlockEnd
  0
BLOCK
  5
1C
100
AcDbEntity
  8
0
100
AcDbBlockBegin
  2
*Paper_Space
 70
0
 10
0.0
 20
0.0
 30
0.0
  3
*Paper_Space
  1

  0
ENDBLK
  5
1D
100
AcDbEntity
  8
0
100
AcDbBlockEnd
  0
BLOCK
  5
23F
100
AcDbEntity
  8
0
100
AcDbBlockBegin
  2
_FILLED
 70
64
 10
0.0
 20
0.0
  3
_FILLED
  1

  0
SOLID
  5
240
100
AcDbEntity
  8
0
  6
BYBLOCK
 62
0
100
AcDbTrace
 10
0.0
 20
0.0
 11
-1.0
 21
0.25
 12
-1.0
 22
-0.25
 13
-1.0
 23
-0.25
  0
ENDBLK
  5
241
100
AcDbEntity
  8
0
  6
BYBLOCK
 62
0
100
AcDbBlockEnd
  0
ENDSEC
  0
SECTION
  2
ENTITIES
  0
LINE
  5
242
100
AcDbEntity
  8
0
100
AcDbLine
 62
7
  6
CONTINUOUS
 10
15.7269345063
 20
130.5983963581
 11
15.7269345063
 21
75.9883963581
  0
LINE
  5
243
100
AcDbEntity
  8
0
100
AcDbLine
 62
7
  6
CONTINUOUS
 10
15.9047345063
 20
143.6793963581
 11
15.9047345063
 21
140.5551963581
  0
LINE
  5
244
100
AcDbEntity
  8
0
100
AcDbLine
 62
7
  6
CONTINUOUS
 10
15.9047345063
 20
58.9449963581
 11
15.9047345063
 21
138.3453963581
  0
LINE
  5
245
100
AcDbEntity
  8
0
100
AcDbLine
 62
7
  6
CONTINUOUS
 10
16.4127345063
 20
108.9829963581
 11
16.4127345063
 21
58.9449963581
  0
LINE
  5
246
100
AcDbEntity
  8
0
100
AcDbLine
 62
7
  6
CONTINUOUS
 10
17.4795345063
 20
143.6793963581
 11
17.4795345063
 21
140.5551963581
  0
LINE
  5
247
100
AcDbEntity
  8
0
100
AcDbLine
 62
7
  6
CONTINUOUS
 10
17.9367345063
 20
58.1829963581
 11
17.9367345063
 21
58.9449963581
  0
LINE
  5
248
100
AcDbEntity
  8
0
100
AcDbLine
 62
7
  6
CONTINUOUS
 10
19.0035345063
 20
143.9333963581
 11
19.0035345063
 21
139.9201963581
  0
LINE
  5
249
100
AcDbEntity
  8
0
100
AcDbLine
 62
7
  6
CONTINUOUS
 10
20.9847345063
 20
58.9449963581
 11
20.9847345063
 21
58.1829963581
  0
LINE
  5
24A
100
AcDbEntity
  8
0
100
AcDbLine
 62
7
  6
CONTINUOUS
 10
22.0007345063
 20
108.9829963581
 11
22.0007345063
 21
88.6629963581
  0
LINE
  5
24B
100
AcDbEntity
  8
0
100
AcDbLine
 62
7
  6
CONTINUOUS
 10
22.1277345063
 20
91.4569963581
 11
22.1277345063
 21
88.6629963581
  0
LINE
  5
24C
100
AcDbEntity
  8
0
100
AcDbLine
 62
7
  6
CONTINUOUS
 10
23.0167345063
 20
88.6629963581
 11
23.0167345063
 21
58.9449963581
  0
LINE
  5
24D
100
AcDbEntity
  8
0
100
AcDbLine
 62
7
  6
CONTINUOUS
 10
23.7533345063
 20
143.9333963581
 11
23.7533345063
 21
139.9201963581
  0
LINE
  5
24E
100
AcDbEntity
  8
0
100
AcDbLine
 62
7
  6
CONTINUOUS
 10
24.6042345063
 20
88.6629963581
 11
24.6042345063
 21
86.1229963581
  0
LINE
  5
24F
100
AcDbEntity
  8
0
100
AcDbLine
 62
7
  6
CONTINUOUS
 10
26.0647345063
 20
86.1229963581
 11
26.0647345063
 21
88.6629963581
  0
LINE
  5
250
100
AcDbEntity
  8
0
100
AcDbLine
 62
7
  6
CONTINUOUS
 10
27.8681345063
 20
81.2969963581
 11
27.8681345063
 21
77.2329963581
  0
LINE
  5
251
100
AcDbEntity
  8
00_COMPONENTS_25
100
AcDbLine
 62
7
  6
CONTINUOUS
 10
28.3507345063
 20
111.2814156318
 11
28.3507345063
 21
97.4767963581
  0
LINE
  5
252
100
AcDbEntity
  8
0
100
AcDbLine
 62
7
  6
CONTINUOUS
 10
28.6555345063
 20
89.4249963581
 11
28.6555345063
 21
91.0759963581
  0
LINE
  5
253
100
AcDbEntity
  8
0
100
AcDbLine
 62
7
  6
CONTINUOUS
 10
28.8587345063
 20
88.9169066154
 11
28.8587345063
 21
88.6629963581
  0
LINE
  5
254
100
AcDbEntity
  8
0
100
AcDbLine
 62
7
  6
CONTINUOUS
 10
29.2014731923
 20
78.5950259658
 11
29.2014731923
 21
81.2969963581
  0
LINE
  5
255
100
AcDbEntity
  8
0
100
AcDbLine
 62
7
  6
CONTINUOUS
 10
29.4175345063
 20
91.8379963581
 11
29.4175345063
 21
88.6629963581
  0
LINE
  5
256
100
AcDbEntity
  8
0
100
AcDbLine
 62
7
  6
CONTINUOUS
 10
27.2686910964
 20
88.6629963581
 11
27.2690474975
 21
91.4569963581
  0
LINE
  5
257
100
AcDbEntity
  8
0
100
AcDbLine
 62
7
  6
CONTINUOUS
 10
17.9367345063
 20
58.1829963581
 11
20.9847345063
 21
58.1829963581
  0
LINE
  5
258
100
AcDbEntity
  8
0
100
AcDbLine
 62
7
  6
CONTINUOUS
 10
47.7562884349
 20
58.1829963581
 11
59.7451805777
 21
58.1829963581
  0
LINE
  5
259
100
AcDbEntity
  8
0
100
AcDbLine
 62
7
  6
CONTINUOUS
 10
85.8562884349
 20
58.1829963581
 11
97.8451805777
 21
58.1829963581
  0
LINE
  5
25A
100
AcDbEntity
  8
0
100
AcDbLine
 62
7
  6
CONTINUOUS
 10
124.3627345063
 20
58.1829963581
 11
127.4107345063
 21
58.1829963581
  0
LINE
  5
25B
100
AcDbEntity
  8
0
100
AcDbLine
 62
7
  6
CONTINUOUS
 10
69.6257345063
 20
58.6909963581
 11
75.9757345063
 21
58.6909963581
  0
LINE
  5
25C
100
AcDbEntity
  8
0
100
AcDbLine
 62
7
  6
CONTINUOUS
 10
30.6621345063
 20
77.2583963581
 11
30.6621345063
 21
91.0759963581
  0
LINE
  5
25D
100
AcDbEntity
  8
0
100
AcDbLine
 62
7
  6
CONTINUOUS
 10
31.4241345063
 20
91.8379963581
 11
31.4241345063
 21
76.4963963581
  0
LINE
  5
25E
100
AcDbEntity
  8
0
100
AcDbLine
 62
7
  6
CONTINUOUS
 10
31.5136088694
 20
76.4963963581
 11
31.5136088694
 21
75.7089963581
  0
LINE
  5
25F
100
AcDbEntity
  8
00_COMPONENTS_25
100
AcDbLine
 62
7
  6
CONTINUOUS
 10
31.8432345063
 20
92.1427963581
 11
31.8432345063
 21
81.9319963581
  0
LINE
  5
260
100
AcDbEntity
  8
0
100
AcDbLine
 62
7
  6
CONTINUOUS
 10
32.2877345063
 20
75.9629963581
 11
32.2877345063
 21
76.4963963581
  0
LINE
  5
261
100
AcDbEntity
  8
0
100
AcDbLine
 62
7
  6
CONTINUOUS
 10
33.6593345063
 20
76.4963963581
 11
33.6593345063
 21
79.6713963581
  0
LINE
  5
262
100
AcDbEntity
  8
0
100
AcDbLine
 62
7
  6
CONTINUOUS
 10
34.4213345063
 20
78.9093963581
 11
34.4213345063
 21
77.2583963581
  0
LINE
  5
263
100
AcDbEntity
  8
0
100
AcDbLine
 62
7
  6
CONTINUOUS
 10
15.9047345063
 20
58.9449963581
 11
129.6967345063
 21
58.9449963581
  0
LINE
  5
264
100
AcDbEntity
  8
0
100
AcDbLine
 62
7
  6
CONTINUOUS
 10
29.2014731923
 20
78.5950259658
 11
30.0207845063
 21
78.1219963581
  0
LINE
  5
265
100
AcDbEntity
  8
0
100
AcDbLine
 62
7
  6
CONTINUOUS
 10
37.1137345063
 20
75.9629963581
 11
37.1137345063
 21
76.4963963581
  0
LINE
  5
266
100
AcDbEntity
  8
00_COMPONENTS_25
100
AcDbLine
 62
7
  6
CONTINUOUS
 10
37.5582345063
 20
92.1427963581
 11
37.5582345063
 21
81.9319963581
  0
LINE
  5
267
100
AcDbEntity
  8
0
100
AcDbLine
 62
7
  6
CONTINUOUS
 10
37.8890088694
 20
76.4963963581
 11
37.8890088694
 21
75.7089963581
  0
LINE
  5
268
100
AcDbEntity
  8
0
100
AcDbLine
 62
7
  6
CONTINUOUS
 10
47.7562884349
 20
58.1829963581
 11
47.6896220732
 21
58.9449963581
  0
LINE
  5
269
100
AcDbEntity
  8
00_COMPONENTS_25
100
AcDbLine
 62
7
  6
CONTINUOUS
 10
41.0507345063
 20
111.2814156318
 11
41.0507345063
 21
97.4767963581
  0
LINE
  5
26A
100
AcDbEntity
  8
0
100
AcDbLine
 62
7
  6
CONTINUOUS
 10
41.1777345063
 20
77.2583963581
 11
41.1777345063
 21
78.9093963581
  0
LINE
  5
26B
100
AcDbEntity
  8
0
100
AcDbLine
 62
7
  6
CONTINUOUS
 10
41.9397345063
 20
79.6713963581
 11
41.9397345063
 21
76.4963963581
  0
LINE
  5
26C
100
AcDbEntity
  8
0
100
AcDbLine
 62
7
  6
CONTINUOUS
 10
44.1749345063
 20
76.4963963581
 11
44.1749345063
 21
91.8379963581
  0
LINE
  5
26D
100
AcDbEntity
  8
0
100
AcDbLine
 62
7
  6
CONTINUOUS
 10
49.2861098673
 20
58.1829963581
 11
49.2194435057
 21
58.9449963581
  0
LINE
  5
26E
100
AcDbEntity
  8
0
100
AcDbLine
 62
7
  6
CONTINUOUS
 10
44.9369345063
 20
77.2583963581
 11
44.9369345063
 21
91.0759963581
  0
LINE
  5
26F
100
AcDbEntity
  8
0
100
AcDbLine
 62
7
  6
CONTINUOUS
 10
47.4007345063
 20
58.9449963581
 11
47.4007345063
 21
108.9829963581
  0
LINE
  5
270
100
AcDbEntity
  8
0
100
AcDbLine
 62
7
  6
CONTINUOUS
 10
122.5847345063
 20
74.1849963581
 11
98.2007345063
 21
74.1849963581
  0
LINE
  5
271
100
AcDbEntity
  8
0
100
AcDbLine
 62
7
  6
CONTINUOUS
 10
85.5007345063
 20
74.1849963581
 11
60.1007345063
 21
74.1849963581
  0
LINE
  5
272
100
AcDbEntity
  8
0
100
AcDbLine
 62
7
  6
CONTINUOUS
 10
47.4007345063
 20
74.1849963581
 11
23.0167345063
 21
74.1849963581
  0
LINE
  5
273
100
AcDbEntity
  8
0
100
AcDbLine
 62
7
  6
CONTINUOUS
 10
70.3877345063
 20
75.1501963581
 11
75.2137345063
 21
75.1501963581
  0
LINE
  5
274
100
AcDbEntity
  8
0
100
AcDbLine
 62
7
  6
CONTINUOUS
 10
23.0167345063
 20
75.7089963581
 11
47.4007345063
 21
75.7089963581
  0
LINE
  5
275
100
AcDbEntity
  8
0
100
AcDbLine
 62
7
  6
CONTINUOUS
 10
60.1007345063
 20
75.7089963581
 11
70.3877345063
 21
75.7089963581
  0
LINE
  5
276
100
AcDbEntity
  8
0
100
AcDbLine
 62
7
  6
CONTINUOUS
 10
75.2137345063
 20
75.7089963581
 11
85.5007345063
 21
75.7089963581
  0
LINE
  5
277
100
AcDbEntity
  8
0
100
AcDbLine
 62
7
  6
CONTINUOUS
 10
98.2007345063
 20
75.7089963581
 11
122.5847345063
 21
75.7089963581
  0
LINE
  5
278
100
AcDbEntity
  8
0
100
AcDbLine
 62
7
  6
CONTINUOUS
 10
32.2877345063
 20
75.9629963581
 11
37.1137345063
 21
75.9629963581
  0
LINE
  5
279
100
AcDbEntity
  8
0
100
AcDbLine
 62
7
  6
CONTINUOUS
 10
108.4877345063
 20
75.9629963581
 11
113.3137345063
 21
75.9629963581
  0
LINE
  5
27A
100
AcDbEntity
  8
0
100
AcDbLine
 62
7
  6
CONTINUOUS
 10
15.9047345063
 20
75.9883963581
 11
15.7269345063
 21
75.9883963581
  0
LINE
  5
27B
100
AcDbEntity
  8
0
100
AcDbLine
 62
7
  6
CONTINUOUS
 10
103.6617345063
 20
76.4963963581
 11
101.4265345063
 21
76.4963963581
  0
LINE
  5
27C
100
AcDbEntity
  8
0
100
AcDbLine
 62
7
  6
CONTINUOUS
 10
33.6593345063
 20
76.4963963581
 11
31.4241345063
 21
76.4963963581
  0
LINE
  5
27D
100
AcDbEntity
  8
0
100
AcDbLine
 62
7
  6
CONTINUOUS
 10
33.6652973911
 20
76.4963963581
 11
44.1749345063
 21
76.4963963581
  0
LINE
  5
27E
100
AcDbEntity
  8
0
100
AcDbLine
 62
7
  6
CONTINUOUS
 10
65.6633345063
 20
76.4963963581
 11
79.9381345063
 21
76.4963963581
  0
LINE
  5
27F
100
AcDbEntity
  8
0
100
AcDbLine
 62
7
  6
CONTINUOUS
 10
103.6676499575
 20
76.4963963581
 11
114.1773345063
 21
76.4963963581
  0
LINE
  5
280
100
AcDbEntity
  8
0
100
AcDbLine
 62
7
  6
CONTINUOUS
 10
23.0167345063
 20
77.2329963581
 11
27.8681345063
 21
77.2329963581
  0
LINE
  5
281
100
AcDbEntity
  8
0
100
AcDbLine
 62
7
  6
CONTINUOUS
 10
44.9369345063
 20
77.2329963581
 11
47.4007345063
 21
77.2329963581
  0
LINE
  5
282
100
AcDbEntity
  8
0
100
AcDbLine
 62
7
  6
CONTINUOUS
 10
60.1007345063
 20
77.2329963581
 11
65.6633345063
 21
77.2329963581
  0
LINE
  5
283
100
AcDbEntity
  8
0
100
AcDbLine
 62
7
  6
CONTINUOUS
 10
79.9381345063
 20
77.2329963581
 11
85.5007345063
 21
77.2329963581
  0
LINE
  5
284
100
AcDbEntity
  8
0
100
AcDbLine
 62
7
  6
CONTINUOUS
 10
98.2007345063
 20
77.2329963581
 11
100.6645345063
 21
77.2329963581
  0
LINE
  5
285
100
AcDbEntity
  8
0
100
AcDbLine
 62
7
  6
CONTINUOUS
 10
117.7333345063
 20
77.2329963581
 11
122.5847345063
 21
77.2329963581
  0
LINE
  5
286
100
AcDbEntity
  8
0
100
AcDbLine
 62
7
  6
CONTINUOUS
 10
30.6621345063
 20
77.2583963581
 11
34.4213345063
 21
77.2583963581
  0
LINE
  5
287
100
AcDbEntity
  8
0
100
AcDbLine
 62
7
  6
CONTINUOUS
 10
34.4261953036
 20
77.2583963581
 11
44.9369345063
 21
77.2583963581
  0
LINE
  5
288
100
AcDbEntity
  8
0
100
AcDbLine
 62
7
  6
CONTINUOUS
 10
100.6645345063
 20
77.2583963581
 11
104.4237345063
 21
77.2583963581
  0
LINE
  5
289
100
AcDbEntity
  8
0
100
AcDbLine
 62
7
  6
CONTINUOUS
 10
104.4285566356
 20
77.2583963581
 11
114.9393345063
 21
77.2583963581
  0
LINE
  5
28A
100
AcDbEntity
  8
0
100
AcDbLine
 62
7
  6
CONTINUOUS
 10
15.7269345063
 20
77.5123963581
 11
15.9047345063
 21
77.5123963581
  0
LINE
  5
28B
100
AcDbEntity
  8
0
100
AcDbLine
 62
7
  6
CONTINUOUS
 10
50.7313111756
 20
58.1829963581
 11
50.7313111756
 21
58.9449963581
  0
LINE
  5
28C
100
AcDbEntity
  8
0
100
AcDbLine
 62
7
  6
CONTINUOUS
 10
51.7187345063
 20
100.6009963581
 11
51.7187345063
 21
58.9449963581
  0
LINE
  5
28D
100
AcDbEntity
  8
0
100
AcDbLine
 62
7
  6
CONTINUOUS
 10
30.0207845063
 20
78.1219963581
 11
30.6621345063
 21
78.1219963581
  0
LINE
  5
28E
100
AcDbEntity
  8
0
100
AcDbLine
 62
7
  6
CONTINUOUS
 10
114.9393345063
 20
78.1219963581
 11
115.5806845063
 21
78.1219963581
  0
LINE
  5
28F
100
AcDbEntity
  8
0
100
AcDbLine
 62
7
  6
CONTINUOUS
 10
65.6633345063
 20
78.8585963581
 11
79.9381345063
 21
78.8585963581
  0
LINE
  5
290
100
AcDbEntity
  8
0
100
AcDbLine
 62
7
  6
CONTINUOUS
 10
114.9393345063
 20
78.9093963581
 11
111.1801345063
 21
78.9093963581
  0
LINE
  5
291
100
AcDbEntity
  8
0
100
AcDbLine
 62
7
  6
CONTINUOUS
 10
111.1704059108
 20
78.9093963581
 11
100.6645345063
 21
78.9093963581
  0
LINE
  5
292
100
AcDbEntity
  8
0
100
AcDbLine
 62
7
  6
CONTINUOUS
 10
44.9369345063
 20
78.9093963581
 11
41.1777345063
 21
78.9093963581
  0
LINE
  5
293
100
AcDbEntity
  8
0
100
AcDbLine
 62
7
  6
CONTINUOUS
 10
41.1679279177
 20
78.9093963581
 11
30.6621345063
 21
78.9093963581
  0
LINE
  5
294
100
AcDbEntity
  8
0
100
AcDbLine
 62
7
  6
CONTINUOUS
 10
31.4241345063
 20
79.6713963581
 11
41.9277102466
 21
79.6713963581
  0
LINE
  5
295
100
AcDbEntity
  8
0
100
AcDbLine
 62
7
  6
CONTINUOUS
 10
41.9397345063
 20
79.6713963581
 11
44.1749345063
 21
79.6713963581
  0
LINE
  5
296
100
AcDbEntity
  8
0
100
AcDbLine
 62
7
  6
CONTINUOUS
 10
101.4265345063
 20
79.6713963581
 11
111.9302058756
 21
79.6713963581
  0
LINE
  5
297
100
AcDbEntity
  8
0
100
AcDbLine
 62
7
  6
CONTINUOUS
 10
111.9421345063
 20
79.6713963581
 11
114.1773345063
 21
79.6713963581
  0
LINE
  5
298
100
AcDbEntity
  8
00_COMPONENTS_25
100
AcDbLine
 62
7
  6
CONTINUOUS
 10
75.6582345063
 20
81.1191963581
 11
69.9432345063
 21
81.1191963581
  0
LINE
  5
299
100
AcDbEntity
  8
0
100
AcDbLine
 62
7
  6
CONTINUOUS
 10
122.5847345063
 20
81.2969963581
 11
114.9393345063
 21
81.2969963581
  0
LINE
  5
29A
100
AcDbEntity
  8
0
100
AcDbLine
 62
7
  6
CONTINUOUS
 10
100.6645345063
 20
81.2969963581
 11
98.2007345063
 21
81.2969963581
  0
LINE
  5
29B
100
AcDbEntity
  8
0
100
AcDbLine
 62
7
  6
CONTINUOUS
 10
85.5007345063
 20
81.2969963581
 11
79.9381345063
 21
81.2969963581
  0
LINE
  5
29C
100
AcDbEntity
  8
0
100
AcDbLine
 62
7
  6
CONTINUOUS
 10
65.6633345063
 20
81.2969963581
 11
60.1007345063
 21
81.2969963581
  0
LINE
  5
29D
100
AcDbEntity
  8
0
100
AcDbLine
 62
7
  6
CONTINUOUS
 10
47.4007345063
 20
81.2969963581
 11
44.9369345063
 21
81.2969963581
  0
LINE
  5
29E
100
AcDbEntity
  8
0
100
AcDbLine
 62
7
  6
CONTINUOUS
 10
30.6621345063
 20
81.2969963581
 11
23.0167345063
 21
81.2969963581
  0
LINE
  5
29F
100
AcDbEntity
  8
00_COMPONENTS_25
100
AcDbLine
 62
7
  6
CONTINUOUS
 10
113.7582345063
 20
81.9319963581
 11
108.0432345063
 21
81.9319963581
  0
LINE
  5
2A0
100
AcDbEntity
  8
00_COMPONENTS_25
100
AcDbLine
 62
7
  6
CONTINUOUS
 10
37.5582345063
 20
81.9319963581
 11
31.8432345063
 21
81.9319963581
  0
LINE
  5
2A1
100
AcDbEntity
  8
0
100
AcDbLine
 62
7
  6
CONTINUOUS
 10
31.4241345063
 20
82.1244460389
 11
44.1749345063
 21
82.1244460412
  0
LINE
  5
2A2
100
AcDbEntity
  8
0
100
AcDbLine
 62
7
  6
CONTINUOUS
 10
101.4265345063
 20
82.1244460389
 11
114.1773345063
 21
82.1244460411
  0
LINE
  5
2A3
100
AcDbEntity
  8
0
100
AcDbLine
 62
7
  6
CONTINUOUS
 10
65.6633345063
 20
82.1351963581
 11
79.9381345063
 21
82.1351963581
  0
LINE
  5
2A4
100
AcDbEntity
  8
0
100
AcDbLine
 62
7
  6
CONTINUOUS
 10
55.7827345063
 20
100.6009963581
 11
55.7827345063
 21
58.9449963581
  0
LINE
  5
2A5
100
AcDbEntity
  8
0
100
AcDbLine
 62
7
  6
CONTINUOUS
 10
56.8273111756
 20
58.1829963581
 11
56.8273111756
 21
58.9449963581
  0
LINE
  5
2A6
100
AcDbEntity
  8
0
100
AcDbLine
 62
7
  6
CONTINUOUS
 10
23.0167345063
 20
82.8209963581
 11
30.6621345063
 21
82.8209963581
  0
LINE
  5
2A7
100
AcDbEntity
  8
0
100
AcDbLine
 62
7
  6
CONTINUOUS
 10
44.9369345063
 20
82.8209963581
 11
47.4007345063
 21
82.8209963581
  0
LINE
  5
2A8
100
AcDbEntity
  8
0
100
AcDbLine
 62
7
  6
CONTINUOUS
 10
60.1007345063
 20
82.8209963581
 11
65.6633345063
 21
82.8209963581
  0
LINE
  5
2A9
100
AcDbEntity
  8
0
100
AcDbLine
 62
7
  6
CONTINUOUS
 10
79.9381345063
 20
82.8209963581
 11
85.5007345063
 21
82.8209963581
  0
LINE
  5
2AA
100
AcDbEntity
  8
0
100
AcDbLine
 62
7
  6
CONTINUOUS
 10
98.2007345063
 20
82.8209963581
 11
100.6645345063
 21
82.8209963581
  0
LINE
  5
2AB
100
AcDbEntity
  8
0
100
AcDbLine
 62
7
  6
CONTINUOUS
 10
114.9393345063
 20
82.8209963581
 11
122.5847345063
 21
82.8209963581
  0
LINE
  5
2AC
100
AcDbEntity
  8
0
100
AcDbLine
 62
7
  6
CONTINUOUS
 10
122.5847345063
 20
86.1229963581
 11
119.5367345063
 21
86.1229963581
  0
LINE
  5
2AD
100
AcDbEntity
  8
0
100
AcDbLine
 62
7
  6
CONTINUOUS
 10
100.6645345063
 20
86.1229963581
 11
98.2007345063
 21
86.1229963581
  0
LINE
  5
2AE
100
AcDbEntity
  8
0
100
AcDbLine
 62
7
  6
CONTINUOUS
 10
85.5007345063
 20
86.1229963581
 11
81.4367345063
 21
86.1229963581
  0
LINE
  5
2AF
100
AcDbEntity
  8
0
100
AcDbLine
 62
7
  6
CONTINUOUS
 10
64.1647345063
 20
86.1229963581
 11
60.1007345063
 21
86.1229963581
  0
LINE
  5
2B0
100
AcDbEntity
  8
0
100
AcDbLine
 62
7
  6
CONTINUOUS
 10
47.4007345063
 20
86.1229963581
 11
44.9369345063
 21
86.1229963581
  0
LINE
  5
2B1
100
AcDbEntity
  8
0
100
AcDbLine
 62
7
  6
CONTINUOUS
 10
26.0647345063
 20
86.1229963581
 11
23.0167345063
 21
86.1229963581
  0
LINE
  5
2B2
100
AcDbEntity
  8
0
100
AcDbLine
 62
7
  6
CONTINUOUS
 10
81.4367345063
 20
86.7071963581
 11
85.5007345063
 21
86.7071963581
  0
LINE
  5
2B3
100
AcDbEntity
  8
0
100
AcDbLine
 62
7
  6
CONTINUOUS
 10
79.9381345063
 20
87.1389963581
 11
65.6633345063
 21
87.1389963581
  0
LINE
  5
2B4
100
AcDbEntity
  8
0
100
AcDbLine
 62
7
  6
CONTINUOUS
 10
114.1773345063
 20
87.159499546
 11
101.4265345063
 21
87.1594995435
  0
LINE
  5
2B5
100
AcDbEntity
  8
0
100
AcDbLine
 62
7
  6
CONTINUOUS
 10
44.1749345063
 20
87.159499546
 11
31.4241345063
 21
87.1594995435
  0
LINE
  5
2B6
100
AcDbEntity
  8
0
100
AcDbLine
 62
7
  6
CONTINUOUS
 10
60.1007345063
 20
108.9829963581
 11
60.1007345063
 21
58.9449963581
  0
LINE
  5
2B7
100
AcDbEntity
  8
0
100
AcDbLine
 62
7
  6
CONTINUOUS
 10
60.2277345063
 20
91.4569963581
 11
60.2277345063
 21
86.1229963581
  0
LINE
  5
2B8
100
AcDbEntity
  8
0
100
AcDbLine
 62
7
  6
CONTINUOUS
 10
60.3547345063
 20
88.6629963581
 11
60.3547345063
 21
91.4569963581
  0
LINE
  5
2B9
100
AcDbEntity
  8
0
100
AcDbLine
 62
7
  6
CONTINUOUS
 10
62.4883345063
 20
91.4569963581
 11
62.4883345063
 21
87.4691963581
  0
LINE
  5
2BA
100
AcDbEntity
  8
0
100
AcDbLine
 62
7
  6
CONTINUOUS
 10
62.8693345063
 20
91.2791963581
 11
62.8693345063
 21
87.8501963581
  0
LINE
  5
2BB
100
AcDbEntity
  8
0
100
AcDbLine
 62
7
  6
CONTINUOUS
 10
58.2820255069
 20
58.9449963581
 11
58.2153591453
 21
58.1829963581
  0
LINE
  5
2BC
100
AcDbEntity
  8
0
100
AcDbLine
 62
7
  6
CONTINUOUS
 10
59.8118469393
 20
58.9449963581
 11
59.7451805777
 21
58.1829963581
  0
LINE
  5
2BD
100
AcDbEntity
  8
0
100
AcDbLine
 62
7
  6
CONTINUOUS
 10
62.4883345063
 20
87.4691963581
 11
64.1647345063
 21
87.4691963581
  0
LINE
  5
2BE
100
AcDbEntity
  8
0
100
AcDbLine
 62
7
  6
CONTINUOUS
 10
81.4367345063
 20
87.4691963581
 11
83.5703345063
 21
87.4691963581
  0
LINE
  5
2BF
100
AcDbEntity
  8
0
100
AcDbLine
 62
7
  6
CONTINUOUS
 10
62.8693345063
 20
87.8501963581
 11
64.1647345063
 21
87.8501963581
  0
LINE
  5
2C0
100
AcDbEntity
  8
0
100
AcDbLine
 62
7
  6
CONTINUOUS
 10
81.4367345063
 20
87.8501963581
 11
83.1893345063
 21
87.8501963581
  0
LINE
  5
2C1
100
AcDbEntity
  8
0
100
AcDbLine
 62
7
  6
CONTINUOUS
 10
119.5367345063
 20
88.6629963581
 11
114.9393345063
 21
88.6629963581
  0
LINE
  5
2C2
100
AcDbEntity
  8
0
100
AcDbLine
 62
7
  6
CONTINUOUS
 10
22.0007345063
 20
88.6629963581
 11
24.6042345063
 21
88.6629963581
  0
LINE
  5
2C3
100
AcDbEntity
  8
0
100
AcDbLine
 62
7
  6
CONTINUOUS
 10
26.0647345063
 20
88.6629963581
 11
30.6621345063
 21
88.6629963581
  0
LINE
  5
2C4
100
AcDbEntity
  8
0
100
AcDbLine
 62
7
  6
CONTINUOUS
 10
44.9369345063
 20
88.6629963581
 11
47.4007345063
 21
88.6629963581
  0
LINE
  5
2C5
100
AcDbEntity
  8
0
100
AcDbLine
 62
7
  6
CONTINUOUS
 10
60.2277345063
 20
88.6629963581
 11
62.4883345063
 21
88.6629963581
  0
LINE
  5
2C6
100
AcDbEntity
  8
0
100
AcDbLine
 62
7
  6
CONTINUOUS
 10
62.8693345063
 20
88.6629963581
 11
65.6633345063
 21
88.6629963581
  0
LINE
  5
2C7
100
AcDbEntity
  8
0
100
AcDbLine
 62
7
  6
CONTINUOUS
 10
79.9381345063
 20
88.6629963581
 11
83.1893345063
 21
88.6629963581
  0
LINE
  5
2C8
100
AcDbEntity
  8
0
100
AcDbLine
 62
7
  6
CONTINUOUS
 10
83.5703345063
 20
88.6629963581
 11
85.5007345063
 21
88.6629963581
  0
LINE
  5
2C9
100
AcDbEntity
  8
0
100
AcDbLine
 62
7
  6
CONTINUOUS
 10
100.0468744324
 20
88.6629963581
 11
100.6645345063
 21
88.6629963581
  0
LINE
  5
2CA
100
AcDbEntity
  8
0
100
AcDbLine
 62
7
  6
CONTINUOUS
 10
122.5847345063
 20
88.6629963581
 11
123.6007345063
 21
88.6629963581
  0
LINE
  5
2CB
100
AcDbEntity
  8
0
100
AcDbLine
 62
7
  6
CONTINUOUS
 10
44.9369345063
 20
89.4249963581
 11
47.1857226176
 21
89.4249963581
  0
LINE
  5
2CC
100
AcDbEntity
  8
0
100
AcDbLine
 62
7
  6
CONTINUOUS
 10
99.6032295206
 20
89.4249963581
 11
100.6645345063
 21
89.4249963581
  0
LINE
  5
2CD
100
AcDbEntity
  8
00_COMPONENTS_25
100
AcDbLine
 62
7
  6
CONTINUOUS
 10
65.1807345063
 20
91.0251963581
 11
65.6633345063
 21
91.0251963581
  0
LINE
  5
2CE
100
AcDbEntity
  8
0
100
AcDbLine
 62
7
  6
CONTINUOUS
 10
65.6633345063
 20
91.0251963581
 11
79.9381345063
 21
91.0251963581
  0
LINE
  5
2CF
100
AcDbEntity
  8
00_COMPONENTS_25
100
AcDbLine
 62
7
  6
CONTINUOUS
 10
79.9381345063
 20
91.0251963581
 11
80.4207345063
 21
91.0251963581
  0
LINE
  5
2D0
100
AcDbEntity
  8
0
100
AcDbLine
 62
7
  6
CONTINUOUS
 10
100.6645345063
 20
91.0759963581
 11
98.5915925463
 21
91.0759963581
  0
LINE
  5
2D1
100
AcDbEntity
  8
0
100
AcDbLine
 62
7
  6
CONTINUOUS
 10
46.1740856484
 20
91.0759963581
 11
44.9369345063
 21
91.0759963581
  0
LINE
  5
2D2
100
AcDbEntity
  8
0
100
AcDbLine
 62
7
  6
CONTINUOUS
 10
80.2683345063
 20
91.2791963581
 11
77.4362345063
 21
91.2791963581
  0
LINE
  5
2D3
100
AcDbEntity
  8
0
100
AcDbLine
 62
7
  6
CONTINUOUS
 10
68.1652345063
 20
91.2791963581
 11
62.8693345063
 21
91.2791963581
  0
LINE
  5
2D4
100
AcDbEntity
  8
00_COMPONENTS_25
100
AcDbLine
 62
7
  6
CONTINUOUS
 10
75.9757345063
 20
91.3299963581
 11
69.6257345063
 21
91.3299963581
  0
LINE
  5
2D5
100
AcDbEntity
  8
0
100
AcDbLine
 62
7
  6
CONTINUOUS
 10
123.6007345063
 20
91.4569963581
 11
114.815540102
 21
91.4569963581
  0
LINE
  5
2D6
100
AcDbEntity
  8
0
100
AcDbLine
 62
7
  6
CONTINUOUS
 10
100.7883289105
 20
91.4569963581
 11
98.3277345063
 21
91.4569963581
  0
LINE
  5
2D7
100
AcDbEntity
  8
0
100
AcDbLine
 62
7
  6
CONTINUOUS
 10
85.5007345063
 20
91.4569963581
 11
60.2277345063
 21
91.4569963581
  0
LINE
  5
2D8
100
AcDbEntity
  8
0
100
AcDbLine
 62
7
  6
CONTINUOUS
 10
47.4007345063
 20
91.4569963581
 11
44.813140102
 21
91.4569963581
  0
LINE
  5
2D9
100
AcDbEntity
  8
0
100
AcDbLine
 62
7
  6
CONTINUOUS
 10
30.7859289105
 20
91.4569963581
 11
22.1277345063
 21
91.4569963581
  0
LINE
  5
2DA
100
AcDbEntity
  8
0
100
AcDbLine
 62
7
  6
CONTINUOUS
 10
29.4175345063
 20
91.8379963581
 11
44.1749345063
 21
91.8379963581
  0
LINE
  5
2DB
100
AcDbEntity
  8
0
100
AcDbLine
 62
7
  6
CONTINUOUS
 10
101.4265345063
 20
91.8379963581
 11
116.1839345063
 21
91.8379963581
  0
LINE
  5
2DC
100
AcDbEntity
  8
00_COMPONENTS_25
100
AcDbLine
 62
7
  6
CONTINUOUS
 10
114.0757345063
 20
92.1427963581
 11
107.7257345063
 21
92.1427963581
  0
LINE
  5
2DD
100
AcDbEntity
  8
00_COMPONENTS_25
100
AcDbLine
 62
7
  6
CONTINUOUS
 10
37.8757345063
 20
92.1427963581
 11
31.5257345063
 21
92.1427963581
  0
LINE
  5
2DE
100
AcDbEntity
  8
0
100
AcDbLine
 62
7
  6
CONTINUOUS
 10
64.1647345063
 20
86.1229963581
 11
64.1647345063
 21
88.6629963581
  0
LINE
  5
2DF
100
AcDbEntity
  8
00_COMPONENTS_25
100
AcDbLine
 62
7
  6
CONTINUOUS
 10
65.1807345063
 20
91.2791963581
 11
65.1807345063
 21
91.0251963581
  0
LINE
  5
2E0
100
AcDbEntity
  8
0
100
AcDbLine
 62
7
  6
CONTINUOUS
 10
65.6633345063
 20
76.4963963581
 11
65.6633345063
 21
91.2791963581
  0
LINE
  5
2E1
100
AcDbEntity
  8
0
100
AcDbLine
 62
7
  6
CONTINUOUS
 10
66.4253345063
 20
78.8585963581
 11
66.4253345063
 21
76.4963963581
  0
LINE
  5
2E2
100
AcDbEntity
  8
00_COMPONENTS_25
100
AcDbLine
 62
7
  6
CONTINUOUS
 10
66.4507345063
 20
110.4686156318
 11
66.4507345063
 21
96.6639963581
  0
LINE
  5
2E3
100
AcDbEntity
  8
0
100
AcDbLine
 62
7
  6
CONTINUOUS
 10
67.9493345063
 20
91.2791963581
 11
67.9493345063
 21
91.0251963581
  0
LINE
  5
2E4
100
AcDbEntity
  8
0
100
AcDbLine
 62
7
  6
CONTINUOUS
 10
68.1652345063
 20
91.4569963581
 11
68.1652345063
 21
91.0251963581
  0
LINE
  5
2E5
100
AcDbEntity
  8
00_COMPONENTS_25
100
AcDbLine
 62
7
  6
CONTINUOUS
 10
78.5538345063
 20
96.6639963581
 11
67.0476345063
 21
96.6639963581
  0
LINE
  5
2E6
100
AcDbEntity
  8
00_COMPONENTS_25
100
AcDbLine
 62
7
  6
CONTINUOUS
 10
79.1507345063
 20
96.6639963581
 11
78.5538345063
 21
96.6639963581
  0
LINE
  5
2E7
100
AcDbEntity
  8
00_COMPONENTS_25
100
AcDbLine
 62
7
  6
CONTINUOUS
 10
67.0476345063
 20
96.6639963581
 11
66.4507345063
 21
96.6639963581
  0
LINE
  5
2E8
100
AcDbEntity
  8
0
100
AcDbLine
 62
7
  6
CONTINUOUS
 10
68.6605345063
 20
76.4963963581
 11
68.6605345063
 21
78.8585963581
  0
LINE
  5
2E9
100
AcDbEntity
  8
0
100
AcDbLine
 62
7
  6
CONTINUOUS
 10
69.4225345063
 20
78.8585963581
 11
69.4225345063
 21
76.4963963581
  0
LINE
  5
2EA
100
AcDbEntity
  8
0
100
AcDbLine
 62
7
  6
CONTINUOUS
 10
69.6136088694
 20
76.4963963581
 11
69.6136088694
 21
75.7089963581
  0
LINE
  5
2EB
100
AcDbEntity
  8
0
100
AcDbLine
 62
7
  6
CONTINUOUS
 10
69.6257345063
 20
58.6909963581
 11
69.6257345063
 21
58.9449963581
  0
LINE
  5
2EC
100
AcDbEntity
  8
00_COMPONENTS_25
100
AcDbLine
 62
7
  6
CONTINUOUS
 10
69.9432345063
 20
91.3299963581
 11
69.9432345063
 21
81.1191963581
  0
LINE
  5
2ED
100
AcDbEntity
  8
0
100
AcDbLine
 62
7
  6
CONTINUOUS
 10
70.3877345063
 20
75.1501963581
 11
70.3877345063
 21
76.4963963581
  0
LINE
  5
2EE
100
AcDbEntity
  8
00_COMPONENTS_25
100
AcDbLine
 62
7
  6
CONTINUOUS
 10
116.6538345063
 20
97.4767963581
 11
105.1476345063
 21
97.4767963581
  0
LINE
  5
2EF
100
AcDbEntity
  8
00_COMPONENTS_25
100
AcDbLine
 62
7
  6
CONTINUOUS
 10
117.2507345063
 20
97.4767963581
 11
116.6538345063
 21
97.4767963581
  0
LINE
  5
2F0
100
AcDbEntity
  8
00_COMPONENTS_25
100
AcDbLine
 62
7
  6
CONTINUOUS
 10
105.1476345063
 20
97.4767963581
 11
104.5507345063
 21
97.4767963581
  0
LINE
  5
2F1
100
AcDbEntity
  8
00_COMPONENTS_25
100
AcDbLine
 62
7
  6
CONTINUOUS
 10
40.4538345063
 20
97.4767963581
 11
28.9476345063
 21
97.4767963581
  0
LINE
  5
2F2
100
AcDbEntity
  8
00_COMPONENTS_25
100
AcDbLine
 62
7
  6
CONTINUOUS
 10
41.0507345063
 20
97.4767963581
 11
40.4538345063
 21
97.4767963581
  0
LINE
  5
2F3
100
AcDbEntity
  8
00_COMPONENTS_25
100
AcDbLine
 62
7
  6
CONTINUOUS
 10
28.9476345063
 20
97.4767963581
 11
28.3507345063
 21
97.4767963581
  0
LINE
  5
2F4
100
AcDbEntity
  8
0
100
AcDbLine
 62
7
  6
CONTINUOUS
 10
93.8827345063
 20
99.8389963581
 11
89.8187345063
 21
99.8389963581
  0
LINE
  5
2F5
100
AcDbEntity
  8
0
100
AcDbLine
 62
7
  6
CONTINUOUS
 10
55.7827345063
 20
99.8389963581
 11
51.7187345063
 21
99.8389963581
  0
LINE
  5
2F6
100
AcDbEntity
  8
0
100
AcDbLine
 62
7
  6
CONTINUOUS
 10
51.7187345063
 20
100.6009963581
 11
55.7827345063
 21
100.6009963581
  0
LINE
  5
2F7
100
AcDbEntity
  8
0
100
AcDbLine
 62
7
  6
CONTINUOUS
 10
89.8187345063
 20
100.6009963581
 11
93.8827345063
 21
100.6009963581
  0
LINE
  5
2F8
100
AcDbEntity
  8
0
100
AcDbLine
 62
7
  6
CONTINUOUS
 10
75.2137345063
 20
75.1501963581
 11
75.2137345063
 21
76.4963963581
  0
LINE
  5
2F9
100
AcDbEntity
  8
00_COMPONENTS_25
100
AcDbLine
 62
7
  6
CONTINUOUS
 10
75.6582345063
 20
91.3299963581
 11
75.6582345063
 21
81.1191963581
  0
LINE
  5
2FA
100
AcDbEntity
  8
0
100
AcDbLine
 62
7
  6
CONTINUOUS
 10
75.9757345063
 20
58.6909963581
 11
75.9757345063
 21
58.9449963581
  0
LINE
  5
2FB
100
AcDbEntity
  8
0
100
AcDbLine
 62
7
  6
CONTINUOUS
 10
75.9890088694
 20
76.4963963581
 11
75.9890088694
 21
75.7089963581
  0
LINE
  5
2FC
100
AcDbEntity
  8
0
100
AcDbLine
 62
7
  6
CONTINUOUS
 10
76.1789345063
 20
76.4963963581
 11
76.1789345063
 21
78.8585963581
  0
LINE
  5
2FD
100
AcDbEntity
  8
0
100
AcDbLine
 62
7
  6
CONTINUOUS
 10
76.9409345063
 20
78.8585963581
 11
76.9409345063
 21
76.4963963581
  0
LINE
  5
2FE
100
AcDbEntity
  8
0
100
AcDbLine
 62
7
  6
CONTINUOUS
 10
77.4362345063
 20
91.4569963581
 11
77.4362345063
 21
91.0251963581
  0
LINE
  5
2FF
100
AcDbEntity
  8
0
100
AcDbLine
 62
7
  6
CONTINUOUS
 10
77.6521345063
 20
91.2791963581
 11
77.6521345063
 21
91.0251963581
  0
LINE
  5
300
100
AcDbEntity
  8
00_COMPONENTS_25
100
AcDbLine
 62
7
  6
CONTINUOUS
 10
79.1507345063
 20
103.1409963581
 11
66.4507345063
 21
103.1409963581
  0
LINE
  5
301
100
AcDbEntity
  8
0
100
AcDbLine
 62
7
  6
CONTINUOUS
 10
104.5507345063
 20
103.8267963581
 11
120.2987345063
 21
103.8267963581
  0
LINE
  5
302
100
AcDbEntity
  8
00_COMPONENTS_25
100
AcDbLine
 62
7
  6
CONTINUOUS
 10
117.2507345063
 20
103.9537963581
 11
104.5507345063
 21
103.9537963581
  0
LINE
  5
303
100
AcDbEntity
  8
00_COMPONENTS_25
100
AcDbLine
 62
7
  6
CONTINUOUS
 10
41.0507345063
 20
103.9537963581
 11
28.3507345063
 21
103.9537963581
  0
LINE
  5
304
100
AcDbEntity
  8
0
100
AcDbLine
 62
7
  6
CONTINUOUS
 10
85.8562884349
 20
58.1829963581
 11
85.7896220732
 21
58.9449963581
  0
LINE
  5
305
100
AcDbEntity
  8
00_COMPONENTS_25
100
AcDbLine
 62
7
  6
CONTINUOUS
 10
79.1507345063
 20
110.4686156318
 11
79.1507345063
 21
96.6639963581
  0
LINE
  5
306
100
AcDbEntity
  8
0
100
AcDbLine
 62
7
  6
CONTINUOUS
 10
79.1761345063
 20
76.4963963581
 11
79.1761345063
 21
78.8585963581
  0
LINE
  5
307
100
AcDbEntity
  8
0
100
AcDbLine
 62
7
  6
CONTINUOUS
 10
79.9381345063
 20
76.4963963581
 11
79.9381345063
 21
91.2791963581
  0
LINE
  5
308
100
AcDbEntity
  8
0
100
AcDbLine
 62
7
  6
CONTINUOUS
 10
80.2683345063
 20
91.2791963581
 11
80.2683345063
 21
91.4569963581
  0
LINE
  5
309
100
AcDbEntity
  8
00_COMPONENTS_25
100
AcDbLine
 62
7
  6
CONTINUOUS
 10
80.4207345063
 20
91.0251963581
 11
80.4207345063
 21
91.4569963581
  0
LINE
  5
30A
100
AcDbEntity
  8
0
100
AcDbLine
 62
7
  6
CONTINUOUS
 10
81.4367345063
 20
86.1229963581
 11
81.4367345063
 21
88.6629963581
  0
LINE
  5
30B
100
AcDbEntity
  8
0
100
AcDbLine
 62
7
  6
CONTINUOUS
 10
84.1795463105
 20
140.2427253025
 11
84.1682833516
 21
139.9201963581
  0
LINE
  5
30C
100
AcDbEntity
  8
0
100
AcDbLine
 62
7
  6
CONTINUOUS
 10
129.6967345063
 20
108.9829963581
 11
15.9047345063
 21
108.9829963581
  0
LINE
  5
30D
100
AcDbEntity
  8
00_COMPONENTS_25
100
AcDbLine
 62
7
  6
CONTINUOUS
 10
79.1507345063
 20
110.2783963581
 11
66.4507345063
 21
110.2783963581
  0
LINE
  5
30E
100
AcDbEntity
  8
00_COMPONENTS_25
100
AcDbLine
 62
7
  6
CONTINUOUS
 10
79.1507345063
 20
110.4686156318
 11
66.4507345063
 21
110.4686156318
  0
LINE
  5
30F
100
AcDbEntity
  8
00_COMPONENTS_25
100
AcDbLine
 62
7
  6
CONTINUOUS
 10
117.2507345063
 20
111.0911963581
 11
104.5507345063
 21
111.0911963581
  0
LINE
  5
310
100
AcDbEntity
  8
00_COMPONENTS_25
100
AcDbLine
 62
7
  6
CONTINUOUS
 10
41.0507345063
 20
111.0911963581
 11
28.3507345063
 21
111.0911963581
  0
LINE
  5
311
100
AcDbEntity
  8
0
100
AcDbLine
 62
7
  6
CONTINUOUS
 10
98.6633498741
 20
87.9318117259
 11
98.3277345063
 21
88.2674270937
  0
LINE
  5
312
100
AcDbEntity
  8
0
100
AcDbLine
 62
7
  6
CONTINUOUS
 10
87.3861098673
 20
58.1829963581
 11
87.3194435057
 21
58.9449963581
  0
LINE
  5
313
100
AcDbEntity
  8
0
100
AcDbLine
 62
7
  6
CONTINUOUS
 10
83.1893345063
 20
87.8501963581
 11
83.1893345063
 21
91.4569963581
  0
LINE
  5
314
100
AcDbEntity
  8
0
100
AcDbLine
 62
7
  6
CONTINUOUS
 10
83.5703345063
 20
87.4691963581
 11
83.5703345063
 21
91.4569963581
  0
LINE
  5
315
100
AcDbEntity
  8
0
100
AcDbLine
 62
7
  6
CONTINUOUS
 10
85.2467345063
 20
88.6629963581
 11
85.2467345063
 21
91.4569963581
  0
LINE
  5
316
100
AcDbEntity
  8
0
100
AcDbLine
 62
7
  6
CONTINUOUS
 10
85.5007345063
 20
58.9449963581
 11
85.5007345063
 21
108.9829963581
  0
LINE
  5
317
100
AcDbEntity
  8
00_COMPONENTS_25
100
AcDbLine
 62
7
  6
CONTINUOUS
 10
117.2507345063
 20
111.2814156318
 11
104.5507345063
 21
111.2814156318
  0
LINE
  5
318
100
AcDbEntity
  8
00_COMPONENTS_25
100
AcDbLine
 62
7
  6
CONTINUOUS
 10
41.0507345063
 20
111.2814156318
 11
28.3507345063
 21
111.2814156318
  0
LINE
  5
319
100
AcDbEntity
  8
0
100
AcDbLine
 62
7
  6
CONTINUOUS
 10
88.0919227021
 20
140.2427253025
 11
88.103185661
 21
139.9201963581
  0
LINE
  5
31A
100
AcDbEntity
  8
0
100
AcDbLine
 62
7
  6
CONTINUOUS
 10
88.8027345063
 20
58.1829963581
 11
88.8027345063
 21
58.9449963581
  0
LINE
  5
31B
100
AcDbEntity
  8
0
100
AcDbLine
 62
7
  6
CONTINUOUS
 10
89.8187345063
 20
100.6009963581
 11
89.8187345063
 21
58.9449963581
  0
LINE
  5
31C
100
AcDbEntity
  8
0
100
AcDbLine
 62
7
  6
CONTINUOUS
 10
93.8827345063
 20
100.6009963581
 11
93.8827345063
 21
58.9449963581
  0
LINE
  5
31D
100
AcDbEntity
  8
0
100
AcDbLine
 62
7
  6
CONTINUOUS
 10
94.8987345063
 20
58.1829963581
 11
94.8987345063
 21
58.9449963581
  0
LINE
  5
31E
100
AcDbEntity
  8
0
100
AcDbLine
 62
7
  6
CONTINUOUS
 10
98.2007345063
 20
108.9829963581
 11
98.2007345063
 21
58.9449963581
  0
LINE
  5
31F
100
AcDbEntity
  8
0
100
AcDbLine
 62
7
  6
CONTINUOUS
 10
98.3277345063
 20
91.4569963581
 11
98.3277345063
 21
86.1229963581
  0
LINE
  5
320
100
AcDbEntity
  8
0
100
AcDbLine
 62
7
  6
CONTINUOUS
 10
100.6645345063
 20
77.2583963581
 11
100.6645345063
 21
91.0759963581
  0
LINE
  5
321
100
AcDbEntity
  8
0
100
AcDbLine
 62
7
  6
CONTINUOUS
 10
101.4265345063
 20
91.8379963581
 11
101.4265345063
 21
76.4963963581
  0
LINE
  5
322
100
AcDbEntity
  8
0
100
AcDbLine
 62
7
  6
CONTINUOUS
 10
96.3820255069
 20
58.9449963581
 11
96.3153591453
 21
58.1829963581
  0
LINE
  5
323
100
AcDbEntity
  8
0
100
AcDbLine
 62
7
  6
CONTINUOUS
 10
97.9118469393
 20
58.9449963581
 11
97.8451805777
 21
58.1829963581
  0
LINE
  5
324
100
AcDbEntity
  8
0
100
AcDbLine
 62
7
  6
CONTINUOUS
 10
98.93328467
 20
88.2017465219
 11
98.3277345063
 21
87.5961963581
  0
LINE
  5
325
100
AcDbEntity
  8
0
100
AcDbLine
 62
7
  6
CONTINUOUS
 10
15.9047345063
 20
129.0743963581
 11
15.7269345063
 21
129.0743963581
  0
LINE
  5
326
100
AcDbEntity
  8
0
100
AcDbLine
 62
7
  6
CONTINUOUS
 10
103.6617345063
 20
76.4963963581
 11
103.6617345063
 21
79.6713963581
  0
LINE
  5
327
100
AcDbEntity
  8
0
100
AcDbLine
 62
7
  6
CONTINUOUS
 10
104.4237345063
 20
78.9093963581
 11
104.4237345063
 21
77.2583963581
  0
LINE
  5
328
100
AcDbEntity
  8
00_COMPONENTS_25
100
AcDbLine
 62
7
  6
CONTINUOUS
 10
104.5507345063
 20
111.2814156318
 11
104.5507345063
 21
97.4767963581
  0
LINE
  5
329
100
AcDbEntity
  8
0
100
AcDbLine
 62
7
  6
CONTINUOUS
 10
104.5507345063
 20
103.8267963581
 11
104.5507345063
 21
108.9829963581
  0
LINE
  5
32A
100
AcDbEntity
  8
0
100
AcDbLine
 62
7
  6
CONTINUOUS
 10
15.7269345063
 20
130.5983963581
 11
15.9047345063
 21
130.5983963581
  0
LINE
  5
32B
100
AcDbEntity
  8
0
100
AcDbLine
 62
7
  6
CONTINUOUS
 10
107.7136088694
 20
76.4963963581
 11
107.7136088694
 21
75.7089963581
  0
LINE
  5
32C
100
AcDbEntity
  8
00_COMPONENTS_25
100
AcDbLine
 62
7
  6
CONTINUOUS
 10
108.0432345063
 20
92.1427963581
 11
108.0432345063
 21
81.9319963581
  0
LINE
  5
32D
100
AcDbEntity
  8
0
100
AcDbLine
 62
7
  6
CONTINUOUS
 10
108.4877345063
 20
75.9629963581
 11
108.4877345063
 21
76.4963963581
  0
LINE
  5
32E
100
AcDbEntity
  8
0
100
AcDbLine
 62
7
  6
CONTINUOUS
 10
111.1801345063
 20
77.2583963581
 11
111.1801345063
 21
78.9093963581
  0
LINE
  5
32F
100
AcDbEntity
  8
0
100
AcDbLine
 62
7
  6
CONTINUOUS
 10
15.9047345063
 20
138.3453963581
 11
129.6967345063
 21
138.3453963581
  0
LINE
  5
330
100
AcDbEntity
  8
0
100
AcDbLine
 62
7
  6
CONTINUOUS
 10
111.9421345063
 20
79.6713963581
 11
111.9421345063
 21
76.4963963581
  0
LINE
  5
331
100
AcDbEntity
  8
0
100
AcDbLine
 62
7
  6
CONTINUOUS
 10
113.3137345063
 20
75.9629963581
 11
113.3137345063
 21
76.4963963581
  0
LINE
  5
332
100
AcDbEntity
  8
00_COMPONENTS_25
100
AcDbLine
 62
7
  6
CONTINUOUS
 10
113.7582345063
 20
92.1427963581
 11
113.7582345063
 21
81.9319963581
  0
LINE
  5
333
100
AcDbEntity
  8
0
100
AcDbLine
 62
7
  6
CONTINUOUS
 10
114.0890088694
 20
76.4963963581
 11
114.0890088694
 21
75.7089963581
  0
LINE
  5
334
100
AcDbEntity
  8
0
100
AcDbLine
 62
7
  6
CONTINUOUS
 10
114.1773345063
 20
76.4963963581
 11
114.1773345063
 21
91.8379963581
  0
LINE
  5
335
100
AcDbEntity
  8
0
100
AcDbLine
 62
7
  6
CONTINUOUS
 10
114.9393345063
 20
77.2583963581
 11
114.9393345063
 21
91.0759963581
  0
LINE
  5
336
100
AcDbEntity
  8
0
100
AcDbLine
 62
7
  6
CONTINUOUS
 10
116.3999958203
 20
78.5950259658
 11
115.5806845063
 21
78.1219963581
  0
LINE
  5
337
100
AcDbEntity
  8
0
100
AcDbLine
 62
7
  6
CONTINUOUS
 10
18.1145345063
 20
139.9201963581
 11
127.4869345063
 21
139.9201963581
  0
LINE
  5
338
100
AcDbEntity
  8
0
100
AcDbLine
 62
7
  6
CONTINUOUS
 10
88.091922702
 20
140.242725303
 11
84.1795463105
 21
140.242725303
  0
LINE
  5
339
100
AcDbEntity
  8
0
100
AcDbLine
 62
7
  6
CONTINUOUS
 10
17.4795345063
 20
140.5551963581
 11
19.0035345063
 21
140.5551963581
  0
LINE
  5
33A
100
AcDbEntity
  8
0
100
AcDbLine
 62
7
  6
CONTINUOUS
 10
20.4715285301
 20
140.5551963581
 11
22.285681753
 21
140.5551963581
  0
LINE
  5
33B
100
AcDbEntity
  8
0
100
AcDbLine
 62
7
  6
CONTINUOUS
 10
23.7533345063
 20
140.5551963581
 11
84.3022705733
 21
140.5551963581
  0
LINE
  5
33C
100
AcDbEntity
  8
0
100
AcDbLine
 62
7
  6
CONTINUOUS
 10
87.9691984393
 20
140.5551963581
 11
128.1219345063
 21
140.5551963581
  0
LINE
  5
33D
100
AcDbEntity
  8
0
100
AcDbLine
 62
7
  6
CONTINUOUS
 10
87.5842085099
 20
140.7329963581
 11
84.6872605026
 21
140.7329963581
  0
LINE
  5
33E
100
AcDbEntity
  8
0
100
AcDbLine
 62
7
  6
CONTINUOUS
 10
15.9047345063
 20
143.6793963581
 11
19.0035345063
 21
143.6793963581
  0
LINE
  5
33F
100
AcDbEntity
  8
0
100
AcDbLine
 62
7
  6
CONTINUOUS
 10
23.7533345063
 20
143.6793963581
 11
129.6967345063
 21
143.6793963581
  0
LINE
  5
340
100
AcDbEntity
  8
0
100
AcDbLine
 62
7
  6
CONTINUOUS
 10
23.7533345063
 20
143.9333963581
 11
19.0035345063
 21
143.9333963581
  0
LINE
  5
341
100
AcDbEntity
  8
0
100
AcDbLine
 62
7
  6
CONTINUOUS
 10
116.1839345063
 20
88.6629963581
 11
116.1839345063
 21
91.8379963581
  0
LINE
  5
342
100
AcDbEntity
  8
0
100
AcDbLine
 62
7
  6
CONTINUOUS
 10
116.3999958203
 20
78.5950259658
 11
116.3999958203
 21
81.2969963581
  0
LINE
  5
343
100
AcDbEntity
  8
0
100
AcDbLine
 62
7
  6
CONTINUOUS
 10
116.7427345063
 20
88.6629963581
 11
116.7427345063
 21
88.9194330462
  0
LINE
  5
344
100
AcDbEntity
  8
0
100
AcDbLine
 62
7
  6
CONTINUOUS
 10
116.9459345063
 20
91.0759963581
 11
116.9459345063
 21
89.4249963581
  0
LINE
  5
345
100
AcDbEntity
  8
00_COMPONENTS_25
100
AcDbLine
 62
7
  6
CONTINUOUS
 10
117.2507345063
 20
111.2814156318
 11
117.2507345063
 21
97.4767963581
  0
LINE
  5
346
100
AcDbEntity
  8
0
100
AcDbLine
 62
7
  6
CONTINUOUS
 10
117.7333345063
 20
81.2969963581
 11
117.7333345063
 21
77.2329963581
  0
LINE
  5
347
100
AcDbEntity
  8
0
100
AcDbLine
 62
7
  6
CONTINUOUS
 10
118.3302345063
 20
91.4569963581
 11
118.3302345063
 21
88.6629963581
  0
LINE
  5
348
100
AcDbEntity
  8
0
100
AcDbLine
 62
7
  6
CONTINUOUS
 10
119.5367345063
 20
86.1229963581
 11
119.5367345063
 21
88.6629963581
  0
LINE
  5
349
100
AcDbEntity
  8
0
100
AcDbLine
 62
7
  6
CONTINUOUS
 10
120.2987345063
 20
103.8267963581
 11
120.2987345063
 21
108.9829963581
  0
LINE
  5
34A
100
AcDbEntity
  8
0
100
AcDbLine
 62
7
  6
CONTINUOUS
 10
122.4577345049
 20
86.1229963581
 11
122.4577345045
 21
91.4569963581
  0
LINE
  5
34B
100
AcDbEntity
  8
0
100
AcDbLine
 62
7
  6
CONTINUOUS
 10
122.5847345063
 20
58.9449963581
 11
122.5847345063
 21
91.4569963581
  0
LINE
  5
34C
100
AcDbEntity
  8
0
100
AcDbLine
 62
7
  6
CONTINUOUS
 10
123.6007345063
 20
88.6629963581
 11
123.6007345063
 21
108.9829963581
  0
LINE
  5
34D
100
AcDbEntity
  8
0
100
AcDbLine
 62
7
  6
CONTINUOUS
 10
124.3627345063
 20
58.1829963581
 11
124.3627345063
 21
58.9449963581
  0
LINE
  5
34E
100
AcDbEntity
  8
0
100
AcDbLine
 62
7
  6
CONTINUOUS
 10
127.4107345063
 20
58.9449963581
 11
127.4107345063
 21
58.1829963581
  0
LINE
  5
34F
100
AcDbEntity
  8
0
100
AcDbLine
 62
7
  6
CONTINUOUS
 10
128.1219345063
 20
140.5551963581
 11
128.1219345063
 21
143.6793963581
  0
LINE
  5
350
100
AcDbEntity
  8
0
100
AcDbLine
 62
7
  6
CONTINUOUS
 10
129.1887345063
 20
108.9829963581
 11
129.1887345063
 21
58.9449963581
  0
LINE
  5
351
100
AcDbEntity
  8
0
100
AcDbLine
 62
7
  6
CONTINUOUS
 10
129.6967345063
 20
138.3453963581
 11
129.6967345063
 21
58.9449963581
  0
LINE
  5
352
100
AcDbEntity
  8
0
100
AcDbLine
 62
7
  6
CONTINUOUS
 10
129.6967345063
 20
140.5551963581
 11
129.6967345063
 21
143.6793963581
  0
ARC
  5
353
100
AcDbEntity
  8
0
100
AcDbCircle
 62
7
  6
CONTINUOUS
 10
47.0983590488
 20
90.2377963581
 40
1.5748
100
AcDbArc
 50
270.0
 51
281.1279755001
  0
ARC
  5
354
100
AcDbEntity
  8
0
100
AcDbCircle
 62
7
  6
CONTINUOUS
 10
44.1749345063
 20
91.0759963581
 40
0.762
100
AcDbArc
 50
0.0
 51
89.999999987
  0
ARC
  5
355
100
AcDbEntity
  8
0
100
AcDbCircle
 62
7
  6
CONTINUOUS
 10
33.6593345063
 20
77.2583963581
 40
0.762
100
AcDbArc
 50
270.0
 51
360.0
  0
ARC
  5
356
100
AcDbEntity
  8
0
100
AcDbCircle
 62
7
  6
CONTINUOUS
 10
31.4241345063
 20
77.2583963581
 40
0.762
100
AcDbArc
 50
180.0
 51
270.0
  0
ARC
  5
357
100
AcDbEntity
  8
0
100
AcDbCircle
 62
7
  6
CONTINUOUS
 10
31.4241345063
 20
78.9093963581
 40
0.762
100
AcDbArc
 50
90.0
 51
180.0
  0
ARC
  5
358
100
AcDbEntity
  8
0
100
AcDbCircle
 62
7
  6
CONTINUOUS
 10
33.6593345063
 20
78.9093963581
 40
0.762
100
AcDbArc
 50
0.0
 51
90.0
  0
ARC
  5
359
100
AcDbEntity
  8
0
100
AcDbCircle
 62
7
  6
CONTINUOUS
 10
41.9397345063
 20
77.2583963581
 40
0.762
100
AcDbArc
 50
180.0
 51
270.0
  0
ARC
  5
35A
100
AcDbEntity
  8
0
100
AcDbCircle
 62
7
  6
CONTINUOUS
 10
41.9397345063
 20
78.9093963581
 40
0.762
100
AcDbArc
 50
90.0
 51
180.0
  0
ARC
  5
35B
100
AcDbEntity
  8
0
100
AcDbCircle
 62
7
  6
CONTINUOUS
 10
44.1749345063
 20
78.9093963581
 40
0.762
100
AcDbArc
 50
0.0
 51
90.0
  0
ARC
  5
35C
100
AcDbEntity
  8
0
100
AcDbCircle
 62
7
  6
CONTINUOUS
 10
44.1749345063
 20
77.2583963581
 40
0.762
100
AcDbArc
 50
270.0
 51
360.0
  0
ARC
  5
35D
100
AcDbEntity
  8
0
100
AcDbCircle
 62
7
  6
CONTINUOUS
 10
29.4175345063
 20
89.4249963581
 40
0.762
100
AcDbArc
 50
180.0
 51
270.0
  0
ARC
  5
35E
100
AcDbEntity
  8
0
100
AcDbCircle
 62
7
  6
CONTINUOUS
 10
29.4175345063
 20
91.0759963581
 40
0.762
100
AcDbArc
 50
153.8905367103
 51
180.0
  0
ARC
  5
35F
100
AcDbEntity
  8
0
100
AcDbCircle
 62
7
  6
CONTINUOUS
 10
31.4241345063
 20
91.0759963581
 40
0.762
100
AcDbArc
 50
90.0
 51
180.0
  0
ARC
  5
360
100
AcDbEntity
  8
0
100
AcDbCircle
 62
7
  6
CONTINUOUS
 10
18.1145345063
 20
140.5551963581
 40
2.2098
100
AcDbArc
 50
180.0
 51
270.0
  0
CIRCLE
  5
361
100
AcDbEntity
  8
0
100
AcDbCircle
 62
7
  6
CONTINUOUS
 10
21.3784345063
 20
141.3933963581
 40
1.2446
  0
ARC
  5
362
100
AcDbEntity
  8
0
100
AcDbCircle
 62
7
  6
CONTINUOUS
 10
18.1145345063
 20
140.5551963581
 40
0.635
100
AcDbArc
 50
180.0
 51
270.0
  0
ARC
  5
363
100
AcDbEntity
  8
0
100
AcDbCircle
 62
7
  6
CONTINUOUS
 10
100.0468380243
 20
87.0881963581
 40
1.5748
100
AcDbArc
 50
89.9993376684
 51
135.0
  0
ARC
  5
364
100
AcDbEntity
  8
0
100
AcDbCircle
 62
7
  6
CONTINUOUS
 10
114.1773345063
 20
91.0759963581
 40
0.762
100
AcDbArc
 50
0.0
 51
90.0
  0
ARC
  5
365
100
AcDbEntity
  8
0
100
AcDbCircle
 62
7
  6
CONTINUOUS
 10
101.4265345063
 20
77.2583963581
 40
0.762
100
AcDbArc
 50
180.0
 51
270.0
  0
ARC
  5
366
100
AcDbEntity
  8
0
100
AcDbCircle
 62
7
  6
CONTINUOUS
 10
101.4265345063
 20
78.9093963581
 40
0.762
100
AcDbArc
 50
90.0
 51
180.0
  0
ARC
  5
367
100
AcDbEntity
  8
0
100
AcDbCircle
 62
7
  6
CONTINUOUS
 10
103.6617345063
 20
78.9093963581
 40
0.762
100
AcDbArc
 50
0.0
 51
90.0
  0
ARC
  5
368
100
AcDbEntity
  8
0
100
AcDbCircle
 62
7
  6
CONTINUOUS
 10
111.9421345063
 20
78.9093963581
 40
0.762
100
AcDbArc
 50
90.0
 51
180.0
  0
ARC
  5
369
100
AcDbEntity
  8
0
100
AcDbCircle
 62
7
  6
CONTINUOUS
 10
114.1773345063
 20
78.9093963581
 40
0.762
100
AcDbArc
 50
0.0
 51
90.0
  0
ARC
  5
36A
100
AcDbEntity
  8
0
100
AcDbCircle
 62
7
  6
CONTINUOUS
 10
101.4265345063
 20
91.0759963581
 40
0.762
100
AcDbArc
 50
90.0000000468
 51
180.0
  0
ARC
  5
36B
100
AcDbEntity
  8
0
100
AcDbCircle
 62
7
  6
CONTINUOUS
 10
111.9421345063
 20
77.2583963581
 40
0.762
100
AcDbArc
 50
180.0
 51
270.0
  0
ARC
  5
36C
100
AcDbEntity
  8
0
100
AcDbCircle
 62
7
  6
CONTINUOUS
 10
103.6617345063
 20
77.2583963581
 40
0.762
100
AcDbArc
 50
270.0
 51
360.0
  0
ARC
  5
36D
100
AcDbEntity
  8
0
100
AcDbCircle
 62
7
  6
CONTINUOUS
 10
114.1773345063
 20
77.2583963581
 40
0.762
100
AcDbArc
 50
270.0
 51
360.0
  0
ARC
  5
36E
100
AcDbEntity
  8
0
100
AcDbCircle
 62
7
  6
CONTINUOUS
 10
116.1839345063
 20
89.4249963581
 40
0.762
100
AcDbArc
 50
270.0
 51
360.0
  0
ARC
  5
36F
100
AcDbEntity
  8
0
100
AcDbCircle
 62
7
  6
CONTINUOUS
 10
116.1839345063
 20
91.0759963581
 40
0.762
100
AcDbArc
 50
0.0
 51
26.1080704201
  0
ARC
  5
370
100
AcDbEntity
  8
0
100
AcDbCircle
 62
7
  6
CONTINUOUS
 10
127.4869345063
 20
140.5551963581
 40
2.2098
100
AcDbArc
 50
270.0
 51
360.0
  0
ARC
  5
371
100
AcDbEntity
  8
0
100
AcDbCircle
 62
7
  6
CONTINUOUS
 10
127.4869345063
 20
140.5551963581
 40
0.635
100
AcDbArc
 50
270.0
 51
360.0
  0
ARC
  5
372
100
AcDbEntity
  8
0
100
AcDbCircle
 62
7
  6
CONTINUOUS
 10
84.6872368506
 20
140.2249963581
 40
0.508
100
AcDbArc
 50
90.0
 51
177.9999999401
  0
ARC
  5
373
100
AcDbEntity
  8
0
100
AcDbCircle
 62
7
  6
CONTINUOUS
 10
87.5842321619
 20
140.2249963581
 40
0.508
100
AcDbArc
 50
2.0000000599
 51
90.0
  0
SPLINE
  5
374
100
AcDbEntity
  8
0
100
AcDbSpline
 62
7
  6
CONTINUOUS
 70
0
 71
3
 72
13
 73
9
 74
0
 42
0.0000001
 43
0.0000001
 44
0.0000000001
 40
0.0
 40
0.0
 40
0.0
 40
0.0
 40
0.1201626677
 40
0.2407088216
 40
0.3623123812
 40
0.4855273088
 40
0.7381007088
 40
1.0
 40
1.0
 40
1.0
 40
1.0
 10
114.9393006106
 20
78.1714503303
 30
0.0
 10
115.0009865326
 20
78.1688884828
 30
0.0
 10
115.1248587886
 20
78.1692860832
 30
0.0
 10
115.3104370542
 20
78.1866129848
 30
0.0
 10
115.4953693003
 20
78.2201480721
 30
0.0
 10
115.7425660718
 20
78.2859079075
 30
0.0
 10
116.0489625271
 20
78.4048155726
 30
0.0
 10
116.2834610129
 20
78.5277445634
 30
0.0
 10
116.3999958203
 20
78.5950259658
 30
0.0
  0
SPLINE
  5
375
100
AcDbEntity
  8
0
100
AcDbSpline
 62
7
  6
CONTINUOUS
 70
0
 71
3
 72
13
 73
9
 74
0
 42
0.0000001
 43
0.0000001
 44
0.0000000001
 40
0.0
 40
0.0
 40
0.0
 40
0.0
 40
0.2619000415
 40
0.5144735326
 40
0.6376886045
 40
0.7592917768
 40
0.8798379348
 40
1.0
 40
1.0
 40
1.0
 40
1.0
 10
29.2014731923
 20
78.5950259658
 30
0.0
 10
29.3180091684
 20
78.5277438887
 30
0.0
 10
29.5525083901
 20
78.4048107537
 30
0.0
 10
29.8589094197
 20
78.2859075338
 30
0.0
 10
30.106107387
 20
78.2201446257
 30
0.0
 10
30.291041801
 20
78.1866159215
 30
0.0
 10
30.4766201911
 20
78.1692800157
 30
0.0
 10
30.6004932233
 20
78.1688906504
 30
0.0
 10
30.6621792625
 20
78.1714528736
 30
0.0
  0
SPLINE
  5
376
100
AcDbEntity
  8
0
100
AcDbSpline
 62
7
  6
CONTINUOUS
 70
0
 71
3
 72
9
 73
5
 74
0
 42
0.0000001
 43
0.0000001
 44
0.0000000001
 40
0.0
 40
0.0
 40
0.0
 40
0.0
 40
0.2434567746
 40
1.0
 40
1.0
 40
1.0
 40
1.0
 10
127.82095934
 20
139.7514463113
 30
0.0
 10
127.8464239514
 20
139.8162748607
 30
0.0
 10
127.9493420528
 20
140.083219067
 30
0.0
 10
128.0475664528
 20
140.3519346647
 30
0.0
 10
128.1219345063
 20
140.5551963581
 30
0.0
  0
SPLINE
  5
377
100
AcDbEntity
  8
0
100
AcDbSpline
 62
7
  6
CONTINUOUS
 70
0
 71
3
 72
9
 73
5
 74
0
 42
0.0000001
 43
0.0000001
 44
0.0000000001
 40
0.0
 40
0.0
 40
0.0
 40
0.0
 40
0.254290576
 40
1.0
 40
1.0
 40
1.0
 40
1.0
 10
17.4795345063
 20
140.5551963581
 30
0.0
 10
17.5045310096
 20
140.4868762751
 30
0.0
 10
17.6028491078
 20
140.2182189419
 30
0.0
 10
17.7025121655
 20
139.9500146293
 30
0.0
 10
17.7805097515
 20
139.7514461103
 30
0.0
  0
SPLINE
  5
378
100
AcDbEntity
  8
0
100
AcDbSpline
 62
7
  6
CONTINUOUS
 70
0
 71
3
 72
9
 73
5
 74
0
 42
0.0000001
 43
0.0000001
 44
0.0000000001
 40
0.0
 40
0.0
 40
0.0
 40
0.0
 40
0.2440851971
 40
1.0
 40
1.0
 40
1.0
 40
1.0
 10
18.6647806528
 20
139.9237571625
 30
0.0
 10
18.6364863787
 20
139.9261206171
 30
0.0
 10
18.5209679969
 20
139.9405240789
 30
0.0
 10
18.4080669236
 20
139.9731803017
 30
0.0
 10
18.3262011729
 20
140.0052705228
 30
0.0
  0
SPLINE
  5
379
100
AcDbEntity
  8
0
100
AcDbSpline
 62
7
  6
CONTINUOUS
 70
0
 71
3
 72
9
 73
5
 74
0
 42
0.0000001
 43
0.0000001
 44
0.0000000001
 40
0.0
 40
0.0
 40
0.0
 40
0.0
 40
0.2388394857
 40
1.0
 40
1.0
 40
1.0
 40
1.0
 10
18.3262011729
 20
140.0052705228
 30
0.0
 10
18.2903581429
 20
140.0193204857
 30
0.0
 10
18.1426432225
 20
140.0842104911
 30
0.0
 10
18.0043191145
 20
140.16869801
 30
0.0
 10
17.9028678396
 20
140.2376958453
 30
0.0
  0
SPLINE
  5
37A
100
AcDbEntity
  8
0
100
AcDbSpline
 62
7
  6
CONTINUOUS
 70
0
 71
3
 72
9
 73
5
 74
0
 42
0.0000001
 43
0.0000001
 44
0.0000000001
 40
0.0
 40
0.0
 40
0.0
 40
0.0
 40
0.2448844454
 40
1.0
 40
1.0
 40
1.0
 40
1.0
 10
17.9028678396
 20
140.2376958453
 30
0.0
 10
17.867145389
 20
140.2619909739
 30
0.0
 10
17.7230624739
 20
140.3638494697
 30
0.0
 10
17.5842988462
 20
140.472914638
 30
0.0
 10
17.4795345063
 20
140.5551963581
 30
0.0
  0
SPLINE
  5
37B
100
AcDbEntity
  8
0
100
AcDbSpline
 62
7
  6
CONTINUOUS
 70
0
 71
3
 72
9
 73
5
 74
0
 42
0.0000001
 43
0.0000001
 44
0.0000000001
 40
0.0
 40
0.0
 40
0.0
 40
0.0
 40
0.2533400087
 40
1.0
 40
1.0
 40
1.0
 40
1.0
 10
128.1219345063
 20
140.5551963581
 30
0.0
 10
128.0867888025
 20
140.527592987
 30
0.0
 10
127.9480468761
 20
140.4186899481
 30
0.0
 10
127.807512067
 20
140.3117670282
 30
0.0
 10
127.698601173
 20
140.2376958453
 30
0.0
  0
SPLINE
  5
37C
100
AcDbEntity
  8
0
100
AcDbSpline
 62
7
  6
CONTINUOUS
 70
0
 71
3
 72
9
 73
5
 74
0
 42
0.0000001
 43
0.0000001
 44
0.0000000001
 40
0.0
 40
0.0
 40
0.0
 40
0.0
 40
0.2614583964
 40
1.0
 40
1.0
 40
1.0
 40
1.0
 10
127.698601173
 20
140.2376958453
 30
0.0
 10
127.6637623567
 20
140.2140016837
 30
0.0
 10
127.5289972188
 20
140.125808198
 30
0.0
 10
127.3860712411
 20
140.0487038954
 30
0.0
 10
127.2752678396
 20
140.0052705228
 30
0.0
  0
SPLINE
  5
37D
100
AcDbEntity
  8
0
100
AcDbSpline
 62
7
  6
CONTINUOUS
 70
0
 71
3
 72
9
 73
5
 74
0
 42
0.0000001
 43
0.0000001
 44
0.0000000001
 40
0.0
 40
0.0
 40
0.0
 40
0.0
 40
0.2588599136
 40
1.0
 40
1.0
 40
1.0
 40
1.0
 10
127.2752678396
 20
140.0052705228
 30
0.0
 10
127.2404694446
 20
139.9916300421
 30
0.0
 10
127.1041452895
 20
139.9441419202
 30
0.0
 10
126.9589464635
 20
139.9201963581
 30
0.0
 10
126.8519345063
 20
139.9201963581
 30
0.0
  0
SPLINE
  5
37E
100
AcDbEntity
  8
0
100
AcDbSpline
 62
7
  6
CONTINUOUS
 70
0
 71
3
 72
9
 73
5
 74
0
 42
0.0000001
 43
0.0000001
 44
0.0000000001
 40
0.0
 40
0.0
 40
0.0
 40
0.0
 40
0.5079270275
 40
1.0
 40
1.0
 40
1.0
 40
1.0
 10
98.3255251891
 20
90.9975943795
 30
0.0
 10
98.365999317
 20
91.0222738297
 30
0.0
 10
98.4519342216
 20
91.0615204516
 30
0.0
 10
98.545665335
 20
91.0759690904
 30
0.0
 10
98.5915906322
 20
91.075974614
 30
0.0
  0
SPLINE
  5
37F
100
AcDbEntity
  8
0
100
AcDbSpline
 62
7
  6
CONTINUOUS
 70
0
 71
3
 72
22
 73
18
 74
0
 42
0.0000001
 43
0.0000001
 44
0.0000000001
 40
0.0
 40
0.0
 40
0.0
 40
0.0
 40
0.1949171289
 40
0.382711117
 40
0.5555586598
 40
0.7070444498
 40
0.7729672855
 40
0.8314336884
 40
0.8818685832
 40
0.9238348904
 40
0.9569052254
 40
0.9699860185
 40
0.98073116
 40
0.9891221485
 40
0.9951407414
 40
0.9987696444
 40
1.0
 40
1.0
 40
1.0
 40
1.0
 10
114.1773345063
 20
82.1244460367
 30
0.0
 10
114.2268456351
 20
82.1244460367
 30
0.0
 10
114.324058547
 20
82.1244047222
 30
0.0
 10
114.4651765279
 20
82.1242222958
 30
0.0
 10
114.5952623664
 20
82.1239259546
 30
0.0
 10
114.6943909919
 20
82.123581921
 30
0.0
 10
114.7644659705
 20
82.1232488424
 30
0.0
 10
114.8088714858
 20
82.1229904609
 30
0.0
 10
114.8471956792
 20
82.1227185958
 30
0.0
 10
114.879056807
 20
82.1224255245
 30
0.0
 10
114.9014585576
 20
82.1221782504
 30
0.0
 10
114.9158777003
 20
82.1219324266
 30
0.0
 10
114.9241260997
 20
82.1218220274
 30
0.0
 10
114.9303415006
 20
82.1215495992
 30
0.0
 10
114.9353131441
 20
82.1216659602
 30
0.0
 10
114.937380692
 20
82.1210552931
 30
0.0
 10
114.9393345063
 20
82.1214337191
 30
0.0
 10
114.9393345063
 20
82.121121195
 30
0.0
  0
SPLINE
  5
380
100
AcDbEntity
  8
0
100
AcDbSpline
 62
7
  6
CONTINUOUS
 70
0
 71
3
 72
14
 73
10
 74
0
 42
0.0000001
 43
0.0000001
 44
0.0000000001
 40
0.0
 40
0.0
 40
0.0
 40
0.0
 40
0.2991305728
 40
0.4485275991
 40
0.5885907962
 40
0.7139005218
 40
0.8229929705
 40
0.9168292805
 40
1.0
 40
1.0
 40
1.0
 40
1.0
 10
99.6032246691
 20
89.4249963581
 30
0.0
 10
99.6032248754
 20
89.3291337472
 30
0.0
 10
99.6185734191
 20
89.1844649206
 30
0.0
 10
99.673833577
 20
89.0036690141
 30
0.0
 10
99.7305680712
 20
88.8827676348
 30
0.0
 10
99.8011122571
 20
88.7847574606
 30
0.0
 10
99.879947013
 20
88.7135309989
 30
0.0
 10
99.9631513191
 20
88.6721215374
 30
0.0
 10
100.0201830484
 20
88.6629990724
 30
0.0
 10
100.0468368346
 20
88.6629989862
 30
0.0
  0
SPLINE
  5
381
100
AcDbEntity
  8
0
100
AcDbSpline
 62
7
  6
CONTINUOUS
 70
0
 71
3
 72
17
 73
13
 74
0
 42
0.0000001
 43
0.0000001
 44
0.0000000001
 40
0.0
 40
0.0
 40
0.0
 40
0.0
 40
0.0063737325
 40
0.0197714829
 40
0.0418338048
 40
0.0734303695
 40
0.1664790045
 40
0.2962169626
 40
0.4566290353
 40
0.6357781164
 40
0.8206638797
 40
1.0
 40
1.0
 40
1.0
 40
1.0
 10
98.9332862908
 20
88.2017481297
 30
0.0
 10
98.9320686097
 20
88.2005304503
 30
0.0
 10
98.9256888157
 20
88.2012726138
 30
0.0
 10
98.9161933227
 20
88.2062371694
 30
0.0
 10
98.9004606304
 20
88.2158894395
 30
0.0
 10
98.8686352471
 20
88.2392226054
 30
0.0
 10
98.8153274167
 20
88.2828854321
 30
0.0
 10
98.7375263065
 20
88.3510988181
 30
0.0
 10
98.6441194869
 20
88.4368963561
 30
0.0
 10
98.5412606923
 20
88.5343461694
 30
0.0
 10
98.4360645531
 20
88.6367586787
 30
0.0
 10
98.3663243525
 20
88.7061872011
 30
0.0
 10
98.3321778479
 20
88.7405634422
 30
0.0
  0
SPLINE
  5
382
100
AcDbEntity
  8
0
100
AcDbSpline
 62
7
  6
CONTINUOUS
 70
0
 71
3
 72
11
 73
7
 74
0
 42
0.0000001
 43
0.0000001
 44
0.0000000001
 40
0.0
 40
0.0
 40
0.0
 40
0.0
 40
0.2277286437
 40
0.4755091986
 40
0.7354739796
 40
1.0
 40
1.0
 40
1.0
 40
1.0
 10
99.6032295206
 20
89.4249963581
 30
0.0
 10
99.4899152388
 20
89.4249887814
 30
0.0
 10
99.2523690406
 20
89.3953920357
 30
0.0
 10
98.9082332643
 20
89.2604920006
 30
0.0
 10
98.5910363509
 20
89.0378544353
 30
0.0
 10
98.4124343174
 20
88.844888969
 30
0.0
 10
98.3321778846
 20
88.7405634844
 30
0.0
  0
SPLINE
  5
383
100
AcDbEntity
  8
0
100
AcDbSpline
 62
7
  6
CONTINUOUS
 70
0
 71
3
 72
22
 73
18
 74
0
 42
0.0000001
 43
0.0000001
 44
0.0000000001
 40
0.0
 40
0.0
 40
0.0
 40
0.0
 40
0.0012303556
 40
0.0048592586
 40
0.0108778515
 40
0.01926884
 40
0.0300139815
 40
0.0430947746
 40
0.0761651096
 40
0.1181314168
 40
0.1685663116
 40
0.2270327145
 40
0.2929555502
 40
0.4444413402
 40
0.617288883
 40
0.8050828711
 40
1.0
 40
1.0
 40
1.0
 40
1.0
 10
114.9393345063
 20
87.1561747068
 30
0.0
 10
114.9393345063
 20
87.1564872309
 30
0.0
 10
114.937380692
 20
87.1561088048
 30
0.0
 10
114.9353131441
 20
87.1567194719
 30
0.0
 10
114.9303415006
 20
87.156603111
 30
0.0
 10
114.9241260997
 20
87.1568755391
 30
0.0
 10
114.9158777003
 20
87.1569859384
 30
0.0
 10
114.9014585576
 20
87.1572317621
 30
0.0
 10
114.879056807
 20
87.1574790362
 30
0.0
 10
114.8471956792
 20
87.1577721075
 30
0.0
 10
114.8088714858
 20
87.1580439726
 30
0.0
 10
114.7644659705
 20
87.1583023542
 30
0.0
 10
114.6943909919
 20
87.1586354327
 30
0.0
 10
114.5952623664
 20
87.1589794663
 30
0.0
 10
114.4651765279
 20
87.1592758076
 30
0.0
 10
114.324058547
 20
87.159458234
 30
0.0
 10
114.2268456351
 20
87.1594995485
 30
0.0
 10
114.1773345063
 20
87.1594995485
 30
0.0
  0
SPLINE
  5
384
100
AcDbEntity
  8
0
100
AcDbSpline
 62
7
  6
CONTINUOUS
 70
0
 71
3
 72
22
 73
18
 74
0
 42
0.0000001
 43
0.0000001
 44
0.0000000001
 40
0.0
 40
0.0
 40
0.0
 40
0.0
 40
0.0012303556
 40
0.0048592586
 40
0.0108778515
 40
0.01926884
 40
0.0300139815
 40
0.0430947746
 40
0.0761651096
 40
0.1181314168
 40
0.1685663116
 40
0.2270327145
 40
0.2929555502
 40
0.4444413402
 40
0.617288883
 40
0.8050828711
 40
1.0
 40
1.0
 40
1.0
 40
1.0
 10
100.6645345063
 20
82.121121195
 30
0.0
 10
100.6645345063
 20
82.1214337191
 30
0.0
 10
100.6664883205
 20
82.1210552931
 30
0.0
 10
100.6685558684
 20
82.1216659602
 30
0.0
 10
100.673527512
 20
82.1215495992
 30
0.0
 10
100.6797429128
 20
82.1218220274
 30
0.0
 10
100.6879913123
 20
82.1219324266
 30
0.0
 10
100.7024104549
 20
82.1221782504
 30
0.0
 10
100.7248122056
 20
82.1224255245
 30
0.0
 10
100.7566733334
 20
82.1227185958
 30
0.0
 10
100.7949975268
 20
82.1229904609
 30
0.0
 10
100.839403042
 20
82.1232488424
 30
0.0
 10
100.9094780207
 20
82.123581921
 30
0.0
 10
101.0086066461
 20
82.1239259546
 30
0.0
 10
101.1386924846
 20
82.1242222958
 30
0.0
 10
101.2798104656
 20
82.1244047222
 30
0.0
 10
101.3770233775
 20
82.1244460367
 30
0.0
 10
101.4265345063
 20
82.1244460367
 30
0.0
  0
SPLINE
  5
385
100
AcDbEntity
  8
0
100
AcDbSpline
 62
7
  6
CONTINUOUS
 70
0
 71
3
 72
9
 73
5
 74
0
 42
0.0000001
 43
0.0000001
 44
0.0000000001
 40
0.0
 40
0.0
 40
0.0
 40
0.0
 40
0.246473183
 40
1.0
 40
1.0
 40
1.0
 40
1.0
 10
98.6114394054
 20
91.4665121881
 30
0.0
 10
98.6079269879
 20
91.4345700745
 30
0.0
 10
98.5959553586
 20
91.3047255512
 30
0.0
 10
98.5915952529
 20
91.1742395821
 30
0.0
 10
98.5915966076
 20
91.0759963582
 30
0.0
  0
SPLINE
  5
386
100
AcDbEntity
  8
0
100
AcDbSpline
 62
7
  6
CONTINUOUS
 70
0
 71
3
 72
22
 73
18
 74
0
 42
0.0000001
 43
0.0000001
 44
0.0000000001
 40
0.0
 40
0.0
 40
0.0
 40
0.0
 40
0.1949171289
 40
0.382711117
 40
0.5555586598
 40
0.7070444498
 40
0.7729672855
 40
0.8314336884
 40
0.8818685832
 40
0.9238348904
 40
0.9569052254
 40
0.9699860185
 40
0.98073116
 40
0.9891221485
 40
0.9951407414
 40
0.9987696444
 40
1.0
 40
1.0
 40
1.0
 40
1.0
 10
101.4265345063
 20
87.1594995485
 30
0.0
 10
101.3770233775
 20
87.1594995485
 30
0.0
 10
101.2798104656
 20
87.159458234
 30
0.0
 10
101.1386924846
 20
87.1592758076
 30
0.0
 10
101.0086066461
 20
87.1589794663
 30
0.0
 10
100.9094780207
 20
87.1586354327
 30
0.0
 10
100.839403042
 20
87.1583023542
 30
0.0
 10
100.7949975268
 20
87.1580439726
 30
0.0
 10
100.7566733334
 20
87.1577721075
 30
0.0
 10
100.7248122056
 20
87.1574790362
 30
0.0
 10
100.7024104549
 20
87.1572317621
 30
0.0
 10
100.6879913123
 20
87.1569859384
 30
0.0
 10
100.6797429128
 20
87.1568755391
 30
0.0
 10
100.673527512
 20
87.156603111
 30
0.0
 10
100.6685558684
 20
87.1567194719
 30
0.0
 10
100.6664883205
 20
87.1561088048
 30
0.0
 10
100.6645345063
 20
87.1564872309
 30
0.0
 10
100.6645345063
 20
87.1561747068
 30
0.0
  0
SPLINE
  5
387
100
AcDbEntity
  8
0
100
AcDbSpline
 62
7
  6
CONTINUOUS
 70
0
 71
3
 72
22
 73
18
 74
0
 42
0.0000001
 43
0.0000001
 44
0.0000000001
 40
0.0
 40
0.0
 40
0.0
 40
0.0
 40
0.1949171289
 40
0.382711117
 40
0.5555586598
 40
0.7070444498
 40
0.7729672855
 40
0.8314336884
 40
0.8818685832
 40
0.9238348904
 40
0.9569052254
 40
0.9699860185
 40
0.98073116
 40
0.9891221485
 40
0.9951407414
 40
0.9987696444
 40
1.0
 40
1.0
 40
1.0
 40
1.0
 10
31.4241345063
 20
87.1594995485
 30
0.0
 10
31.3746233775
 20
87.1594995485
 30
0.0
 10
31.2774104656
 20
87.159458234
 30
0.0
 10
31.1362924846
 20
87.1592758076
 30
0.0
 10
31.0062066461
 20
87.1589794663
 30
0.0
 10
30.9070780207
 20
87.1586354327
 30
0.0
 10
30.837003042
 20
87.1583023542
 30
0.0
 10
30.7925975268
 20
87.1580439726
 30
0.0
 10
30.7542733334
 20
87.1577721075
 30
0.0
 10
30.7224122056
 20
87.1574790362
 30
0.0
 10
30.7000104549
 20
87.1572317621
 30
0.0
 10
30.6855913123
 20
87.1569859384
 30
0.0
 10
30.6773429128
 20
87.1568755391
 30
0.0
 10
30.671127512
 20
87.156603111
 30
0.0
 10
30.6661558684
 20
87.1567194719
 30
0.0
 10
30.6640883205
 20
87.1561088048
 30
0.0
 10
30.6621345063
 20
87.1564872309
 30
0.0
 10
30.6621345063
 20
87.1561747068
 30
0.0
  0
SPLINE
  5
388
100
AcDbEntity
  8
0
100
AcDbSpline
 62
7
  6
CONTINUOUS
 70
0
 71
3
 72
22
 73
18
 74
0
 42
0.0000001
 43
0.0000001
 44
0.0000000001
 40
0.0
 40
0.0
 40
0.0
 40
0.0
 40
0.1949171289
 40
0.382711117
 40
0.5555586598
 40
0.7070444498
 40
0.7729672855
 40
0.8314336884
 40
0.8818685832
 40
0.9238348904
 40
0.9569052254
 40
0.9699860185
 40
0.98073116
 40
0.9891221485
 40
0.9951407414
 40
0.9987696444
 40
1.0
 40
1.0
 40
1.0
 40
1.0
 10
44.1749345063
 20
82.1244460367
 30
0.0
 10
44.2244456351
 20
82.1244460367
 30
0.0
 10
44.321658547
 20
82.1244047222
 30
0.0
 10
44.4627765279
 20
82.1242222958
 30
0.0
 10
44.5928623664
 20
82.1239259546
 30
0.0
 10
44.6919909919
 20
82.123581921
 30
0.0
 10
44.7620659705
 20
82.1232488424
 30
0.0
 10
44.8064714858
 20
82.1229904609
 30
0.0
 10
44.8447956792
 20
82.1227185958
 30
0.0
 10
44.876656807
 20
82.1224255245
 30
0.0
 10
44.8990585576
 20
82.1221782504
 30
0.0
 10
44.9134777003
 20
82.1219324266
 30
0.0
 10
44.9217260997
 20
82.1218220274
 30
0.0
 10
44.9279415006
 20
82.1215495992
 30
0.0
 10
44.9329131441
 20
82.1216659602
 30
0.0
 10
44.934980692
 20
82.1210552931
 30
0.0
 10
44.9369345063
 20
82.1214337191
 30
0.0
 10
44.9369345063
 20
82.121121195
 30
0.0
  0
SPLINE
  5
389
100
AcDbEntity
  8
0
100
AcDbSpline
 62
7
  6
CONTINUOUS
 70
0
 71
3
 72
22
 73
18
 74
0
 42
0.0000001
 43
0.0000001
 44
0.0000000001
 40
0.0
 40
0.0
 40
0.0
 40
0.0
 40
0.0012303556
 40
0.0048592586
 40
0.0108778515
 40
0.01926884
 40
0.0300139815
 40
0.0430947746
 40
0.0761651096
 40
0.1181314168
 40
0.1685663116
 40
0.2270327145
 40
0.2929555502
 40
0.4444413402
 40
0.617288883
 40
0.8050828711
 40
1.0
 40
1.0
 40
1.0
 40
1.0
 10
44.9369345063
 20
87.1561747068
 30
0.0
 10
44.9369345063
 20
87.1564872309
 30
0.0
 10
44.934980692
 20
87.1561088048
 30
0.0
 10
44.9329131441
 20
87.1567194719
 30
0.0
 10
44.9279415006
 20
87.156603111
 30
0.0
 10
44.9217260997
 20
87.1568755391
 30
0.0
 10
44.9134777003
 20
87.1569859384
 30
0.0
 10
44.8990585576
 20
87.1572317621
 30
0.0
 10
44.876656807
 20
87.1574790362
 30
0.0
 10
44.8447956792
 20
87.1577721075
 30
0.0
 10
44.8064714858
 20
87.1580439726
 30
0.0
 10
44.7620659705
 20
87.1583023542
 30
0.0
 10
44.6919909919
 20
87.1586354327
 30
0.0
 10
44.5928623664
 20
87.1589794663
 30
0.0
 10
44.4627765279
 20
87.1592758076
 30
0.0
 10
44.321658547
 20
87.159458234
 30
0.0
 10
44.2244456351
 20
87.1594995485
 30
0.0
 10
44.1749345063
 20
87.1594995485
 30
0.0
  0
SPLINE
  5
38A
100
AcDbEntity
  8
0
100
AcDbSpline
 62
7
  6
CONTINUOUS
 70
0
 71
3
 72
22
 73
18
 74
0
 42
0.0000001
 43
0.0000001
 44
0.0000000001
 40
0.0
 40
0.0
 40
0.0
 40
0.0
 40
0.0012303556
 40
0.0048592586
 40
0.0108778515
 40
0.01926884
 40
0.0300139815
 40
0.0430947746
 40
0.0761651096
 40
0.1181314168
 40
0.1685663116
 40
0.2270327145
 40
0.2929555502
 40
0.4444413402
 40
0.617288883
 40
0.8050828711
 40
1.0
 40
1.0
 40
1.0
 40
1.0
 10
30.6621345063
 20
82.121121195
 30
0.0
 10
30.6621345063
 20
82.1214337191
 30
0.0
 10
30.6640883205
 20
82.1210552931
 30
0.0
 10
30.6661558684
 20
82.1216659602
 30
0.0
 10
30.671127512
 20
82.1215495992
 30
0.0
 10
30.6773429128
 20
82.1218220274
 30
0.0
 10
30.6855913123
 20
82.1219324266
 30
0.0
 10
30.7000104549
 20
82.1221782504
 30
0.0
 10
30.7224122056
 20
82.1224255245
 30
0.0
 10
30.7542733334
 20
82.1227185958
 30
0.0
 10
30.7925975268
 20
82.1229904609
 30
0.0
 10
30.837003042
 20
82.1232488424
 30
0.0
 10
30.9070780207
 20
82.123581921
 30
0.0
 10
31.0062066461
 20
82.1239259546
 30
0.0
 10
31.1362924846
 20
82.1242222958
 30
0.0
 10
31.2774104656
 20
82.1244047222
 30
0.0
 10
31.3746233775
 20
82.1244460367
 30
0.0
 10
31.4241345063
 20
82.1244460367
 30
0.0
  0
SPLINE
  5
38B
100
AcDbEntity
  8
0
100
AcDbSpline
 62
7
  6
CONTINUOUS
 70
0
 71
3
 72
15
 73
11
 74
0
 42
0.0000001
 43
0.0000001
 44
0.0000000001
 40
0.0
 40
0.0
 40
0.0
 40
0.0
 40
0.0262938827
 40
0.0501580905
 40
0.082865427
 40
0.1764438648
 40
0.3048855784
 40
0.4625569262
 40
0.6386176456
 40
1.0
 40
1.0
 40
1.0
 40
1.0
 10
47.0983604581
 20
88.6630304246
 30
0.0
 10
47.1051646726
 20
88.6630287503
 30
0.0
 10
47.1151417645
 20
88.6755464526
 30
0.0
 10
47.1234937612
 20
88.69420434
 30
0.0
 10
47.1357602957
 20
88.7316912838
 30
0.0
 10
47.1484785601
 20
88.79613388
 30
0.0
 10
47.1618846513
 20
88.8936491733
 30
0.0
 10
47.1724501621
 20
89.0127650439
 30
0.0
 10
47.1829703479
 20
89.192370324
 30
0.0
 10
47.1857207538
 20
89.3314794298
 30
0.0
 10
47.1857201311
 20
89.4249963581
 30
0.0
  0
SPLINE
  5
38C
100
AcDbEntity
  8
0
100
AcDbSpline
 62
7
  6
CONTINUOUS
 70
0
 71
3
 72
9
 73
5
 74
0
 42
0.0000001
 43
0.0000001
 44
0.0000000001
 40
0.0
 40
0.0
 40
0.0
 40
0.0
 40
0.2549039618
 40
1.0
 40
1.0
 40
1.0
 40
1.0
 10
47.4014237885
 20
89.4750171929
 30
0.0
 10
47.3843593451
 20
89.466892415
 30
0.0
 10
47.3158368727
 20
89.4384902681
 30
0.0
 10
47.2409687646
 20
89.4250156004
 30
0.0
 10
47.185723406
 20
89.4250151795
 30
0.0
  0
SPLINE
  5
38D
100
AcDbEntity
  8
0
100
AcDbSpline
 62
7
  6
CONTINUOUS
 70
0
 71
3
 72
9
 73
5
 74
0
 42
0.0000001
 43
0.0000001
 44
0.0000000001
 40
0.0
 40
0.0
 40
0.0
 40
0.0
 40
0.4815127299
 40
1.0
 40
1.0
 40
1.0
 40
1.0
 10
46.1740856484
 20
91.0759963581
 30
0.0
 10
46.3433858226
 20
91.0759982106
 30
0.0
 10
46.697630245
 20
91.1427700886
 30
0.0
 10
47.004629663
 20
91.3291348979
 30
0.0
 10
47.1446335791
 20
91.4458925781
 30
0.0
  0
SPLINE
  5
38E
100
AcDbEntity
  8
0
100
AcDbSpline
 62
7
  6
CONTINUOUS
 70
0
 71
3
 72
9
 73
5
 74
0
 42
0.0000001
 43
0.0000001
 44
0.0000000001
 40
0.0
 40
0.0
 40
0.0
 40
0.0
 40
0.75442101
 40
1.0
 40
1.0
 40
1.0
 40
1.0
 10
46.118726279
 20
91.466491501
 30
0.0
 10
46.1478815973
 20
91.3714963821
 30
0.0
 10
46.1696878788
 20
91.2399594765
 30
0.0
 10
46.1740836434
 20
91.1083427847
 30
0.0
 10
46.174083695
 20
91.0759963581
 30
0.0
  0
ELLIPSE
  5
38F
100
AcDbEntity
  8
0
100
AcDbEllipse
 62
7
  6
CONTINUOUS
 10
40.6546014223
 20
77.2329963581
 30
0.0
 11
-0.0
 21
1.524
 31
0.0
 40
0.5773502692
 41
-3.1415926536
 42
-2.0930892363
  0
ELLIPSE
  5
390
100
AcDbEntity
  8
0
100
AcDbEllipse
 62
7
  6
CONTINUOUS
 10
66.8480163165
 20
77.2329963581
 30
0.0
 11
0.0
 21
1.524
 31
0.0
 40
0.5773502692
 41
2.078731129
 42
3.1415926536
  0
ELLIPSE
  5
391
100
AcDbEntity
  8
0
100
AcDbEllipse
 62
7
  6
CONTINUOUS
 10
116.853452696
 20
77.2329963581
 30
0.0
 11
0.0
 21
1.524
 31
0.0
 40
0.5773502692
 41
-3.1415926536
 42
-1.5707963268
  0
ELLIPSE
  5
392
100
AcDbEntity
  8
0
100
AcDbEllipse
 62
7
  6
CONTINUOUS
 10
28.7480163165
 20
77.2329963581
 30
0.0
 11
0.0
 21
1.524
 31
0.0
 40
0.5773502692
 41
-4.7123889804
 42
-3.1415926536
  0
ELLIPSE
  5
393
100
AcDbEntity
  8
0
100
AcDbEllipse
 62
7
  6
CONTINUOUS
 10
78.753452696
 20
77.2329963581
 30
0.0
 11
0.0
 21
1.524
 31
0.0
 40
0.5773502692
 41
-3.1415926536
 42
-2.1310316879
  0
ELLIPSE
  5
394
100
AcDbEntity
  8
0
100
AcDbEllipse
 62
7
  6
CONTINUOUS
 10
104.9491650428
 20
77.2329963581
 30
0.0
 11
-0.0
 21
1.524
 31
0.0
 40
0.5773502692
 41
-4.2044541782
 42
-3.1415926536
  0
ENDSEC
  0
SECTION
  2
OBJECTS
  0
DICTIONARY
  5
C
100
AcDbDictionary
280
0
281
1
  3
ACAD_GROUP
350
D
  3
ACAD_MLINESTYLE
350
17
  3
ACAD_LAYOUT
350
1A
  3
ACAD_PLOTSETTINGS
350
19
  3
ACAD_PLOTSTYLENAME
350
E
  0
DICTIONARY
  5
D
102
{ACAD_REACTORS
330
C
102
}
100
AcDbDictionary
280
0
281
1
  0
ACDBDICTIONARYWDFLT
  5
E
102
{ACAD_REACTORS
330
C
102
}
100
AcDbDictionary
281
1
  3
Normal
350
F
100
AcDbDictionaryWithDefault
340
F
  0
DICTIONARY
  5
17
102
{ACAD_REACTORS
330
C
102
}
100
AcDbDictionary
280
0
281
1
  3
Standard
350
18
  0
DICTIONARY
  5
19
102
{ACAD_REACTORS
330
C
102
}
100
AcDbDictionary
281
1
  0
DICTIONARY
  5
1A
102
{ACAD_REACTORS
330
C
102
}
100
AcDbDictionary
281
1
  3
Model
350
395
  3
Layout1
350
396
  0
ACDBPLACEHOLDER
  5
F
102
{ACAD_REACTORS
330
E
102
}
  0
MLINESTYLE
  5
18
102
{ACAD_REACTORS
330
17
102
}
100
AcDbMlineStyle
  2
STANDARD
 70
0
  3

 62
256
 51
90.0
 52
90.0
 71
2
 49
0.5
 62
256
  6
BYLAYER
 49
-0.5
 62
256
  6
BYLAYER
  0
LAYOUT
  5
395
102
{ACAD_REACTORS
330
1A
102
}
100
AcDbPlotSettings
  1

  2
none_device
  4

  6

 40
0.0
 41
0.0
 42
0.0
 43
0.0
 44
210.0
 45
297.0
 46
0.0
 47
0.0
 48
0.0
 49
0.0
140
0.0
141
0.0
142
1.0
143
1.0
 70
1024
 72
1
 73
0
 74
0
  7

 75
0
147
1.0
148
0.0
149
0.0
100
AcDbLayout
  1
Model
 70
0
 71
0
 10
0.0
 20
0.0
 11
210.0
 21
297.0
 12
0.0
 22
0.0
 32
0.0
 14
0.0
 24
0.0
 34
0.0
 15
0.0
 25
0.0
 35
0.0
146
0.0
 13
0.0
 23
0.0
 33
0.0
 16
1.0
 26
0.0
 36
0.0
 17
0.0
 27
1.0
 37
0.0
 76
0
330
23B
345
0
346
0
  0
LAYOUT
  5
396
102
{ACAD_REACTORS
330
1A
102
}
100
AcDbPlotSettings
  1

  2
none_device
  4

  6

 40
0.0
 41
0.0
 42
0.0
 43
0.0
 44
210.0
 45
297.0
 46
0.0
 47
0.0
 48
0.0
 49
0.0
140
0.0
141
0.0
142
1.0
143
1.0
 70
0
 72
1
 73
0
 74
0
  7

 75
0
147
1.0
148
0.0
149
0.0
100
AcDbLayout
  1
Layout1
 70
0
 71
1
 10
0.0
 20
0.0
 11
210.0
 21
297.0
 12
0.0
 22
0.0
 32
0.0
 14
0.0
 24
0.0
 34
0.0
 15
0.0
 25
0.0
 35
0.0
146
0.0
 13
0.0
 23
0.0
 33
0.0
 16
1.0
 26
0.0
 36
0.0
 17
0.0
 27
1.0
 37
0.0
 76
0
330
23C
345
0
346
0
  0
ENDSEC
  0
EOF
