999
DXF file: C:\Users\sesa63760\Dev\_Creo\CAD\MCADPD0004373_3D-CAD\drw0001_1.dxf
999
Pro/ENGINEER 2019471 by Parametric Technology Corporation
  0
SECTION
  2
HEADER
  9
$ACADVER
  1
AC1024
  9
$DWGCODEPAGE
  3
ANSI_1252
  9
$EXTMAX
 10
54.2525064188
 20
76.7285447923
 30
0.0
  9
$EXTMIN
 10
0.0
 20
0.0
 30
0.0
  9
$LIMMIN
 10
0.0
 20
0.0
  9
$LIMMAX
 10
54.2525064188
 20
76.7285447923
  9
$VIEWCTR
 10
27.1262532094
 20
38.3642723961
  9
$VIEWSIZE
 40
76.7285447923
  9
$CLAYER
  8
0
  9
$LTSCALE
 40
5.0015644013
  9
$CELTYPE
  6
BYLAYER
  9
$DIMSCALE
 40
1.0
  9
$DIMASZ
 40
0.6458631717
  9
$DIMEXO
 40
1.0
  9
$DIMDLI
 40
3.4556263136
  9
$DIMEXE
 40
1.0
  9
$DIMCEN
 40
0.8184378111
  9
$DIMLFAC
 40
1.0
  9
$DIMBLK
  1
_FILLED
  9
$DIMALT
 70
0
  9
$DIMALTF
 40
0.0393700787
  9
$DIMTXT
 40
0.9042084403
  9
$DIMTOL
 70
1
  9
$DIMLIM
 70
0
  9
$DIMTFAC
 40
1.0
  9
$DIMTP
 40
0.01
  9
$DIMTM
 40
0.01
  9
$DIMGAP
 40
0.625
  9
$DIMDSEP
 70
46
  9
$AUNITS
 70
0
  9
$PDMODE
 70
3
  9
$PDSIZE
 40
0.3125
  9
$HANDSEED
  5
2D9
  9
$TILEMODE
 70
1
  9
$MEASUREMENT
 70
1
  9
$INSUNITS
 70
4
  0
ENDSEC
  0
SECTION
  2
CLASSES
  0
CLASS
  1
ACDBDICTIONARYWDFLT
  2
AcDbDictionaryWithDefault
  3
AutoCAD 2000
 90
0
 91
1
280
0
281
0
  0
CLASS
  1
ACDBPLACEHOLDER
  2
AcDbPlaceHolder
  3
AutoCAD 2000
 90
0
 91
1
280
0
281
0
  0
CLASS
  1
LAYOUT
  2
AcDbLayout
  3
AutoCAD 2000
 90
0
 91
0
280
0
281
0
  0
ENDSEC
  0
SECTION
  2
TABLES
  0
TABLE
  2
VPORT
  5
8
100
AcDbSymbolTable
 70
2
  0
VPORT
  5
1F4
100
AcDbSymbolTableRecord
100
AcDbViewportTableRecord
  2
*ACTIVE
 70
0
 10
0.0
 20
0.0
 11
1.0
 21
1.0
 12
27.1262532094
 22
38.3642723961
 13
0.0
 23
0.0
 14
1.0
 24
1.0
 15
0.0
 25
0.0
 16
0.0
 26
0.0
 36
1.0
 17
0.0
 27
0.0
 37
0.0
 40
76.7285447923
 41
0.7070707071
 42
50.0
 43
0.0
 44
0.0
 50
0.0
 51
0.0
 71
0
 72
100
 73
1
 74
1
 75
0
 76
0
 77
0
 78
0
  0
ENDTAB
  0
TABLE
  2
LTYPE
  5
5
100
AcDbSymbolTable
 70
6
  0
LTYPE
  5
14
100
AcDbSymbolTableRecord
100
AcDbLinetypeTableRecord
  2
BYBLOCK
 70
0
  3

 72
65
 73
0
 40
0.0
  0
LTYPE
  5
15
100
AcDbSymbolTableRecord
100
AcDbLinetypeTableRecord
  2
BYLAYER
 70
0
  3

 72
65
 73
0
 40
0.0
  0
LTYPE
  5
16
100
AcDbSymbolTableRecord
100
AcDbLinetypeTableRecord
  2
CONTINUOUS
 70
64
  3
Solid line
 72
65
 73
0
 40
0.0
  0
LTYPE
  5
1F5
100
AcDbSymbolTableRecord
100
AcDbLinetypeTableRecord
  2
CENTER
 70
64
  3
____ _ ____ _ ____ _ ____ _ ____ _ ____ _ ____
 72
65
 73
4
 40
0.6
 49
0.375
 74
0
 49
-0.075
 74
0
 49
0.075
 74
0
 49
-0.075
 74
0
  0
LTYPE
  5
1F6
100
AcDbSymbolTableRecord
100
AcDbLinetypeTableRecord
  2
HIDDEN
 70
64
  3
- - - - - - - - - - - - - - - - - - - -
 72
65
 73
2
 40
0.2
 49
0.1
 74
0
 49
-0.1
 74
0
  0
LTYPE
  5
1F7
100
AcDbSymbolTableRecord
100
AcDbLinetypeTableRecord
  2
PHANTOM
 70
64
  3
_____ _ _ _____ _ _ _____ _ _ _____
 72
65
 73
6
 40
0.8
 49
0.45
 74
0
 49
-0.05
 74
0
 49
0.1
 74
0
 49
-0.05
 74
0
 49
0.1
 74
0
 49
-0.05
 74
0
  0
LTYPE
  5
1F8
100
AcDbSymbolTableRecord
100
AcDbLinetypeTableRecord
  2
DOT
 70
64
  3
. . . . . . . . . . . . . . . . . . . .
 72
65
 73
2
 40
0.2
 49
0.1
 74
0
 49
-0.1
 74
0
  0
LTYPE
  5
1F9
100
AcDbSymbolTableRecord
100
AcDbLinetypeTableRecord
  2
DASHED
 70
64
  3
- - - - - - - - - - - - - - - - - - - -
 72
65
 73
2
 40
0.2
 49
0.1
 74
0
 49
-0.1
 74
0
  0
ENDTAB
  0
TABLE
  2
LAYER
  5
2
100
AcDbSymbolTable
 70
36
  0
LAYER
  5
10
100
AcDbSymbolTableRecord
100
AcDbLayerTableRecord
  2
0
 70
0
 62
7
  6
CONTINUOUS
370
-3
390
F
  0
LAYER
  5
1FA
100
AcDbSymbolTableRecord
100
AcDbLayerTableRecord
  2
DEFAULT_1
 70
0
 62
7
  6
CENTER
370
-3
390
F
  0
LAYER
  5
1FB
100
AcDbSymbolTableRecord
100
AcDbLayerTableRecord
  2
DEFAULT_2
 70
0
 62
7
  6
HIDDEN
370
-3
390
F
  0
LAYER
  5
1FC
100
AcDbSymbolTableRecord
100
AcDbLayerTableRecord
  2
DEFAULT_3
 70
0
 62
7
  6
PHANTOM
370
-3
390
F
  0
LAYER
  5
1FD
100
AcDbSymbolTableRecord
100
AcDbLayerTableRecord
  2
00_COMPONENTS
 70
0
 62
7
  6
CONTINUOUS
370
-3
390
F
  0
LAYER
  5
1FE
100
AcDbSymbolTableRecord
100
AcDbLayerTableRecord
  2
00_COMPONENTS_1
 70
0
 62
7
  6
CONTINUOUS
370
-3
390
F
  0
LAYER
  5
1FF
100
AcDbSymbolTableRecord
100
AcDbLayerTableRecord
  2
01_1_DEFAULT_DATUMS
 70
0
 62
7
  6
CONTINUOUS
370
-3
390
F
  0
LAYER
  5
200
100
AcDbSymbolTableRecord
100
AcDbLayerTableRecord
  2
01_PLANES
 70
0
 62
7
  6
CONTINUOUS
370
-3
390
F
  0
LAYER
  5
201
100
AcDbSymbolTableRecord
100
AcDbLayerTableRecord
  2
02_COORD_SYS
 70
0
 62
7
  6
CONTINUOUS
370
-3
390
F
  0
LAYER
  5
202
100
AcDbSymbolTableRecord
100
AcDbLayerTableRecord
  2
03_AXES
 70
0
 62
7
  6
CONTINUOUS
370
-3
390
F
  0
LAYER
  5
203
100
AcDbSymbolTableRecord
100
AcDbLayerTableRecord
  2
03_AXES_1
 70
0
 62
7
  6
CONTINUOUS
370
-3
390
F
  0
LAYER
  5
204
100
AcDbSymbolTableRecord
100
AcDbLayerTableRecord
  2
04_POINTS
 70
0
 62
7
  6
CONTINUOUS
370
-3
390
F
  0
LAYER
  5
205
100
AcDbSymbolTableRecord
100
AcDbLayerTableRecord
  2
05_CURVES
 70
0
 62
7
  6
CONTINUOUS
370
-3
390
F
  0
LAYER
  5
206
100
AcDbSymbolTableRecord
100
AcDbLayerTableRecord
  2
06_SURFS
 70
0
 62
7
  6
CONTINUOUS
370
-3
390
F
  0
LAYER
  5
207
100
AcDbSymbolTableRecord
100
AcDbLayerTableRecord
  2
07_COSMETICS
 70
0
 62
7
  6
CONTINUOUS
370
-3
390
F
  0
LAYER
  5
208
100
AcDbSymbolTableRecord
100
AcDbLayerTableRecord
  2
10_NOTES
 70
0
 62
7
  6
CONTINUOUS
370
-3
390
F
  0
LAYER
  5
209
100
AcDbSymbolTableRecord
100
AcDbLayerTableRecord
  2
11_NOTES_PUB
 70
0
 62
7
  6
CONTINUOUS
370
-3
390
F
  0
LAYER
  5
20A
100
AcDbSymbolTableRecord
100
AcDbLayerTableRecord
  2
13_REF_GTOL
 70
0
 62
7
  6
CONTINUOUS
370
-3
390
F
  0
LAYER
  5
20B
100
AcDbSymbolTableRecord
100
AcDbLayerTableRecord
  2
16_MISC
 70
0
 62
7
  6
CONTINUOUS
370
-3
390
F
  0
LAYER
  5
20C
100
AcDbSymbolTableRecord
100
AcDbLayerTableRecord
  2
17_NO_PRINT
 70
0
 62
7
  6
CONTINUOUS
370
-3
390
F
  0
LAYER
  5
20D
100
AcDbSymbolTableRecord
100
AcDbLayerTableRecord
  2
18_DATUM_CAMS_JOINTS
 70
0
 62
7
  6
CONTINUOUS
370
-3
390
F
  0
LAYER
  5
20E
100
AcDbSymbolTableRecord
100
AcDbLayerTableRecord
  2
19_DATUM_FUNCTIONAL
 70
0
 62
7
  6
CONTINUOUS
370
-3
390
F
  0
LAYER
  5
20F
100
AcDbSymbolTableRecord
100
AcDbLayerTableRecord
  2
20_DATUM_KINEMATIC_SCHEME
 70
0
 62
7
  6
CONTINUOUS
370
-3
390
F
  0
LAYER
  5
210
100
AcDbSymbolTableRecord
100
AcDbLayerTableRecord
  2
INTFCLR_35
 70
0
 62
7
  6
CONTINUOUS
370
-3
390
F
  0
LAYER
  5
211
100
AcDbSymbolTableRecord
100
AcDbLayerTableRecord
  2
INTFCLR_39
 70
0
 62
7
  6
CONTINUOUS
370
-3
390
F
  0
LAYER
  5
212
100
AcDbSymbolTableRecord
100
AcDbLayerTableRecord
  2
INTF_BLANK
 70
0
 62
7
  6
CONTINUOUS
370
-3
390
F
  0
LAYER
  5
213
100
AcDbSymbolTableRecord
100
AcDbLayerTableRecord
  2
_BLACK_HOLE
 70
0
 62
7
  6
CONTINUOUS
370
-3
390
F
  0
ENDTAB
  0
TABLE
  2
STYLE
  5
3
100
AcDbSymbolTable
 70
1
  0
STYLE
  5
11
100
AcDbSymbolTableRecord
100
AcDbTextStyleTableRecord
  2
STANDARD
 70
0
 40
0.0
 41
1.0
 50
0.0
 71
0
 42
0.2
  3
ARIAL.TTF
  4

  0
STYLE
  5
214
100
AcDbSymbolTableRecord
100
AcDbTextStyleTableRecord
  2
TEXTSTYLE_1
 70
0
 40
0.0
 41
0.8
 50
0.0
 71
0
 42
0.2
  3
gdt
  4

  0
ENDTAB
  0
TABLE
  2
VIEW
  5
6
100
AcDbSymbolTable
 70
0
  0
ENDTAB
  0
TABLE
  2
UCS
  5
7
100
AcDbSymbolTable
 70
0
  0
ENDTAB
  0
TABLE
  2
APPID
  5
9
100
AcDbSymbolTable
 70
1
  0
APPID
  5
215
100
AcDbSymbolTableRecord
100
AcDbRegAppTableRecord
  2
ACAD
 70
0
  0
ENDTAB
  0
TABLE
  2
BLOCK_RECORD
  5
1
100
AcDbSymbolTable
 70
0
  0
BLOCK_RECORD
  5
216
100
AcDbSymbolTableRecord
100
AcDbBlockTableRecord
  2
*Model_Space
  0
BLOCK_RECORD
  5
217
100
AcDbSymbolTableRecord
100
AcDbBlockTableRecord
  2
*Paper_Space
  0
BLOCK_RECORD
  5
218
100
AcDbSymbolTableRecord
100
AcDbBlockTableRecord
  2
_FILLED
  0
ENDTAB
  0
TABLE
  2
DIMSTYLE
  5
A
100
AcDbSymbolTable
 70
1
100
AcDbDimStyleTable
 71
0
  0
DIMSTYLE
105
219
100
AcDbSymbolTableRecord
100
AcDbDimStyleTableRecord
  2
STANDARD
 70
0
  3

  4

 40
1.0
 41
0.6458631717
 42
1.0
 43
0.38
 44
1.0
 45
0.0
 46
0.0
 47
0.01
 48
0.01
140
0.9042084403
141
0.09
142
0.0
143
25.4
144
1.0
145
0.0
146
1.0
147
0.625
 71
1
 72
0
 73
0
 74
0
 75
0
 76
0
 77
1
 78
8
 79
2
170
0
171
1
172
0
173
0
174
0
175
0
176
0
177
0
178
0
270
2
179
2
271
2
272
2
273
2
274
2
275
0
280
0
281
0
282
0
283
1
284
8
285
0
286
0
287
3
288
0
340
11
278
46
341
218
342
218
343
218
344
218
  0
ENDTAB
  0
ENDSEC
  0
SECTION
  2
BLOCKS
  0
BLOCK
  5
20
100
AcDbEntity
  8
0
100
AcDbBlockBegin
  2
*Model_Space
 70
0
 10
0.0
 20
0.0
 30
0.0
  3
*Model_Space
  1

  0
ENDBLK
  5
21
100
AcDbEntity
  8
0
100
AcDbBlockEnd
  0
BLOCK
  5
1C
100
AcDbEntity
  8
0
100
AcDbBlockBegin
  2
*Paper_Space
 70
0
 10
0.0
 20
0.0
 30
0.0
  3
*Paper_Space
  1

  0
ENDBLK
  5
1D
100
AcDbEntity
  8
0
100
AcDbBlockEnd
  0
BLOCK
  5
21A
100
AcDbEntity
  8
0
100
AcDbBlockBegin
  2
_FILLED
 70
64
 10
0.0
 20
0.0
  3
_FILLED
  1

  0
SOLID
  5
21B
100
AcDbEntity
  8
0
  6
BYBLOCK
 62
0
100
AcDbTrace
 10
0.0
 20
0.0
 11
-1.0
 21
0.25
 12
-1.0
 22
-0.25
 13
-1.0
 23
-0.25
  0
ENDBLK
  5
21C
100
AcDbEntity
  8
0
  6
BYBLOCK
 62
0
100
AcDbBlockEnd
  0
ENDSEC
  0
SECTION
  2
ENTITIES
  0
LINE
  5
21D
100
AcDbEntity
  8
00_COMPONENTS_1
100
AcDbLine
 62
7
  6
BYLAYER
 10
13.6051408013
 20
15.0960275503
 11
21.6106827516
 21
11.0390334528
  0
LINE
  5
21E
100
AcDbEntity
  8
00_COMPONENTS_1
100
AcDbLine
 62
7
  6
BYLAYER
 10
7.309169329
 20
18.5936821232
 11
8.5819668342
 21
17.858848765
  0
LINE
  5
21F
100
AcDbEntity
  8
00_COMPONENTS_1
100
AcDbLine
 62
7
  6
BYLAYER
 10
14.8045324155
 20
14.2663301252
 11
16.0773299208
 21
13.5314967671
  0
LINE
  5
220
100
AcDbEntity
  8
00_COMPONENTS_1
100
AcDbLine
 62
7
  6
BYLAYER
 10
22.2998955021
 20
9.9389781273
 11
23.5726930074
 21
9.2041447692
  0
LINE
  5
221
100
AcDbEntity
  8
00_COMPONENTS_1
100
AcDbLine
 62
7
  6
BYLAYER
 10
21.8856708606
 20
10.8545504211
 11
23.1584683659
 21
10.119717063
  0
LINE
  5
222
100
AcDbEntity
  8
00_COMPONENTS_1
100
AcDbLine
 62
7
  6
BYLAYER
 10
6.5780537809
 20
19.7179294929
 11
13.6051408013
 21
15.0960275503
  0
LINE
  5
223
100
AcDbEntity
  8
00_COMPONENTS_1
100
AcDbLine
 62
7
  6
BYLAYER
 10
26.905983245
 20
67.8051727236
 11
8.3091523279
 21
57.0683514777
  0
LINE
  5
224
100
AcDbEntity
  8
00_COMPONENTS_1
100
AcDbLine
 62
7
  6
BYLAYER
 10
9.5819498332
 20
56.3335181196
 11
28.1787807503
 21
67.0703393655
  0
LINE
  5
225
100
AcDbEntity
  8
00_COMPONENTS_1
100
AcDbLine
 62
7
  6
BYLAYER
 10
6.6637440646
 20
53.3830971471
 11
6.8949446541
 21
53.5165800729
  0
LINE
  5
226
100
AcDbEntity
  8
00_COMPONENTS_1
100
AcDbLine
 62
7
  6
BYLAYER
 10
28.1787809186
 20
64.335056858
 11
8.1677421598
 21
52.7817469528
  0
LINE
  5
227
100
AcDbEntity
  8
00_COMPONENTS_1
100
AcDbLine
 62
7
  6
BYLAYER
 10
17.1302854246
 20
57.6500594786
 11
19.4182624567
 21
58.9710157489
  0
LINE
  5
228
100
AcDbEntity
  8
00_COMPONENTS_1
100
AcDbLine
 62
7
  6
BYLAYER
 10
6.2939151038
 20
38.7175074669
 11
6.2939149345
 21
32.1854880321
  0
LINE
  5
229
100
AcDbEntity
  8
00_COMPONENTS_1
100
AcDbLine
 62
7
  6
BYLAYER
 10
6.3708537898
 20
52.9748563926
 11
6.3708537898
 21
38.7619277701
  0
LINE
  5
22A
100
AcDbEntity
  8
00_COMPONENTS_1
100
AcDbLine
 62
7
  6
BYLAYER
 10
6.3708537898
 20
32.1410683682
 11
6.3708537898
 21
20.0698089823
  0
LINE
  5
22B
100
AcDbEntity
  8
00_COMPONENTS_1
100
AcDbLine
 62
7
  6
BYLAYER
 10
6.5780537809
 20
19.7179294929
 11
6.5780537809
 21
32.0214441038
  0
LINE
  5
22C
100
AcDbEntity
  8
00_COMPONENTS_1
100
AcDbLine
 62
7
  6
BYLAYER
 10
6.5780537809
 20
38.8815540196
 11
6.5780537809
 21
52.6229769033
  0
LINE
  5
22D
100
AcDbEntity
  8
00_COMPONENTS_1
100
AcDbLine
 62
7
  6
BYLAYER
 10
6.8429492015
 20
39.0344905399
 11
6.8429492015
 21
39.442738215
  0
LINE
  5
22E
100
AcDbEntity
  8
00_COMPONENTS_1
100
AcDbLine
 62
7
  6
BYLAYER
 10
6.8949446535
 20
54.6188583339
 11
6.8949446541
 21
53.5165800729
  0
LINE
  5
22F
100
AcDbEntity
  8
00_COMPONENTS_1
100
AcDbLine
 62
7
  6
BYLAYER
 10
6.894951897
 20
39.4060744894
 11
6.8949518882
 21
39.064514124
  0
LINE
  5
230
100
AcDbEntity
  8
00_COMPONENTS_1
100
AcDbLine
 62
7
  6
BYLAYER
 10
8.1677421587
 20
53.8840249757
 11
8.1677421598
 21
52.7817469528
  0
LINE
  5
231
100
AcDbEntity
  8
00_COMPONENTS_1
100
AcDbLine
 62
7
  6
BYLAYER
 10
31.6435787956
 20
64.4140389483
 11
29.8419360625
 21
63.374855512
  0
LINE
  5
232
100
AcDbEntity
  8
00_COMPONENTS_1
100
AcDbLine
 62
7
  6
BYLAYER
 10
38.5412085298
 20
64.7509113833
 11
37.3437062738
 21
64.1805141886
  0
LINE
  5
233
100
AcDbEntity
  8
00_COMPONENTS_1
100
AcDbLine
 62
7
  6
BYLAYER
 10
15.8045154145
 20
52.7409994798
 11
34.4013463316
 21
63.4778207257
  0
LINE
  5
234
100
AcDbEntity
  8
00_COMPONENTS_1
100
AcDbLine
 62
7
  6
BYLAYER
 10
17.0773129197
 20
52.0061661216
 11
35.6741438369
 21
62.7429873676
  0
LINE
  5
235
100
AcDbEntity
  8
00_COMPONENTS_1
100
AcDbLine
 62
7
  6
BYLAYER
 10
31.4329329451
 20
62.4563138149
 11
31.9056525297
 21
62.7289773976
  0
LINE
  5
236
100
AcDbEntity
  8
00_COMPONENTS_1
100
AcDbLine
 62
7
  6
BYLAYER
 10
38.4043708615
 20
63.5681530568
 11
39.6018731175
 21
64.1385502515
  0
LINE
  5
237
100
AcDbEntity
  8
00_COMPONENTS_1
100
AcDbLine
 62
7
  6
BYLAYER
 10
35.6741440052
 20
60.0077048649
 11
15.6631052464
 21
48.4543949573
  0
LINE
  5
238
100
AcDbEntity
  8
00_COMPONENTS_1
100
AcDbLine
 62
7
  6
BYLAYER
 10
24.6256485112
 20
53.3227074807
 11
26.9136255432
 21
54.643663751
  0
LINE
  5
239
100
AcDbEntity
  8
00_COMPONENTS_1
100
AcDbLine
 62
7
  6
BYLAYER
 10
36.5933468716
 20
61.5563536667
 11
35.6741439425
 21
61.026159505
  0
LINE
  5
23A
100
AcDbEntity
  8
00_COMPONENTS_1
100
AcDbLine
 62
7
  6
BYLAYER
 10
36.5021415916
 20
60.442816619
 11
35.7140817405
 21
59.9882654868
  0
LINE
  5
23B
100
AcDbEntity
  8
00_COMPONENTS_1
100
AcDbLine
 62
7
  6
BYLAYER
 10
35.7749631405
 20
59.9494982269
 11
37.0917043662
 21
60.7089915752
  0
LINE
  5
23C
100
AcDbEntity
  8
00_COMPONENTS_1
100
AcDbLine
 62
7
  6
BYLAYER
 10
36.0124009963
 20
59.8124165184
 11
37.0709425122
 21
60.4229808605
  0
LINE
  5
23D
100
AcDbEntity
  8
00_COMPONENTS_1
100
AcDbLine
 62
7
  6
BYLAYER
 10
6.2939149345
 20
32.1854880321
 11
14.7792316363
 21
27.2865989779
  0
LINE
  5
23E
100
AcDbEntity
  8
00_COMPONENTS_1
100
AcDbLine
 62
7
  6
BYLAYER
 10
18.8097529533
 20
25.7352915517
 11
16.3348689153
 21
27.1641341925
  0
LINE
  5
23F
100
AcDbEntity
  8
00_COMPONENTS_1
100
AcDbLine
 62
7
  6
BYLAYER
 10
14.39030774
 20
50.291506336
 11
14.3903077411
 21
49.1892283155
  0
LINE
  5
240
100
AcDbEntity
  8
00_COMPONENTS_1
100
AcDbLine
 62
7
  6
BYLAYER
 10
14.7792316363
 20
27.2865989779
 11
14.7792318056
 21
33.8186184127
  0
LINE
  5
241
100
AcDbEntity
  8
00_COMPONENTS_1
100
AcDbLine
 62
7
  6
BYLAYER
 10
15.2543051214
 20
27.1526334536
 11
15.2543051214
 21
34.0929039992
  0
LINE
  5
242
100
AcDbEntity
  8
00_COMPONENTS_1
100
AcDbLine
 62
7
  6
BYLAYER
 10
15.6631052453
 20
49.5566729778
 11
15.6631052464
 21
48.4543949573
  0
LINE
  5
243
100
AcDbEntity
  8
00_COMPONENTS_1
100
AcDbLine
 62
7
  6
BYLAYER
 10
38.1057937046
 20
59.4550200955
 11
40.8029399665
 21
61.0107279333
  0
LINE
  5
244
100
AcDbEntity
  8
00_COMPONENTS_1
100
AcDbLine
 62
7
  6
BYLAYER
 10
17.5729626032
 20
26.4493332954
 11
17.7800544228
 21
26.4470654207
  0
LINE
  5
245
100
AcDbEntity
  8
00_COMPONENTS_1
100
AcDbLine
 62
7
  6
BYLAYER
 10
15.9855743944
 20
26.7583411365
 11
15.9855743944
 21
33.6986116821
  0
LINE
  5
246
100
AcDbEntity
  8
00_COMPONENTS_1
100
AcDbLine
 62
7
  6
BYLAYER
 10
16.3348689153
 20
27.1641341925
 11
16.3348690741
 21
33.2879024126
  0
LINE
  5
247
100
AcDbEntity
  8
00_COMPONENTS_1
100
AcDbLine
 62
7
  6
BYLAYER
 10
17.1704125852
 20
27.0899950981
 11
17.1704127228
 21
32.3972608889
  0
LINE
  5
248
100
AcDbEntity
  8
00_COMPONENTS_1
100
AcDbLine
 62
7
  6
BYLAYER
 10
17.5239645039
 20
27.2941171628
 11
17.5239646414
 21
32.6013829536
  0
LINE
  5
249
100
AcDbEntity
  8
00_COMPONENTS_1
100
AcDbLine
 62
7
  6
BYLAYER
 10
17.88447369
 20
31.9850069237
 11
17.8844735524
 21
26.6777411329
  0
LINE
  5
24A
100
AcDbEntity
  8
00_COMPONENTS_1
100
AcDbLine
 62
7
  6
BYLAYER
 10
36.7028869414
 20
59.7801089312
 11
37.0451291168
 21
60.0673812272
  0
LINE
  5
24B
100
AcDbEntity
  8
00_COMPONENTS_1
100
AcDbLine
 62
7
  6
BYLAYER
 10
7.0717293248
 20
39.1665760093
 11
6.2939151038
 21
38.7175074669
  0
LINE
  5
24C
100
AcDbEntity
  8
00_COMPONENTS_1
100
AcDbLine
 62
7
  6
BYLAYER
 10
23.299878501
 20
48.4136474819
 11
41.8967094182
 21
59.1504687278
  0
LINE
  5
24D
100
AcDbEntity
  8
00_COMPONENTS_1
100
AcDbLine
 62
7
  6
BYLAYER
 10
43.1695069234
 20
58.4156353696
 11
24.5726760063
 21
47.6788141237
  0
LINE
  5
24E
100
AcDbEntity
  8
00_COMPONENTS_1
100
AcDbLine
 62
7
  6
BYLAYER
 10
41.7413159486
 20
59.5844121101
 11
39.0730739133
 21
58.0453761645
  0
LINE
  5
24F
100
AcDbEntity
  8
00_COMPONENTS_1
100
AcDbLine
 62
7
  6
BYLAYER
 10
39.3105117691
 20
57.908294456
 11
41.9787538043
 21
59.4473304014
  0
LINE
  5
250
100
AcDbEntity
  8
00_COMPONENTS_1
100
AcDbLine
 62
7
  6
BYLAYER
 10
14.7792318056
 20
33.8186184127
 11
6.2939151038
 21
38.7175074669
  0
LINE
  5
251
100
AcDbEntity
  8
00_COMPONENTS_1
100
AcDbLine
 62
7
  6
BYLAYER
 10
16.3348690741
 20
33.2879024126
 11
18.8097531121
 21
31.8590597718
  0
LINE
  5
252
100
AcDbEntity
  8
00_COMPONENTS_1
100
AcDbLine
 62
7
  6
BYLAYER
 10
7.9712288254
 20
38.6472614789
 11
7.0717293248
 21
39.1665760093
  0
LINE
  5
253
100
AcDbEntity
  8
00_COMPONENTS_1
100
AcDbLine
 62
7
  6
BYLAYER
 10
18.8097531121
 20
31.8590597718
 11
18.8097529533
 21
25.7352915517
  0
LINE
  5
254
100
AcDbEntity
  8
00_COMPONENTS_1
100
AcDbLine
 62
7
  6
BYLAYER
 10
19.3835100646
 20
25.0459311076
 11
19.3835100646
 21
31.9862016532
  0
LINE
  5
255
100
AcDbEntity
  8
00_COMPONENTS_1
100
AcDbLine
 62
7
  6
BYLAYER
 10
19.4182624567
 20
56.3291252068
 11
19.4182624567
 21
58.9710157489
  0
LINE
  5
256
100
AcDbEntity
  8
00_COMPONENTS_1
100
AcDbLine
 62
7
  6
BYLAYER
 10
23.1584683325
 20
44.127042719
 11
22.927267743
 21
43.9935597932
  0
LINE
  5
257
100
AcDbEntity
  8
00_COMPONENTS_1
100
AcDbLine
 62
7
  6
BYLAYER
 10
44.7958196833
 20
56.8207609142
 11
43.4668965358
 21
56.0542410612
  0
LINE
  5
258
100
AcDbEntity
  8
00_COMPONENTS_1
100
AcDbLine
 62
7
  6
BYLAYER
 10
21.6106827516
 20
11.0390334528
 11
21.6106827516
 21
43.9440808631
  0
LINE
  5
259
100
AcDbEntity
  8
00_COMPONENTS_1
100
AcDbLine
 62
7
  6
BYLAYER
 10
21.8856708266
 20
45.964154338
 11
21.8856708277
 21
44.8618763205
  0
LINE
  5
25A
100
AcDbEntity
  8
00_COMPONENTS_1
100
AcDbLine
 62
7
  6
BYLAYER
 10
21.8856708605
 20
10.9779984915
 11
21.8856708606
 21
10.8545504211
  0
LINE
  5
25B
100
AcDbEntity
  8
00_COMPONENTS_1
100
AcDbLine
 62
7
  6
BYLAYER
 10
22.927267743
 20
43.9935597932
 11
22.927267743
 21
11.0885123829
  0
LINE
  5
25C
100
AcDbEntity
  8
00_COMPONENTS_1
100
AcDbLine
 62
7
  6
BYLAYER
 10
44.9871824449
 20
55.176523439
 11
43.1695071873
 21
54.1280924789
  0
LINE
  5
25D
100
AcDbEntity
  8
00_COMPONENTS_1
100
AcDbLine
 62
7
  6
BYLAYER
 10
23.1584683318
 20
45.2293209799
 11
23.1584683329
 21
44.1270427192
  0
LINE
  5
25E
100
AcDbEntity
  8
00_COMPONENTS_1
100
AcDbLine
 62
7
  6
BYLAYER
 10
23.1584683648
 20
11.2219953273
 11
23.1584683659
 21
10.119717063
  0
LINE
  5
25F
100
AcDbEntity
  8
00_COMPONENTS_1
100
AcDbLine
 62
7
  6
BYLAYER
 10
17.7800544228
 20
26.4470654207
 11
17.8844735524
 21
26.6777411329
  0
LINE
  5
260
100
AcDbEntity
  8
00_COMPONENTS_1
100
AcDbLine
 62
7
  6
BYLAYER
 10
15.2543066514
 20
34.0929013492
 11
14.7792318056
 21
33.8186184127
  0
LINE
  5
261
100
AcDbEntity
  8
00_COMPONENTS_1
100
AcDbLine
 62
7
  6
BYLAYER
 10
47.9071024739
 20
55.0245015943
 11
43.1695073002
 21
52.2918674587
  0
LINE
  5
262
100
AcDbEntity
  8
00_COMPONENTS_1
100
AcDbLine
 62
7
  6
BYLAYER
 10
43.1695069234
 20
26.1711664177
 11
43.3526766512
 21
26.0654157184
  0
LINE
  5
263
100
AcDbEntity
  8
00_COMPONENTS_1
100
AcDbLine
 62
7
  6
BYLAYER
 10
26.9136255432
 20
52.0017732089
 11
26.9136255432
 21
54.643663751
  0
LINE
  5
264
100
AcDbEntity
  8
00_COMPONENTS_1
100
AcDbLine
 62
7
  6
BYLAYER
 10
16.3348690741
 20
33.2879024126
 11
16.5421451698
 21
33.4075726008
  0
LINE
  5
265
100
AcDbEntity
  8
00_COMPONENTS_1
100
AcDbLine
 62
7
  6
BYLAYER
 10
17.5239646414
 20
32.6013829536
 11
17.1704127228
 21
32.3972608889
  0
LINE
  5
266
100
AcDbEntity
  8
00_COMPONENTS_1
100
AcDbLine
 62
7
  6
BYLAYER
 10
28.1787807503
 20
67.0703393655
 11
28.1787809186
 21
64.335056858
  0
LINE
  5
267
100
AcDbEntity
  8
00_COMPONENTS_1
100
AcDbLine
 62
7
  6
BYLAYER
 10
18.8097531121
 20
31.8590597718
 11
19.191481746
 21
32.0794495726
  0
LINE
  5
268
100
AcDbEntity
  8
00_COMPONENTS_1
100
AcDbLine
 62
7
  6
BYLAYER
 10
6.8949446541
 20
53.5165800729
 11
8.1677421598
 21
52.7817467151
  0
LINE
  5
269
100
AcDbEntity
  8
00_COMPONENTS_1
100
AcDbLine
 62
7
  6
BYLAYER
 10
14.3903077411
 20
49.1892280753
 11
15.6631052464
 21
48.4543947171
  0
LINE
  5
26A
100
AcDbEntity
  8
00_COMPONENTS_1
100
AcDbLine
 62
7
  6
BYLAYER
 10
21.8856708277
 20
44.8618760774
 11
23.1584683325
 21
44.127042719
  0
LINE
  5
26B
100
AcDbEntity
  8
00_COMPONENTS_1
100
AcDbLine
 62
7
  6
BYLAYER
 10
31.908004161
 20
62.1820375259
 11
31.9082299556
 21
62.730464051
  0
LINE
  5
26C
100
AcDbEntity
  8
00_COMPONENTS_1
100
AcDbLine
 62
7
  6
BYLAYER
 10
15.2543051214
 20
27.5608811288
 11
14.7792316363
 21
27.2865989779
  0
LINE
  5
26D
100
AcDbEntity
  8
00_COMPONENTS_1
100
AcDbLine
 62
7
  6
BYLAYER
 10
16.511651922
 20
27.0620703075
 11
15.9855743944
 21
26.7583411365
  0
LINE
  5
26E
100
AcDbEntity
  8
00_COMPONENTS_1
100
AcDbLine
 62
7
  6
BYLAYER
 10
17.1704125852
 20
27.0899950981
 11
17.5239645039
 21
27.2941171628
  0
LINE
  5
26F
100
AcDbEntity
  8
00_COMPONENTS_1
100
AcDbLine
 62
7
  6
BYLAYER
 10
23.1584683318
 20
45.2293209799
 11
21.8856708266
 21
45.964154338
  0
LINE
  5
270
100
AcDbEntity
  8
00_COMPONENTS_1
100
AcDbLine
 62
7
  6
BYLAYER
 10
15.6631052453
 20
49.5566729778
 11
14.39030774
 21
50.291506336
  0
LINE
  5
271
100
AcDbEntity
  8
00_COMPONENTS_1
100
AcDbLine
 62
7
  6
BYLAYER
 10
8.1677421587
 20
53.8840249757
 11
6.8949446535
 21
54.6188583339
  0
LINE
  5
272
100
AcDbEntity
  8
00_COMPONENTS_1
100
AcDbLine
 62
7
  6
BYLAYER
 10
17.8547354921
 20
26.6120458117
 11
17.5729330067
 21
26.4493480518
  0
LINE
  5
273
100
AcDbEntity
  8
00_COMPONENTS_1
100
AcDbLine
 62
7
  6
BYLAYER
 10
18.8097529533
 20
25.7352915517
 11
19.3835100646
 21
26.0665483772
  0
LINE
  5
274
100
AcDbEntity
  8
00_COMPONENTS_1
100
AcDbLine
 62
7
  6
BYLAYER
 10
43.1797660482
 20
35.5594851299
 11
43.3565434678
 21
35.457424948
  0
LINE
  5
275
100
AcDbEntity
  8
00_COMPONENTS_1
100
AcDbLine
 62
7
  6
BYLAYER
 10
8.3091523279
 20
57.0683514777
 11
9.5819498332
 21
56.3335181196
  0
LINE
  5
276
100
AcDbEntity
  8
00_COMPONENTS_1
100
AcDbLine
 62
7
  6
BYLAYER
 10
15.8045154145
 20
52.7409994798
 11
17.0773129197
 21
52.0061661216
  0
LINE
  5
277
100
AcDbEntity
  8
00_COMPONENTS_1
100
AcDbLine
 62
7
  6
BYLAYER
 10
23.299878501
 20
48.4136474819
 11
24.5726760063
 21
47.6788141237
  0
LINE
  5
278
100
AcDbEntity
  8
00_COMPONENTS_1
100
AcDbLine
 62
7
  6
BYLAYER
 10
35.6741438369
 20
62.7429873676
 11
35.6741440052
 21
60.0077048649
  0
LINE
  5
279
100
AcDbEntity
  8
00_COMPONENTS_1
100
AcDbLine
 62
7
  6
BYLAYER
 10
36.5021111655
 20
60.3689155562
 11
36.5021415916
 21
60.442816619
  0
LINE
  5
27A
100
AcDbEntity
  8
00_COMPONENTS_1
100
AcDbLine
 62
7
  6
BYLAYER
 10
37.3437062738
 20
64.1805141886
 11
37.0451291168
 21
60.0673812272
  0
LINE
  5
27B
100
AcDbEntity
  8
00_COMPONENTS_1
100
AcDbLine
 62
7
  6
BYLAYER
 10
38.1057937046
 20
59.4550200955
 11
38.4043708615
 21
63.5681530568
  0
LINE
  5
27C
100
AcDbEntity
  8
00_COMPONENTS_1
100
AcDbLine
 62
7
  6
BYLAYER
 10
40.988629888
 20
63.568751276
 11
40.8029399665
 21
61.0107279333
  0
LINE
  5
27D
100
AcDbEntity
  8
00_COMPONENTS_1
100
AcDbLine
 62
7
  6
BYLAYER
 10
43.1695068663
 20
35.5535676571
 11
47.90710204
 21
38.2862017927
  0
LINE
  5
27E
100
AcDbEntity
  8
00_COMPONENTS_1
100
AcDbLine
 62
7
  6
BYLAYER
 10
44.7707569502
 20
35.4570400346
 11
48.8012478639
 21
37.7818180392
  0
LINE
  5
27F
100
AcDbEntity
  8
00_COMPONENTS_1
100
AcDbLine
 62
7
  6
BYLAYER
 10
48.8012478639
 20
37.7818180392
 11
47.9122288092
 21
38.2950818182
  0
LINE
  5
280
100
AcDbEntity
  8
00_COMPONENTS_1
100
AcDbLine
 62
7
  6
BYLAYER
 10
17.1302854246
 20
57.6500594786
 11
20.7188263453
 21
55.5782612824
  0
LINE
  5
281
100
AcDbEntity
  8
00_COMPONENTS_1
100
AcDbLine
 62
7
  6
BYLAYER
 10
24.6256485112
 20
53.3227074807
 11
28.2141894319
 21
51.2509092845
  0
LINE
  5
282
100
AcDbEntity
  8
00_COMPONENTS_1
100
AcDbLine
 62
7
  6
BYLAYER
 10
41.9787538043
 20
59.4473304014
 11
41.9547709323
 21
59.1169476553
  0
LINE
  5
283
100
AcDbEntity
  8
00_COMPONENTS_1
100
AcDbLine
 62
7
  6
BYLAYER
 10
19.4182624567
 20
58.9710157489
 11
23.0068033774
 21
56.8992175527
  0
LINE
  5
284
100
AcDbEntity
  8
00_COMPONENTS_1
100
AcDbLine
 62
7
  6
BYLAYER
 10
26.9136255432
 20
54.643663751
 11
30.5021664639
 21
52.5718655548
  0
LINE
  5
285
100
AcDbEntity
  8
00_COMPONENTS_1
100
AcDbLine
 62
7
  6
BYLAYER
 10
43.1695068663
 20
35.5535676571
 11
43.1695069606
 21
20.040021786
  0
LINE
  5
286
100
AcDbEntity
  8
00_COMPONENTS_1
100
AcDbLine
 62
7
  6
BYLAYER
 10
43.1695073002
 20
52.2918674587
 11
43.1695069234
 21
58.4156353696
  0
LINE
  5
287
100
AcDbEntity
  8
00_COMPONENTS_1
100
AcDbLine
 62
7
  6
BYLAYER
 10
43.3526766512
 20
26.0654157184
 11
43.3565434678
 21
35.457424948
  0
LINE
  5
288
100
AcDbEntity
  8
00_COMPONENTS_1
100
AcDbLine
 62
7
  6
BYLAYER
 10
43.4687513915
 20
54.3006958562
 11
43.4694739617
 21
56.0557277146
  0
LINE
  5
289
100
AcDbEntity
  8
00_COMPONENTS_1
100
AcDbLine
 62
7
  6
BYLAYER
 10
44.7707569502
 20
35.4570400346
 11
44.7668901336
 21
26.065030805
  0
LINE
  5
28A
100
AcDbEntity
  8
00_COMPONENTS_1
100
AcDbLine
 62
7
  6
BYLAYER
 10
44.7668901336
 20
26.065030805
 11
48.7973810474
 21
28.3898088096
  0
LINE
  5
28B
100
AcDbEntity
  8
00_COMPONENTS_1
100
AcDbLine
 62
7
  6
BYLAYER
 10
47.90710204
 20
38.2862017927
 11
47.9071024739
 21
55.0245015943
  0
LINE
  5
28C
100
AcDbEntity
  8
00_COMPONENTS_1
100
AcDbLine
 62
7
  6
BYLAYER
 10
48.7973810474
 20
28.3898088096
 11
48.8012478639
 21
37.7818180392
  0
LINE
  5
28D
100
AcDbEntity
  8
00_COMPONENTS_1
100
AcDbLine
 62
7
  6
BYLAYER
 10
22.927267743
 20
11.0885123828
 11
23.1584683591
 21
11.221995324
  0
LINE
  5
28E
100
AcDbEntity
  8
00_COMPONENTS_1
100
AcDbLine
 62
7
  6
BYLAYER
 10
24.5726760403
 20
9.3032005383
 11
43.1695069606
 21
20.040021786
  0
LINE
  5
28F
100
AcDbEntity
  8
00_COMPONENTS_1
100
AcDbLine
 62
7
  6
BYLAYER
 10
39.5278515068
 20
57.7828161388
 11
35.6741440052
 21
60.0077048649
  0
LINE
  5
290
100
AcDbEntity
  8
00_COMPONENTS_1
100
AcDbLine
 62
7
  6
BYLAYER
 10
32.0324884156
 20
62.110168134
 11
28.1787809186
 21
64.335056858
  0
LINE
  5
291
100
AcDbEntity
  8
00_COMPONENTS_1
100
AcDbLine
 62
7
  6
BYLAYER
 10
31.9082299556
 20
62.730464051
 11
32.5075594046
 21
62.3844488602
  0
LINE
  5
292
100
AcDbEntity
  8
00_COMPONENTS_1
100
AcDbLine
 62
7
  6
BYLAYER
 10
43.4694739617
 20
56.0557277146
 11
44.9897598708
 21
55.1780100924
  0
LINE
  5
293
100
AcDbEntity
  8
00_COMPONENTS_1
100
AcDbLine
 62
7
  6
BYLAYER
 10
36.5021415916
 20
60.442816619
 11
36.5661579477
 21
60.4058575947
  0
LINE
  5
294
100
AcDbEntity
  8
00_COMPONENTS_1
100
AcDbLine
 62
7
  6
BYLAYER
 10
47.9071024739
 20
55.0245015943
 11
44.7958196833
 21
56.8207609142
  0
LINE
  5
295
100
AcDbEntity
  8
00_COMPONENTS_1
100
AcDbLine
 62
7
  6
BYLAYER
 10
37.130695325
 20
61.2461224108
 11
36.5933468716
 21
61.5563536667
  0
LINE
  5
296
100
AcDbEntity
  8
00_COMPONENTS_1
100
AcDbLine
 62
7
  6
BYLAYER
 10
33.8332744006
 20
63.1498462012
 11
31.6435787956
 21
64.4140389483
  0
LINE
  5
297
100
AcDbEntity
  8
00_COMPONENTS_1
100
AcDbLine
 62
7
  6
BYLAYER
 10
43.1695069234
 20
58.4156353696
 11
41.8967094182
 21
59.1504687278
  0
LINE
  5
298
100
AcDbEntity
  8
00_COMPONENTS_1
100
AcDbLine
 62
7
  6
BYLAYER
 10
35.6741438369
 20
62.7429873676
 11
34.4013463316
 21
63.4778207257
  0
LINE
  5
299
100
AcDbEntity
  8
00_COMPONENTS_1
100
AcDbLine
 62
7
  6
BYLAYER
 10
28.1787807503
 20
67.0703393655
 11
26.905983245
 21
67.8051727236
  0
LINE
  5
29A
100
AcDbEntity
  8
00_COMPONENTS_1
100
AcDbLine
 62
7
  6
BYLAYER
 10
41.7413159486
 20
59.5844121101
 11
41.9787538043
 21
59.4473304014
  0
LINE
  5
29B
100
AcDbEntity
  8
00_COMPONENTS_1
100
AcDbLine
 62
7
  6
BYLAYER
 10
39.6018731175
 20
64.1385502515
 11
40.8392124004
 21
63.8524868187
  0
LINE
  5
29C
100
AcDbEntity
  8
00_COMPONENTS_1
100
AcDbLine
 62
7
  6
BYLAYER
 10
39.7785478126
 20
64.4648479504
 11
38.5412085298
 21
64.7509113833
  0
LINE
  5
29D
100
AcDbEntity
  8
00_COMPONENTS_1
100
AcDbLine
 62
7
  6
BYLAYER
 10
40.8392124004
 20
63.8524868187
 11
40.8863656411
 21
63.8339096884
  0
LINE
  5
29E
100
AcDbEntity
  8
00_COMPONENTS_1
100
AcDbLine
 62
7
  6
BYLAYER
 10
39.8257010534
 20
64.4462708202
 11
39.7785478126
 21
64.4648479504
  0
LINE
  5
29F
100
AcDbEntity
  8
00_COMPONENTS_1
100
AcDbLine
 62
7
  6
BYLAYER
 10
37.3437062738
 20
64.1805141886
 11
38.4043708615
 21
63.5681530568
  0
LINE
  5
2A0
100
AcDbEntity
  8
00_COMPONENTS_1
100
AcDbLine
 62
7
  6
BYLAYER
 10
38.5412085298
 20
64.7509113833
 11
39.6018731175
 21
64.1385502515
  0
LINE
  5
2A1
100
AcDbEntity
  8
00_COMPONENTS_1
100
AcDbLine
 62
7
  6
BYLAYER
 10
40.8392124004
 20
63.8524868187
 11
39.7785478126
 21
64.4648479504
  0
LINE
  5
2A2
100
AcDbEntity
  8
00_COMPONENTS_1
100
AcDbLine
 62
7
  6
BYLAYER
 10
40.8864191004
 20
63.834002546
 11
39.8257545127
 21
64.4463636777
  0
ARC
  5
2A3
100
AcDbEntity
  8
00_COMPONENTS_1
100
AcDbCircle
 62
7
  6
BYLAYER
 10
56.2931291151
 20
102.5131652272
 40
85.8107938466
100
AcDbArc
 50
241.9834926379
 51
244.5243208837
  0
ARC
  5
2A4
100
AcDbEntity
  8
00_COMPONENTS_1
100
AcDbCircle
 62
7
  6
BYLAYER
 10
55.8032708935
 20
108.4814099749
 40
84.7225818481
100
AcDbArc
 50
241.9671721853
 51
244.5406413363
  0
ARC
  5
2A5
100
AcDbEntity
  8
00_COMPONENTS_1
100
AcDbCircle
 62
7
  6
BYLAYER
 10
53.7058904905
 20
97.6001139331
 40
80.258157986
100
AcDbArc
 50
241.0784268361
 51
241.3734417218
  0
ARC
  5
2A6
100
AcDbEntity
  8
00_COMPONENTS_1
100
AcDbCircle
 62
7
  6
BYLAYER
 10
40.4927751646
 20
63.6053035195
 40
0.497200134
100
AcDbArc
 50
355.7840309791
 51
359.977638581
  0
SPLINE
  5
2A7
100
AcDbEntity
  8
00_COMPONENTS_1
100
AcDbSpline
 62
7
  6
BYLAYER
 70
0
 71
3
 72
14
 73
10
 74
0
 42
0.0000001
 43
0.0000001
 44
0.0000000001
 40
0.0
 40
0.0
 40
0.0
 40
0.0
 40
0.1078112081
 40
0.2181360453
 40
0.3326096916
 40
0.452540951
 40
0.5788886011
 40
0.7122616458
 40
1.0
 40
1.0
 40
1.0
 40
1.0
 10
15.7667091631
 20
21.1991055798
 30
0.0
 10
15.8221467957
 20
21.2311128238
 30
0.0
 10
15.9398917903
 20
21.2866892109
 30
0.0
 10
16.1304188686
 20
21.3414799912
 30
0.0
 10
16.3340774444
 20
21.3681795618
 30
0.0
 10
16.5488725783
 20
21.3666783156
 30
0.0
 10
16.7729039641
 20
21.3372550158
 30
0.0
 10
17.0890100278
 20
21.2594111472
 30
0.0
 10
17.3216856011
 20
21.1629926613
 30
0.0
 10
17.4740612435
 20
21.0857231688
 30
0.0
  0
SPLINE
  5
2A8
100
AcDbEntity
  8
00_COMPONENTS_1
100
AcDbSpline
 62
7
  6
BYLAYER
 70
0
 71
3
 72
13
 73
9
 74
0
 42
0.0000001
 43
0.0000001
 44
0.0000000001
 40
0.0
 40
0.0
 40
0.0
 40
0.0
 40
0.2893771712
 40
0.5483142539
 40
0.6677424624
 40
0.7817663008
 40
0.8919054337
 40
1.0
 40
1.0
 40
1.0
 40
1.0
 10
24.5726760403
 20
9.3032005383
 30
0.0
 10
24.4848969298
 20
9.2525215477
 30
0.0
 10
24.3104341806
 20
9.1694398925
 30
0.0
 10
24.0807245836
 20
9.1140865056
 30
0.0
 10
23.9078346883
 20
9.1080812942
 30
0.0
 10
23.7877583437
 20
9.1214941795
 30
0.0
 10
23.675101938
 20
9.1526066133
 30
0.0
 10
23.6054896901
 20
9.185226998
 30
0.0
 10
23.572700358
 20
9.2041575012
 30
0.0
  0
SPLINE
  5
2A9
100
AcDbEntity
  8
00_COMPONENTS_1
100
AcDbSpline
 62
7
  6
BYLAYER
 70
0
 71
3
 72
15
 73
11
 74
0
 42
0.0000001
 43
0.0000001
 44
0.0000000001
 40
0.0
 40
0.0
 40
0.0
 40
0.0
 40
0.1048250958
 40
0.2116459151
 40
0.3229667138
 40
0.4408368579
 40
0.5667775915
 40
0.7017872328
 40
0.8462805481
 40
1.0
 40
1.0
 40
1.0
 40
1.0
 10
8.4819195694
 20
25.6480324553
 30
0.0
 10
8.5301328148
 20
25.6758688943
 30
0.0
 10
8.6330465924
 20
25.7230039699
 30
0.0
 10
8.8004659939
 20
25.7642647095
 30
0.0
 10
8.9793445333
 20
25.7763248432
 30
0.0
 10
9.1678684375
 20
25.7593273988
 30
0.0
 10
9.364401677
 20
25.7137857287
 30
0.0
 10
9.5672839278
 20
25.6403077688
 30
0.0
 10
9.7746127618
 20
25.5397479287
 30
0.0
 10
9.910476489
 20
25.4579175676
 30
0.0
 10
9.9786981569
 20
25.4130751667
 30
0.0
  0
SPLINE
  5
2AA
100
AcDbEntity
  8
00_COMPONENTS_1
100
AcDbSpline
 62
7
  6
BYLAYER
 70
0
 71
3
 72
14
 73
10
 74
0
 42
0.0000001
 43
0.0000001
 44
0.0000000001
 40
0.0
 40
0.0
 40
0.0
 40
0.0
 40
0.1078112081
 40
0.2181360453
 40
0.3326096916
 40
0.452540951
 40
0.5788886011
 40
0.7122616458
 40
1.0
 40
1.0
 40
1.0
 40
1.0
 10
15.7667091631
 20
43.2446708423
 30
0.0
 10
15.8221467957
 20
43.2766780863
 30
0.0
 10
15.9398917903
 20
43.3322544734
 30
0.0
 10
16.1304188686
 20
43.3870452537
 30
0.0
 10
16.3340774444
 20
43.4137448243
 30
0.0
 10
16.5488725783
 20
43.4122435781
 30
0.0
 10
16.7729039641
 20
43.3828202782
 30
0.0
 10
17.0890100278
 20
43.3049764097
 30
0.0
 10
17.3216856011
 20
43.2085579238
 30
0.0
 10
17.4740612435
 20
43.1312884313
 30
0.0
  0
SPLINE
  5
2AB
100
AcDbEntity
  8
00_COMPONENTS_1
100
AcDbSpline
 62
7
  6
BYLAYER
 70
0
 71
3
 72
15
 73
11
 74
0
 42
0.0000001
 43
0.0000001
 44
0.0000000001
 40
0.0
 40
0.0
 40
0.0
 40
0.0
 40
0.1048250958
 40
0.2116459151
 40
0.3229667138
 40
0.4408368579
 40
0.5667775915
 40
0.7017872328
 40
0.8462805481
 40
1.0
 40
1.0
 40
1.0
 40
1.0
 10
8.4819195694
 20
47.6935977178
 30
0.0
 10
8.5301328148
 20
47.7214341568
 30
0.0
 10
8.6330465924
 20
47.7685692324
 30
0.0
 10
8.8004659939
 20
47.809829972
 30
0.0
 10
8.9793445333
 20
47.8218901057
 30
0.0
 10
9.1678684375
 20
47.8048926613
 30
0.0
 10
9.364401677
 20
47.7593509912
 30
0.0
 10
9.5672839278
 20
47.6858730313
 30
0.0
 10
9.7746127618
 20
47.5853131912
 30
0.0
 10
9.910476489
 20
47.5034828301
 30
0.0
 10
9.9786981569
 20
47.4586404292
 30
0.0
  0
SPLINE
  5
2AC
100
AcDbEntity
  8
00_COMPONENTS_1
100
AcDbSpline
 62
7
  6
BYLAYER
 70
0
 71
3
 72
11
 73
7
 74
0
 42
0.0000001
 43
0.0000001
 44
0.0000000001
 40
0.0
 40
0.0
 40
0.0
 40
0.0
 40
0.2250404357
 40
0.4614988825
 40
0.7184309578
 40
1.0
 40
1.0
 40
1.0
 40
1.0
 10
6.3708835798
 20
20.0698089151
 30
0.0
 10
6.3708679904
 20
20.0381084125
 30
0.0
 10
6.3803887265
 20
19.9727653646
 30
0.0
 10
6.4220022169
 20
19.8793499156
 30
0.0
 10
6.4890534246
 20
19.7921596969
 30
0.0
 10
6.5463381436
 20
19.7417477218
 30
0.0
 10
6.5780537809
 20
19.7179294929
 30
0.0
  0
SPLINE
  5
2AD
100
AcDbEntity
  8
00_COMPONENTS_1
100
AcDbSpline
 62
7
  6
BYLAYER
 70
0
 71
3
 72
11
 73
7
 74
0
 42
0.0000001
 43
0.0000001
 44
0.0000000001
 40
0.0
 40
0.0
 40
0.0
 40
0.0
 40
0.217772915
 40
0.4508964521
 40
0.7103700133
 40
1.0
 40
1.0
 40
1.0
 40
1.0
 10
6.3708835689
 20
52.9748563255
 30
0.0
 10
6.370902305
 20
53.0129423767
 30
0.0
 10
6.3849051952
 20
53.0923336483
 30
0.0
 10
6.4451226792
 20
53.2029575385
 30
0.0
 10
6.5402820361
 20
53.302921159
 30
0.0
 10
6.6198771651
 20
53.3577707321
 30
0.0
 10
6.6637440646
 20
53.3830971471
 30
0.0
  0
SPLINE
  5
2AE
100
AcDbEntity
  8
00_COMPONENTS_1
100
AcDbSpline
 62
7
  6
BYLAYER
 70
0
 71
3
 72
11
 73
7
 74
0
 42
0.0000001
 43
0.0000001
 44
0.0000000001
 40
0.0
 40
0.0
 40
0.0
 40
0.0
 40
0.2179385192
 40
0.4510311697
 40
0.7105482322
 40
1.0
 40
1.0
 40
1.0
 40
1.0
 10
40.8864008066
 20
63.8339705969
 30
0.0
 10
40.9029053637
 20
63.8244412503
 30
0.0
 10
40.9338113364
 20
63.7985402696
 30
0.0
 10
40.9666517279
 20
63.7447781909
 30
0.0
 10
40.9861006769
 20
63.6785851898
 30
0.0
 10
40.9899752608
 20
63.63042112
 30
0.0
 10
40.9899752608
 20
63.6051094721
 30
0.0
  0
SPLINE
  5
2AF
100
AcDbEntity
  8
00_COMPONENTS_1
100
AcDbSpline
 62
7
  6
BYLAYER
 70
0
 71
3
 72
13
 73
9
 74
0
 42
0.0000001
 43
0.0000001
 44
0.0000000001
 40
0.0
 40
0.0
 40
0.0
 40
0.0
 40
0.289378624
 40
0.5483162201
 40
0.6677442726
 40
0.7817676893
 40
0.891906185
 40
1.0
 40
1.0
 40
1.0
 40
1.0
 10
21.8856708606
 20
10.8545504211
 30
0.0
 10
21.8856708607
 20
10.753187455
 30
0.0
 10
21.9009516539
 20
10.5605490749
 30
0.0
 10
21.9678718129
 20
10.3339283406
 30
0.0
 10
22.0491198659
 20
10.181192924
 30
0.0
 10
22.1207772051
 20
10.0839071538
 30
0.0
 10
22.2040533807
 20
10.0018981887
 30
0.0
 10
22.2671124474
 20
9.9579219822
 30
0.0
 10
22.2999028528
 20
9.9389908593
 30
0.0
  0
SPLINE
  5
2B0
100
AcDbEntity
  8
00_COMPONENTS_1
100
AcDbSpline
 62
7
  6
BYLAYER
 70
0
 71
3
 72
13
 73
9
 74
0
 42
0.0000001
 43
0.0000001
 44
0.0000000001
 40
0.0
 40
0.0
 40
0.0
 40
0.0
 40
0.2343633835
 40
0.4938124634
 40
0.6273878781
 40
0.7589518282
 40
0.8844179425
 40
1.0
 40
1.0
 40
1.0
 40
1.0
 10
17.88447369
 20
31.9850069237
 30
0.0
 10
17.8844736914
 20
32.0390024407
 30
0.0
 10
17.8676388402
 20
32.1528919195
 30
0.0
 10
17.8156637097
 20
32.288941656
 30
0.0
 10
17.7548073049
 20
32.3936204389
 30
0.0
 10
17.7005551483
 20
32.4657472893
 30
0.0
 10
17.6400199269
 20
32.526959456
 30
0.0
 10
17.595097197
 20
32.5602455748
 30
0.0
 10
17.5720675369
 20
32.5736153112
 30
0.0
  0
SPLINE
  5
2B1
100
AcDbEntity
  8
00_COMPONENTS_1
100
AcDbSpline
 62
7
  6
BYLAYER
 70
0
 71
3
 72
11
 73
7
 74
0
 42
0.0000001
 43
0.0000001
 44
0.0000000001
 40
0.0
 40
0.0
 40
0.0
 40
0.0
 40
0.2885324985
 40
0.5488586075
 40
0.7830989538
 40
1.0
 40
1.0
 40
1.0
 40
1.0
 10
17.5720675533
 20
32.5736153061
 30
0.0
 10
17.5456642204
 20
32.5887931956
 30
0.0
 10
17.4929858896
 20
32.6136708985
 30
0.0
 10
17.4124887431
 20
32.6349164662
 30
0.0
 10
17.3364247289
 20
32.635722488
 30
0.0
 10
17.290053285
 20
32.620246293
 30
0.0
 10
17.2702263243
 20
32.6087992586
 30
0.0
  0
SPLINE
  5
2B2
100
AcDbEntity
  8
00_COMPONENTS_1
100
AcDbSpline
 62
7
  6
BYLAYER
 70
0
 71
3
 72
12
 73
8
 74
0
 42
0.0000001
 43
0.0000001
 44
0.0000000001
 40
0.0
 40
0.0
 40
0.0
 40
0.0
 40
0.110733763
 40
0.229605329
 40
0.4819029522
 40
0.7412146575
 40
1.0
 40
1.0
 40
1.0
 40
1.0
 10
41.7413159486
 20
59.5844121101
 30
0.0
 10
41.685747237
 20
59.6164939949
 30
0.0
 10
41.5769264368
 20
59.6943564362
 30
0.0
 10
41.3757792965
 20
59.8890644698
 30
0.0
 10
41.1622696693
 20
60.189145924
 30
0.0
 10
40.9649281229
 20
60.5905829576
 30
0.0
 10
40.856857773
 20
60.8708031389
 30
0.0
 10
40.8029399665
 20
61.0107279333
 30
0.0
  0
SPLINE
  5
2B3
100
AcDbEntity
  8
00_COMPONENTS_1
100
AcDbSpline
 62
7
  6
BYLAYER
 70
0
 71
3
 72
9
 73
5
 74
0
 42
0.0000001
 43
0.0000001
 44
0.0000000001
 40
0.0
 40
0.0
 40
0.0
 40
0.0
 40
0.4900218545
 40
1.0
 40
1.0
 40
1.0
 40
1.0
 10
6.8429492015
 20
39.442738215
 30
0.0
 10
8.150831015
 20
38.4711918981
 30
0.0
 10
10.8968175331
 20
36.5906535913
 30
0.0
 10
13.7659731555
 20
34.9052676867
 30
0.0
 10
15.2543051214
 20
34.0929039992
 30
0.0
  0
SPLINE
  5
2B4
100
AcDbEntity
  8
00_COMPONENTS_1
100
AcDbSpline
 62
7
  6
BYLAYER
 70
0
 71
3
 72
15
 73
11
 74
0
 42
0.0000001
 43
0.0000001
 44
0.0000000001
 40
0.0
 40
0.0
 40
0.0
 40
0.0
 40
0.1141296817
 40
0.2373623096
 40
0.3669962477
 40
0.500030229
 40
0.6330600043
 40
0.7626816631
 40
0.8858949529
 40
1.0
 40
1.0
 40
1.0
 40
1.0
 10
43.3526766512
 20
26.0654157184
 30
0.0
 10
43.4010714298
 20
26.0374756121
 30
0.0
 10
43.5069401054
 20
25.9881959021
 30
0.0
 10
43.6792988606
 20
25.9357540034
 30
0.0
 10
43.8659360606
 20
25.9034913911
 30
0.0
 10
44.0597814583
 20
25.8925445077
 30
0.0
 10
44.2536268364
 20
25.9033851609
 30
0.0
 10
44.4402640225
 20
25.935545519
 30
0.0
 10
44.6126228726
 20
25.9878930794
 30
0.0
 10
44.7184944998
 20
26.0371163133
 30
0.0
 10
44.7668901336
 20
26.065030805
 30
0.0
  0
SPLINE
  5
2B5
100
AcDbEntity
  8
00_COMPONENTS_1
100
AcDbSpline
 62
7
  6
BYLAYER
 70
0
 71
3
 72
15
 73
11
 74
0
 42
0.0000001
 43
0.0000001
 44
0.0000000001
 40
0.0
 40
0.0
 40
0.0
 40
0.0
 40
0.1141462769
 40
0.2373347433
 40
0.3669750849
 40
0.4999983968
 40
0.6330219316
 40
0.7626629245
 40
0.8858524171
 40
1.0
 40
1.0
 40
1.0
 40
1.0
 10
15.8045154145
 20
52.7409994798
 30
0.0
 10
15.7077085315
 20
52.6851083335
 30
0.0
 10
15.5164845786
 20
52.5510462762
 30
0.0
 10
15.2533550687
 20
52.3048963671
 30
0.0
 10
15.0108972998
 20
52.0138870652
 30
0.0
 10
14.7981862083
 20
51.6890153156
 30
0.0
 10
14.6231959803
 20
51.3423648075
 30
0.0
 10
14.4924042534
 20
50.9868832934
 30
0.0
 10
14.4107971633
 20
50.6359284672
 30
0.0
 10
14.3903077399
 20
50.4032904079
 30
0.0
 10
14.39030774
 20
50.291506336
 30
0.0
  0
SPLINE
  5
2B6
100
AcDbEntity
  8
00_COMPONENTS_1
100
AcDbSpline
 62
7
  6
BYLAYER
 70
0
 71
3
 72
15
 73
11
 74
0
 42
0.0000001
 43
0.0000001
 44
0.0000000001
 40
0.0
 40
0.0
 40
0.0
 40
0.0
 40
0.1141462769
 40
0.2373347433
 40
0.3669750849
 40
0.4999983968
 40
0.6330219316
 40
0.7626629245
 40
0.8858524171
 40
1.0
 40
1.0
 40
1.0
 40
1.0
 10
23.299878501
 20
48.4136474819
 30
0.0
 10
23.203071618
 20
48.3577563355
 30
0.0
 10
23.0118476651
 20
48.2236942783
 30
0.0
 10
22.7487181553
 20
47.9775443692
 30
0.0
 10
22.5062603864
 20
47.6865350673
 30
0.0
 10
22.2935492948
 20
47.3616633177
 30
0.0
 10
22.1185590669
 20
47.0150128096
 30
0.0
 10
21.9877673399
 20
46.6595312955
 30
0.0
 10
21.9061602498
 20
46.3085764693
 30
0.0
 10
21.8856708265
 20
46.07593841
 30
0.0
 10
21.8856708266
 20
45.964154338
 30
0.0
  0
SPLINE
  5
2B7
100
AcDbEntity
  8
00_COMPONENTS_1
100
AcDbSpline
 62
7
  6
BYLAYER
 70
0
 71
3
 72
13
 73
9
 74
0
 42
0.0000001
 43
0.0000001
 44
0.0000000001
 40
0.0
 40
0.0
 40
0.0
 40
0.0
 40
0.11896648
 40
0.245057109
 40
0.5075425446
 40
0.7659660651
 40
0.8872485179
 40
1.0
 40
1.0
 40
1.0
 40
1.0
 10
21.6106827516
 20
11.0390334528
 30
0.0
 10
21.659929416
 20
11.0171759953
 30
0.0
 10
21.7646680687
 20
10.9793574096
 30
0.0
 10
21.9890053057
 20
10.9274117505
 30
0.0
 10
22.2836595438
 20
10.908715117
 30
0.0
 10
22.5741931298
 20
10.9486910712
 30
0.0
 10
22.7868777392
 20
11.0173749425
 30
0.0
 10
22.8830444448
 20
11.0629802022
 30
0.0
 10
22.927267743
 20
11.0885123828
 30
0.0
  0
SPLINE
  5
2B8
100
AcDbEntity
  8
00_COMPONENTS_1
100
AcDbSpline
 62
7
  6
BYLAYER
 70
0
 71
3
 72
11
 73
7
 74
0
 42
0.0000001
 43
0.0000001
 44
0.0000000001
 40
0.0
 40
0.0
 40
0.0
 40
0.0
 40
0.2759079663
 40
0.5308539279
 40
0.7698246243
 40
1.0
 40
1.0
 40
1.0
 40
1.0
 10
16.7686115153
 20
13.4917073475
 30
0.0
 10
16.7062370954
 20
13.471794958
 30
0.0
 10
16.5830478719
 20
13.4423322431
 30
0.0
 10
16.399444289
 20
13.4327560801
 30
0.0
 10
16.2284194895
 20
13.4603967512
 30
0.0
 10
16.1246423821
 20
13.5041984961
 30
0.0
 10
16.0773372715
 20
13.5315094991
 30
0.0
  0
SPLINE
  5
2B9
100
AcDbEntity
  8
00_COMPONENTS_1
100
AcDbSpline
 62
7
  6
BYLAYER
 70
0
 71
3
 72
10
 73
6
 74
0
 42
0.0000001
 43
0.0000001
 44
0.0000000001
 40
0.0
 40
0.0
 40
0.0
 40
0.0
 40
0.5140758795
 40
0.7589915549
 40
1.0
 40
1.0
 40
1.0
 40
1.0
 10
14.5146303222
 20
14.5841690938
 30
0.0
 10
14.5481187443
 20
14.5174774554
 30
0.0
 10
14.6101221006
 20
14.4241458846
 30
0.0
 10
14.7158260136
 20
14.3240184898
 30
0.0
 10
14.7742401986
 20
14.2838359266
 30
0.0
 10
14.8045397662
 20
14.2663428572
 30
0.0
  0
SPLINE
  5
2BA
100
AcDbEntity
  8
00_COMPONENTS_1
100
AcDbSpline
 62
7
  6
BYLAYER
 70
0
 71
3
 72
23
 73
19
 74
0
 42
0.0000001
 43
0.0000001
 44
0.0000000001
 40
0.0
 40
0.0
 40
0.0
 40
0.0
 40
0.0632963787
 40
0.1302105573
 40
0.1999119601
 40
0.2715711477
 40
0.3442313619
 40
0.4169035035
 40
0.4886194455
 40
0.5584701304
 40
0.6256513895
 40
0.6895069954
 40
0.7496010141
 40
0.8057653674
 40
0.8581530838
 40
0.9073109727
 40
0.9541758471
 40
1.0
 40
1.0
 40
1.0
 40
1.0
 10
17.4740612435
 20
21.0857231688
 30
0.0
 10
17.5978553425
 20
21.0229473402
 30
0.0
 10
17.8445631167
 20
20.8777151284
 30
0.0
 10
18.1969979816
 20
20.6158254083
 30
0.0
 10
18.5356705671
 20
20.3083601458
 30
0.0
 10
18.8531026407
 20
19.9618137819
 30
0.0
 10
19.1423529548
 20
19.5831943692
 30
0.0
 10
19.3968147531
 20
19.1802040987
 30
0.0
 10
19.6105934851
 20
18.7610903526
 30
0.0
 10
19.7786646807
 20
18.3344845649
 30
0.0
 10
19.8969386037
 20
17.9092336821
 30
0.0
 10
19.962538678
 20
17.4942384664
 30
0.0
 10
19.9737290102
 20
17.0981934317
 30
0.0
 10
19.9298222877
 20
16.7294559015
 30
0.0
 10
19.8314078384
 20
16.3959722198
 30
0.0
 10
19.6800992354
 20
16.1052282455
 30
0.0
 10
19.4789544982
 20
15.8646508253
 30
0.0
 10
19.3142743488
 20
15.7417819981
 30
0.0
 10
19.227250554
 20
15.6915380764
 30
0.0
  0
SPLINE
  5
2BB
100
AcDbEntity
  8
00_COMPONENTS_1
100
AcDbSpline
 62
7
  6
BYLAYER
 70
0
 71
3
 72
15
 73
11
 74
0
 42
0.0000001
 43
0.0000001
 44
0.0000000001
 40
0.0
 40
0.0
 40
0.0
 40
0.0
 40
0.1141462769
 40
0.2373347433
 40
0.3669750849
 40
0.4999983968
 40
0.6330219316
 40
0.7626629245
 40
0.8858524171
 40
1.0
 40
1.0
 40
1.0
 40
1.0
 10
8.3091523279
 20
57.0683514777
 30
0.0
 10
8.2123454449
 20
57.0124603314
 30
0.0
 10
8.021121492
 20
56.8783982742
 30
0.0
 10
7.7579919822
 20
56.632248365
 30
0.0
 10
7.5155342133
 20
56.3412390631
 30
0.0
 10
7.3028231217
 20
56.0163673136
 30
0.0
 10
7.1278328937
 20
55.6697168054
 30
0.0
 10
6.9970411668
 20
55.3142352913
 30
0.0
 10
6.9154340767
 20
54.9632804651
 30
0.0
 10
6.8949446534
 20
54.7306424058
 30
0.0
 10
6.8949446535
 20
54.6188583339
 30
0.0
  0
SPLINE
  5
2BC
100
AcDbEntity
  8
00_COMPONENTS_1
100
AcDbSpline
 62
7
  6
BYLAYER
 70
0
 71
3
 72
13
 73
9
 74
0
 42
0.0000001
 43
0.0000001
 44
0.0000000001
 40
0.0
 40
0.0
 40
0.0
 40
0.0
 40
0.289378624
 40
0.5483162201
 40
0.6677442726
 40
0.7817676893
 40
0.891906185
 40
1.0
 40
1.0
 40
1.0
 40
1.0
 10
6.8949446875
 20
19.509254417
 30
0.0
 10
6.8949446876
 20
19.4078914509
 30
0.0
 10
6.9102254808
 20
19.2152530707
 30
0.0
 10
6.9771456397
 20
18.9886323365
 30
0.0
 10
7.0583936928
 20
18.8358969198
 30
0.0
 10
7.130051032
 20
18.7386111497
 30
0.0
 10
7.2133272076
 20
18.6566021846
 30
0.0
 10
7.2763862743
 20
18.612625978
 30
0.0
 10
7.3091766797
 20
18.5936948552
 30
0.0
  0
SPLINE
  5
2BD
100
AcDbEntity
  8
00_COMPONENTS_1
100
AcDbSpline
 62
7
  6
BYLAYER
 70
0
 71
3
 72
24
 73
20
 74
0
 42
0.0000001
 43
0.0000001
 44
0.0000000001
 40
0.0
 40
0.0
 40
0.0
 40
0.0
 40
0.0611056307
 40
0.1267743287
 40
0.1961173412
 40
0.2681968033
 40
0.3419326868
 40
0.4161887748
 40
0.4898282976
 40
0.5617648335
 40
0.6309955275
 40
0.6966419172
 40
0.7580350078
 40
0.8147582134
 40
0.8667194786
 40
0.9142477611
 40
0.9581823187
 40
0.9792595477
 40
1.0
 40
1.0
 40
1.0
 40
1.0
 10
9.9786981569
 20
47.4586404292
 30
0.0
 10
10.0883435541
 20
47.3865700298
 30
0.0
 10
10.3065581143
 20
47.2226915463
 30
0.0
 10
10.6160623894
 20
46.936246656
 30
0.0
 10
10.9138355382
 20
46.6052011363
 30
0.0
 10
11.1932004631
 20
46.2365911119
 30
0.0
 10
11.447885552
 20
45.837953738
 30
0.0
 10
11.6719288486
 20
45.4175204564
 30
0.0
 10
11.8600930195
 20
44.984033116
 30
0.0
 10
12.0079713476
 20
44.5465266897
 30
0.0
 10
12.1120376435
 20
44.1141324117
 30
0.0
 10
12.1697112559
 20
43.6958698448
 30
0.0
 10
12.1796402122
 20
43.3004605059
 30
0.0
 10
12.1414402905
 20
42.936057543
 30
0.0
 10
12.0554531207
 20
42.6102005158
 30
0.0
 10
11.9231915196
 20
42.3298928797
 30
0.0
 10
11.7734703991
 20
42.1370337537
 30
0.0
 10
11.6347467126
 20
42.0152971805
 30
0.0
 10
11.5598800272
 20
41.965153559
 30
0.0
 10
11.5213122855
 20
41.942883845
 30
0.0
  0
SPLINE
  5
2BE
100
AcDbEntity
  8
00_COMPONENTS_1
100
AcDbSpline
 62
7
  6
BYLAYER
 70
0
 71
3
 72
24
 73
20
 74
0
 42
0.0000001
 43
0.0000001
 44
0.0000000001
 40
0.0
 40
0.0
 40
0.0
 40
0.0
 40
0.0611056307
 40
0.1267743287
 40
0.1961173412
 40
0.2681968033
 40
0.3419326868
 40
0.4161887748
 40
0.4898282976
 40
0.5617648335
 40
0.6309955275
 40
0.6966419172
 40
0.7580350078
 40
0.8147582134
 40
0.8667194786
 40
0.9142477611
 40
0.9581823187
 40
0.9792595477
 40
1.0
 40
1.0
 40
1.0
 40
1.0
 10
9.9786981569
 20
25.4130751667
 30
0.0
 10
10.0883435541
 20
25.3410047673
 30
0.0
 10
10.3065581143
 20
25.1771262839
 30
0.0
 10
10.6160623894
 20
24.8906813935
 30
0.0
 10
10.9138355382
 20
24.5596358738
 30
0.0
 10
11.1932004631
 20
24.1910258494
 30
0.0
 10
11.447885552
 20
23.7923884755
 30
0.0
 10
11.6719288486
 20
23.3719551939
 30
0.0
 10
11.8600930195
 20
22.9384678535
 30
0.0
 10
12.0079713476
 20
22.5009614272
 30
0.0
 10
12.1120376435
 20
22.0685671492
 30
0.0
 10
12.1697112559
 20
21.6503045823
 30
0.0
 10
12.1796402122
 20
21.2548952434
 30
0.0
 10
12.1414402905
 20
20.8904922805
 30
0.0
 10
12.0554531207
 20
20.5646352533
 30
0.0
 10
11.9231915196
 20
20.2843276172
 30
0.0
 10
11.7734703991
 20
20.0914684912
 30
0.0
 10
11.6347467126
 20
19.969731918
 30
0.0
 10
11.5598800272
 20
19.9195882965
 30
0.0
 10
11.5213122855
 20
19.8973185825
 30
0.0
  0
SPLINE
  5
2BF
100
AcDbEntity
  8
00_COMPONENTS_1
100
AcDbSpline
 62
7
  6
BYLAYER
 70
0
 71
3
 72
23
 73
19
 74
0
 42
0.0000001
 43
0.0000001
 44
0.0000000001
 40
0.0
 40
0.0
 40
0.0
 40
0.0
 40
0.0632963787
 40
0.1302105573
 40
0.1999119601
 40
0.2715711477
 40
0.3442313619
 40
0.4169035035
 40
0.4886194455
 40
0.5584701304
 40
0.6256513895
 40
0.6895069954
 40
0.7496010141
 40
0.8057653674
 40
0.8581530838
 40
0.9073109727
 40
0.9541758471
 40
1.0
 40
1.0
 40
1.0
 40
1.0
 10
17.4740612435
 20
43.1312884313
 30
0.0
 10
17.5978553425
 20
43.0685126027
 30
0.0
 10
17.8445631167
 20
42.9232803909
 30
0.0
 10
18.1969979816
 20
42.6613906708
 30
0.0
 10
18.5356705671
 20
42.3539254083
 30
0.0
 10
18.8531026407
 20
42.0073790444
 30
0.0
 10
19.1423529548
 20
41.6287596317
 30
0.0
 10
19.3968147531
 20
41.2257693612
 30
0.0
 10
19.6105934851
 20
40.8066556151
 30
0.0
 10
19.7786646807
 20
40.3800498274
 30
0.0
 10
19.8969386037
 20
39.9547989446
 30
0.0
 10
19.962538678
 20
39.5398037289
 30
0.0
 10
19.9737290102
 20
39.1437586942
 30
0.0
 10
19.9298222877
 20
38.775021164
 30
0.0
 10
19.8314078384
 20
38.4415374822
 30
0.0
 10
19.6800992354
 20
38.150793508
 30
0.0
 10
19.4789544982
 20
37.9102160878
 30
0.0
 10
19.3142743488
 20
37.7873472606
 30
0.0
 10
19.227250554
 20
37.7371033389
 30
0.0
  0
SPLINE
  5
2C0
100
AcDbEntity
  8
00_COMPONENTS_1
100
AcDbSpline
 62
7
  6
BYLAYER
 70
0
 71
3
 72
15
 73
11
 74
0
 42
0.0000001
 43
0.0000001
 44
0.0000000001
 40
0.0
 40
0.0
 40
0.0
 40
0.0
 40
0.1082706326
 40
0.2180587592
 40
0.3314393478
 40
0.4501794483
 40
0.5756748191
 40
0.7089091882
 40
0.8503815272
 40
1.0
 40
1.0
 40
1.0
 40
1.0
 10
11.5213122855
 20
19.8973185825
 30
0.0
 10
11.4701079782
 20
19.8677522862
 30
0.0
 10
11.3614501459
 20
19.8172352142
 30
0.0
 10
11.1855836508
 20
19.7709075016
 30
0.0
 10
10.9987937905
 20
19.7540843488
 30
0.0
 10
10.8032116826
 20
19.7669718589
 30
0.0
 10
10.6008325099
 20
19.8091887995
 30
0.0
 10
10.3936087876
 20
19.880217432
 30
0.0
 10
10.1836777502
 20
19.9792741899
 30
0.0
 10
10.046976697
 20
20.0609296722
 30
0.0
 10
9.9786981569
 20
20.1058094554
 30
0.0
  0
SPLINE
  5
2C1
100
AcDbEntity
  8
00_COMPONENTS_1
100
AcDbSpline
 62
7
  6
BYLAYER
 70
0
 71
3
 72
12
 73
8
 74
0
 42
0.0000001
 43
0.0000001
 44
0.0000000001
 40
0.0
 40
0.0
 40
0.0
 40
0.0
 40
0.2404185841
 40
0.5006372389
 40
0.762483195
 40
0.8860624161
 40
1.0
 40
1.0
 40
1.0
 40
1.0
 10
17.8834479372
 20
26.6808077966
 30
0.0
 10
17.835081991
 20
26.7142719893
 30
0.0
 10
17.7424659603
 20
26.7960878173
 30
0.0
 10
17.6291241015
 20
26.9455224112
 30
0.0
 10
17.5603416635
 20
27.089472605
 30
0.0
 10
17.5297516483
 20
27.2080768363
 30
0.0
 10
17.5239645031
 20
27.266244299
 30
0.0
 10
17.5239645039
 20
27.2941171628
 30
0.0
  0
SPLINE
  5
2C2
100
AcDbEntity
  8
00_COMPONENTS_1
100
AcDbSpline
 62
7
  6
BYLAYER
 70
0
 71
3
 72
14
 73
10
 74
0
 42
0.0000001
 43
0.0000001
 44
0.0000000001
 40
0.0
 40
0.0
 40
0.0
 40
0.0
 40
0.110647726
 40
0.2233852198
 40
0.3395272457
 40
0.4601566604
 40
0.7176541628
 40
0.8558195765
 40
1.0
 40
1.0
 40
1.0
 40
1.0
 10
19.227250554
 20
37.7371033389
 30
0.0
 10
19.1688676049
 20
37.7033954509
 30
0.0
 10
19.0454629593
 20
37.6444759086
 30
0.0
 10
18.8466755992
 20
37.5846620989
 30
0.0
 10
18.6353296628
 20
37.553223527
 30
0.0
 10
18.3334544439
 20
37.5495235983
 30
0.0
 10
18.020620289
 20
37.6059797491
 30
0.0
 10
17.7093585075
 20
37.7130720833
 30
0.0
 10
17.5524091399
 20
37.7842926023
 30
0.0
 10
17.4740612435
 20
37.82402272
 30
0.0
  0
SPLINE
  5
2C3
100
AcDbEntity
  8
00_COMPONENTS_1
100
AcDbSpline
 62
7
  6
BYLAYER
 70
0
 71
3
 72
15
 73
11
 74
0
 42
0.0000001
 43
0.0000001
 44
0.0000000001
 40
0.0
 40
0.0
 40
0.0
 40
0.0
 40
0.1141475829
 40
0.2373370755
 40
0.3669780684
 40
0.5000016032
 40
0.6330249151
 40
0.7626652567
 40
0.8858537231
 40
1.0
 40
1.0
 40
1.0
 40
1.0
 10
8.1677421587
 20
53.8840249757
 30
0.0
 10
8.1677421586
 20
53.9958090477
 30
0.0
 10
8.188231582
 20
54.228447107
 30
0.0
 10
8.2698386721
 20
54.5794019332
 30
0.0
 10
8.400630399
 20
54.9348834473
 30
0.0
 10
8.575620627
 20
55.2815339554
 30
0.0
 10
8.7883317185
 20
55.606405705
 30
0.0
 10
9.0307894874
 20
55.8974150069
 30
0.0
 10
9.2939189973
 20
56.143564916
 30
0.0
 10
9.4851429502
 20
56.2776269732
 30
0.0
 10
9.5819498332
 20
56.3335181196
 30
0.0
  0
SPLINE
  5
2C4
100
AcDbEntity
  8
00_COMPONENTS_1
100
AcDbSpline
 62
7
  6
BYLAYER
 70
0
 71
3
 72
13
 73
9
 74
0
 42
0.0000001
 43
0.0000001
 44
0.0000000001
 40
0.0
 40
0.0
 40
0.0
 40
0.0
 40
0.108093815
 40
0.2182323107
 40
0.3322557274
 40
0.4516837799
 40
0.710621376
 40
1.0
 40
1.0
 40
1.0
 40
1.0
 10
23.572700358
 20
9.2041575012
 30
0.0
 10
23.5399099526
 20
9.223088624
 30
0.0
 10
23.476850886
 20
9.2670648306
 30
0.0
 10
23.3935747104
 20
9.3490737957
 30
0.0
 10
23.3219173712
 20
9.4463595658
 30
0.0
 10
23.2406693181
 20
9.5990949825
 30
0.0
 10
23.1737491591
 20
9.8257157167
 30
0.0
 10
23.158468366
 20
10.0183540969
 30
0.0
 10
23.1584683659
 20
10.119717063
 30
0.0
  0
SPLINE
  5
2C5
100
AcDbEntity
  8
00_COMPONENTS_1
100
AcDbSpline
 62
7
  6
BYLAYER
 70
0
 71
3
 72
13
 73
9
 74
0
 42
0.0000001
 43
0.0000001
 44
0.0000000001
 40
0.0
 40
0.0
 40
0.0
 40
0.0
 40
0.1127515389
 40
0.2340341048
 40
0.4924576888
 40
0.7549430665
 40
0.8810335783
 40
1.0
 40
1.0
 40
1.0
 40
1.0
 10
22.927267743
 20
43.9935597932
 30
0.0
 10
22.8830444225
 20
43.9680275996
 30
0.0
 10
22.7868776332
 20
43.9224223362
 30
0.0
 10
22.5741929302
 20
43.8537384151
 30
0.0
 10
22.2836592734
 20
43.8137625184
 30
0.0
 10
21.9890050982
 20
43.8324592104
 30
0.0
 10
21.7646679591
 20
43.8844048288
 30
0.0
 10
21.6599293918
 20
43.9222234163
 30
0.0
 10
21.6106827516
 20
43.9440808631
 30
0.0
  0
SPLINE
  5
2C6
100
AcDbEntity
  8
00_COMPONENTS_1
100
AcDbSpline
 62
7
  6
BYLAYER
 70
0
 71
3
 72
11
 73
7
 74
0
 42
0.0000001
 43
0.0000001
 44
0.0000000001
 40
0.0
 40
0.0
 40
0.0
 40
0.0
 40
0.2620016939
 40
0.516195136
 40
0.7622630814
 40
1.0
 40
1.0
 40
1.0
 40
1.0
 10
21.6106827516
 20
43.9440808631
 30
0.0
 10
20.2223215608
 20
44.5602859624
 30
0.0
 10
17.5162155077
 20
45.8417574711
 30
0.0
 10
13.6256196302
 20
47.9422086275
 30
0.0
 10
9.9788250967
 20
50.184213852
 30
0.0
 10
7.6801595504
 20
51.7953029331
 30
0.0
 10
6.5780537809
 20
52.6229769032
 30
0.0
  0
SPLINE
  5
2C7
100
AcDbEntity
  8
00_COMPONENTS_1
100
AcDbSpline
 62
7
  6
BYLAYER
 70
0
 71
3
 72
11
 73
7
 74
0
 42
0.0000001
 43
0.0000001
 44
0.0000000001
 40
0.0
 40
0.0
 40
0.0
 40
0.0
 40
0.2815689962
 40
0.538501202
 40
0.7749596569
 40
1.0
 40
1.0
 40
1.0
 40
1.0
 10
6.5780537809
 20
52.6229769032
 30
0.0
 10
6.5463381491
 20
52.646795128
 30
0.0
 10
6.4890534454
 20
52.6972071335
 30
0.0
 10
6.4220021972
 20
52.7843973388
 30
0.0
 10
6.3803887366
 20
52.8778128058
 30
0.0
 10
6.3708679741
 20
52.9431558363
 30
0.0
 10
6.3708835689
 20
52.9748563255
 30
0.0
  0
SPLINE
  5
2C8
100
AcDbEntity
  8
00_COMPONENTS_1
100
AcDbSpline
 62
7
  6
BYLAYER
 70
0
 71
3
 72
15
 73
11
 74
0
 42
0.0000001
 43
0.0000001
 44
0.0000000001
 40
0.0
 40
0.0
 40
0.0
 40
0.0
 40
0.1141475829
 40
0.2373370755
 40
0.3669780684
 40
0.5000016032
 40
0.6330249151
 40
0.7626652567
 40
0.8858537231
 40
1.0
 40
1.0
 40
1.0
 40
1.0
 10
15.6631052453
 20
49.5566729778
 30
0.0
 10
15.6631052452
 20
49.6684570498
 30
0.0
 10
15.6835946685
 20
49.9010951091
 30
0.0
 10
15.7652017587
 20
50.2520499353
 30
0.0
 10
15.8959934856
 20
50.6075314494
 30
0.0
 10
16.0709837135
 20
50.9541819575
 30
0.0
 10
16.2836948051
 20
51.279053707
 30
0.0
 10
16.526152574
 20
51.570063009
 30
0.0
 10
16.7892820838
 20
51.8162129181
 30
0.0
 10
16.9805060367
 20
51.9502749753
 30
0.0
 10
17.0773129197
 20
52.0061661216
 30
0.0
  0
SPLINE
  5
2C9
100
AcDbEntity
  8
00_COMPONENTS_1
100
AcDbSpline
 62
7
  6
BYLAYER
 70
0
 71
3
 72
12
 73
8
 74
0
 42
0.0000001
 43
0.0000001
 44
0.0000000001
 40
0.0
 40
0.0
 40
0.0
 40
0.0
 40
0.1102602185
 40
0.222249423
 40
0.4569787615
 40
0.7145317047
 40
1.0
 40
1.0
 40
1.0
 40
1.0
 10
8.5819741849
 20
17.858861497
 30
0.0
 10
8.5521855857
 20
17.8760595653
 30
0.0
 10
8.4947344839
 20
17.9154629866
 30
0.0
 10
8.3905164176
 20
18.0134186602
 30
0.0
 10
8.2836460312
 20
18.1718737387
 30
0.0
 10
8.2012895128
 20
18.4020999196
 30
0.0
 10
8.1771164818
 20
18.5708695739
 30
0.0
 10
8.1713785507
 20
18.6597390637
 30
0.0
  0
SPLINE
  5
2CA
100
AcDbEntity
  8
00_COMPONENTS_1
100
AcDbSpline
 62
7
  6
BYLAYER
 70
0
 71
3
 72
11
 73
7
 74
0
 42
0.0000001
 43
0.0000001
 44
0.0000000001
 40
0.0
 40
0.0
 40
0.0
 40
0.0
 40
0.2350433118
 40
0.4765621389
 40
0.7301202547
 40
1.0
 40
1.0
 40
1.0
 40
1.0
 10
16.0773372715
 20
13.5315094991
 30
0.0
 10
16.037506312
 20
13.5545053961
 30
0.0
 10
15.9613946315
 20
13.6097276865
 30
0.0
 10
15.8645127146
 20
13.7159109253
 30
0.0
 10
15.7853937572
 20
13.843871149
 30
0.0
 10
15.7465212779
 20
13.9391488063
 30
0.0
 10
15.730025293
 20
13.9893155328
 30
0.0
  0
SPLINE
  5
2CB
100
AcDbEntity
  8
00_COMPONENTS_1
100
AcDbSpline
 62
7
  6
BYLAYER
 70
0
 71
3
 72
14
 73
10
 74
0
 42
0.0000001
 43
0.0000001
 44
0.0000000001
 40
0.0
 40
0.0
 40
0.0
 40
0.0
 40
0.1152021569
 40
0.2406139366
 40
0.3721946141
 40
0.5057633883
 40
0.7650027948
 40
0.8863382397
 40
1.0
 40
1.0
 40
1.0
 40
1.0
 10
17.1704125852
 20
27.0899950981
 30
0.0
 10
17.1704125845
 20
27.0598389989
 30
0.0
 10
17.1771924896
 20
26.9967887236
 30
0.0
 10
17.2031820944
 20
26.902570672
 30
0.0
 10
17.2435464257
 20
26.808311815
 30
0.0
 10
17.3123933579
 20
26.6893171093
 30
0.0
 10
17.3985334512
 20
26.5841867346
 30
0.0
 10
17.4962771295
 20
26.4991617574
 30
0.0
 10
17.5471724681
 20
26.4642185827
 30
0.0
 10
17.5729397805
 20
26.4493431279
 30
0.0
  0
SPLINE
  5
2CC
100
AcDbEntity
  8
00_COMPONENTS_1
100
AcDbSpline
 62
7
  6
BYLAYER
 70
0
 71
3
 72
14
 73
10
 74
0
 42
0.0000001
 43
0.0000001
 44
0.0000000001
 40
0.0
 40
0.0
 40
0.0
 40
0.0
 40
0.110647726
 40
0.2233852198
 40
0.3395272457
 40
0.4601566604
 40
0.7176541628
 40
0.8558195765
 40
1.0
 40
1.0
 40
1.0
 40
1.0
 10
19.227250554
 20
15.6915380764
 30
0.0
 10
19.1688676049
 20
15.6578301884
 30
0.0
 10
19.0454629593
 20
15.5989106461
 30
0.0
 10
18.8466755992
 20
15.5390968364
 30
0.0
 10
18.6353296628
 20
15.5076582645
 30
0.0
 10
18.3334544439
 20
15.5039583358
 30
0.0
 10
18.020620289
 20
15.5604144866
 30
0.0
 10
17.7093585075
 20
15.6675068208
 30
0.0
 10
17.5524091399
 20
15.7387273398
 30
0.0
 10
17.4740612435
 20
15.7784574575
 30
0.0
  0
SPLINE
  5
2CD
100
AcDbEntity
  8
00_COMPONENTS_1
100
AcDbSpline
 62
7
  6
BYLAYER
 70
0
 71
3
 72
24
 73
20
 74
0
 42
0.0000001
 43
0.0000001
 44
0.0000000001
 40
0.0
 40
0.0
 40
0.0
 40
0.0
 40
0.0635622789
 40
0.1305879476
 40
0.2003879535
 40
0.2722423838
 40
0.3452642606
 40
0.4184889169
 40
0.4909271185
 40
0.5616073758
 40
0.6296257502
 40
0.6941986725
 40
0.7547407649
 40
0.8109297078
 40
0.8627981259
 40
0.910838262
 40
0.9560520419
 40
0.9780878093
 40
1.0
 40
1.0
 40
1.0
 40
1.0
 10
17.4740612435
 20
15.7784574575
 30
0.0
 10
17.3506808725
 20
15.8410234851
 30
0.0
 10
17.1057118322
 20
15.9868393865
 30
0.0
 10
16.7586947785
 20
16.2523676824
 30
0.0
 10
16.4286453554
 20
16.5655322642
 30
0.0
 10
16.1224466955
 20
16.9193635303
 30
0.0
 10
15.8460915684
 20
17.3061119458
 30
0.0
 10
15.6051263455
 20
17.7172975235
 30
0.0
 10
15.4043098887
 20
18.1438934253
 30
0.0
 10
15.2474772397
 20
18.5765476156
 30
0.0
 10
15.1376639281
 20
19.0058820718
 30
0.0
 10
15.0769702635
 20
19.4226920574
 30
0.0
 10
15.0665816886
 20
19.8181968633
 30
0.0
 10
15.1069692762
 20
20.1842339081
 30
0.0
 10
15.1979815644
 20
20.5133278194
 30
0.0
 10
15.3386413633
 20
20.7984965607
 30
0.0
 10
15.4977644265
 20
20.9957373464
 30
0.0
 10
15.6454235791
 20
21.1222724012
 30
0.0
 10
15.7254086564
 20
21.1752604888
 30
0.0
 10
15.7667091631
 20
21.1991055798
 30
0.0
  0
SPLINE
  5
2CE
100
AcDbEntity
  8
00_COMPONENTS_1
100
AcDbSpline
 62
7
  6
BYLAYER
 70
0
 71
3
 72
11
 73
7
 74
0
 42
0.0000001
 43
0.0000001
 44
0.0000000001
 40
0.0
 40
0.0
 40
0.0
 40
0.0
 40
0.2187037191
 40
0.4513079598
 40
0.7096470622
 40
1.0
 40
1.0
 40
1.0
 40
1.0
 10
17.2702263243
 20
32.6087992586
 30
0.0
 10
17.2547863544
 20
32.5998850399
 30
0.0
 10
17.2256219211
 20
32.5763126407
 30
0.0
 10
17.1935679608
 20
32.5271809375
 30
0.0
 10
17.1741984955
 20
32.4658384601
 30
0.0
 10
17.1704127234
 20
32.4209301794
 30
0.0
 10
17.1704127228
 20
32.3972608889
 30
0.0
  0
SPLINE
  5
2CF
100
AcDbEntity
  8
00_COMPONENTS_1
100
AcDbSpline
 62
7
  6
BYLAYER
 70
0
 71
3
 72
24
 73
20
 74
0
 42
0.0000001
 43
0.0000001
 44
0.0000000001
 40
0.0
 40
0.0
 40
0.0
 40
0.0
 40
0.0614011958
 40
0.1271850477
 40
0.1966054327
 40
0.268852902
 40
0.3429290674
 40
0.417737485
 40
0.4921344452
 40
0.5649652016
 40
0.6351174599
 40
0.7015782095
 40
0.7635061
 40
0.8203091831
 40
0.8717623033
 40
0.9181327422
 40
0.9603110616
 40
0.9803506039
 40
1.0
 40
1.0
 40
1.0
 40
1.0
 10
9.9786981569
 20
42.1513747179
 30
0.0
 10
9.8692385052
 20
42.2233230261
 30
0.0
 10
9.6525674526
 20
42.3879812253
 30
0.0
 10
9.3486681029
 20
42.6780765321
 30
0.0
 10
9.0600029254
 20
43.0144224226
 30
0.0
 10
8.792410288
 20
43.3895796523
 30
0.0
 10
8.551025638
 20
43.795493075
 30
0.0
 10
8.3406181967
 20
44.2233810552
 30
0.0
 10
8.1652874975
 20
44.6639347348
 30
0.0
 10
8.0282923281
 20
45.1075069688
 30
0.0
 10
7.9322617924
 20
45.5444479248
 30
0.0
 10
7.8791590447
 20
45.9653101302
 30
0.0
 10
7.8698831805
 20
46.3610648157
 30
0.0
 10
7.9046885719
 20
46.7234763215
 30
0.0
 10
7.9834663953
 20
47.0452536236
 30
0.0
 10
8.1053069351
 20
47.3199685772
 30
0.0
 10
8.2449558255
 20
47.5079834584
 30
0.0
 10
8.3751902374
 20
47.62504419
 30
0.0
 10
8.4456172784
 20
47.6726381972
 30
0.0
 10
8.4819195694
 20
47.6935977178
 30
0.0
  0
SPLINE
  5
2D0
100
AcDbEntity
  8
00_COMPONENTS_1
100
AcDbSpline
 62
7
  6
BYLAYER
 70
0
 71
3
 72
15
 73
11
 74
0
 42
0.0000001
 43
0.0000001
 44
0.0000000001
 40
0.0
 40
0.0
 40
0.0
 40
0.0
 40
0.1082706326
 40
0.2180587592
 40
0.3314393478
 40
0.4501794483
 40
0.5756748191
 40
0.7089091882
 40
0.8503815272
 40
1.0
 40
1.0
 40
1.0
 40
1.0
 10
11.5213122855
 20
41.942883845
 30
0.0
 10
11.4701079782
 20
41.9133175487
 30
0.0
 10
11.3614501459
 20
41.8628004766
 30
0.0
 10
11.1855836508
 20
41.8164727641
 30
0.0
 10
10.9987937905
 20
41.7996496113
 30
0.0
 10
10.8032116826
 20
41.8125371214
 30
0.0
 10
10.6008325099
 20
41.854754062
 30
0.0
 10
10.3936087876
 20
41.9257826945
 30
0.0
 10
10.1836777502
 20
42.0248394524
 30
0.0
 10
10.046976697
 20
42.1064949347
 30
0.0
 10
9.9786981569
 20
42.1513747179
 30
0.0
  0
SPLINE
  5
2D1
100
AcDbEntity
  8
00_COMPONENTS_1
100
AcDbSpline
 62
7
  6
BYLAYER
 70
0
 71
3
 72
11
 73
7
 74
0
 42
0.0000001
 43
0.0000001
 44
0.0000000001
 40
0.0
 40
0.0
 40
0.0
 40
0.0
 40
0.2750108132
 40
0.5271235923
 40
0.7656883135
 40
1.0
 40
1.0
 40
1.0
 40
1.0
 10
36.0837306222
 20
59.7456875226
 30
0.0
 10
36.1380240565
 20
59.7227068602
 30
0.0
 10
36.2471893705
 20
59.6892252372
 30
0.0
 10
36.412834978
 20
59.6805137436
 30
0.0
 10
36.566590136
 20
59.7121666537
 30
0.0
 10
36.6593567866
 20
59.7550478032
 30
0.0
 10
36.7028600832
 20
59.7801610934
 30
0.0
  0
SPLINE
  5
2D2
100
AcDbEntity
  8
00_COMPONENTS_1
100
AcDbSpline
 62
7
  6
BYLAYER
 70
0
 71
3
 72
24
 73
20
 74
0
 42
0.0000001
 43
0.0000001
 44
0.0000000001
 40
0.0
 40
0.0
 40
0.0
 40
0.0
 40
0.0635622789
 40
0.1305879476
 40
0.2003879535
 40
0.2722423838
 40
0.3452642606
 40
0.4184889169
 40
0.4909271185
 40
0.5616073758
 40
0.6296257502
 40
0.6941986725
 40
0.7547407649
 40
0.8109297078
 40
0.8627981259
 40
0.910838262
 40
0.9560520419
 40
0.9780878093
 40
1.0
 40
1.0
 40
1.0
 40
1.0
 10
17.4740612435
 20
37.82402272
 30
0.0
 10
17.3506808725
 20
37.8865887476
 30
0.0
 10
17.1057118322
 20
38.032404649
 30
0.0
 10
16.7586947785
 20
38.2979329449
 30
0.0
 10
16.4286453554
 20
38.6110975267
 30
0.0
 10
16.1224466955
 20
38.9649287928
 30
0.0
 10
15.8460915684
 20
39.3516772083
 30
0.0
 10
15.6051263455
 20
39.7628627859
 30
0.0
 10
15.4043098887
 20
40.1894586878
 30
0.0
 10
15.2474772397
 20
40.6221128781
 30
0.0
 10
15.1376639281
 20
41.0514473343
 30
0.0
 10
15.0769702635
 20
41.4682573199
 30
0.0
 10
15.0665816886
 20
41.8637621258
 30
0.0
 10
15.1069692762
 20
42.2297991706
 30
0.0
 10
15.1979815644
 20
42.5588930819
 30
0.0
 10
15.3386413633
 20
42.8440618232
 30
0.0
 10
15.4977644265
 20
43.0413026089
 30
0.0
 10
15.6454235791
 20
43.1678376636
 30
0.0
 10
15.7254086564
 20
43.2208257513
 30
0.0
 10
15.7667091631
 20
43.2446708423
 30
0.0
  0
SPLINE
  5
2D3
100
AcDbEntity
  8
00_COMPONENTS_1
100
AcDbSpline
 62
7
  6
BYLAYER
 70
0
 71
3
 72
11
 73
7
 74
0
 42
0.0000001
 43
0.0000001
 44
0.0000000001
 40
0.0
 40
0.0
 40
0.0
 40
0.0
 40
0.2560199319
 40
0.5127856749
 40
0.7650282399
 40
1.0
 40
1.0
 40
1.0
 40
1.0
 10
38.1057937046
 20
59.4550200955
 30
0.0
 10
38.1555037476
 20
59.3260150785
 30
0.0
 10
38.2551162048
 20
59.0676184217
 30
0.0
 10
38.4329155909
 20
58.6937520885
 30
0.0
 10
38.6550666062
 20
58.357181319
 30
0.0
 10
38.8431606032
 20
58.1685123892
 30
0.0
 10
38.9454504035
 20
58.0934349046
 30
0.0
  0
SPLINE
  5
2D4
100
AcDbEntity
  8
00_COMPONENTS_1
100
AcDbSpline
 62
7
  6
BYLAYER
 70
0
 71
3
 72
15
 73
11
 74
0
 42
0.0000001
 43
0.0000001
 44
0.0000000001
 40
0.0
 40
0.0
 40
0.0
 40
0.0
 40
0.1141475829
 40
0.2373370755
 40
0.3669780684
 40
0.5000016032
 40
0.6330249151
 40
0.7626652567
 40
0.8858537231
 40
1.0
 40
1.0
 40
1.0
 40
1.0
 10
23.1584683318
 20
45.2293209799
 30
0.0
 10
23.1584683317
 20
45.3411050519
 30
0.0
 10
23.1789577551
 20
45.5737431112
 30
0.0
 10
23.2605648452
 20
45.9246979374
 30
0.0
 10
23.3913565721
 20
46.2801794515
 30
0.0
 10
23.5663468001
 20
46.6268299596
 30
0.0
 10
23.7790578916
 20
46.9517017091
 30
0.0
 10
24.0215156605
 20
47.242711011
 30
0.0
 10
24.2846451704
 20
47.4888609202
 30
0.0
 10
24.4758691233
 20
47.6229229774
 30
0.0
 10
24.5726760063
 20
47.6788141237
 30
0.0
  0
SPLINE
  5
2D5
100
AcDbEntity
  8
00_COMPONENTS_1
100
AcDbSpline
 62
7
  6
BYLAYER
 70
0
 71
3
 72
15
 73
11
 74
0
 42
0.0000001
 43
0.0000001
 44
0.0000000001
 40
0.0
 40
0.0
 40
0.0
 40
0.0
 40
0.1141050089
 40
0.2373182332
 40
0.3669398673
 40
0.4999696335
 40
0.6330036239
 40
0.7626375866
 40
0.8858702801
 40
1.0
 40
1.0
 40
1.0
 40
1.0
 10
44.7707569502
 20
35.4570400346
 30
0.0
 10
44.7223613325
 20
35.4291255523
 30
0.0
 10
44.6164897591
 20
35.379902324
 30
0.0
 10
44.4441309681
 20
35.3275547842
 30
0.0
 10
44.2574938348
 20
35.2953944126
 30
0.0
 10
44.0636484697
 20
35.2845537373
 30
0.0
 10
43.869803059
 20
35.2955005986
 30
0.0
 10
43.6831658063
 20
35.3277631974
 30
0.0
 10
43.510806992
 20
35.3802051167
 30
0.0
 10
43.4049382626
 20
35.4294848323
 30
0.0
 10
43.3565434678
 20
35.457424948
 30
0.0
  0
SPLINE
  5
2D6
100
AcDbEntity
  8
00_COMPONENTS_1
100
AcDbSpline
 62
7
  6
BYLAYER
 70
0
 71
3
 72
24
 73
20
 74
0
 42
0.0000001
 43
0.0000001
 44
0.0000000001
 40
0.0
 40
0.0
 40
0.0
 40
0.0
 40
0.0614011958
 40
0.1271850477
 40
0.1966054327
 40
0.268852902
 40
0.3429290674
 40
0.417737485
 40
0.4921344452
 40
0.5649652016
 40
0.6351174599
 40
0.7015782095
 40
0.7635061
 40
0.8203091831
 40
0.8717623033
 40
0.9181327422
 40
0.9603110616
 40
0.9803506039
 40
1.0
 40
1.0
 40
1.0
 40
1.0
 10
9.9786981569
 20
20.1058094554
 30
0.0
 10
9.8692385052
 20
20.1777577636
 30
0.0
 10
9.6525674526
 20
20.3424159628
 30
0.0
 10
9.3486681029
 20
20.6325112696
 30
0.0
 10
9.0600029254
 20
20.9688571601
 30
0.0
 10
8.792410288
 20
21.3440143898
 30
0.0
 10
8.551025638
 20
21.7499278125
 30
0.0
 10
8.3406181967
 20
22.1778157927
 30
0.0
 10
8.1652874975
 20
22.6183694723
 30
0.0
 10
8.0282923281
 20
23.0619417063
 30
0.0
 10
7.9322617924
 20
23.4988826623
 30
0.0
 10
7.8791590447
 20
23.9197448677
 30
0.0
 10
7.8698831805
 20
24.3154995532
 30
0.0
 10
7.9046885719
 20
24.677911059
 30
0.0
 10
7.9834663953
 20
24.9996883611
 30
0.0
 10
8.1053069351
 20
25.2744033147
 30
0.0
 10
8.2449558255
 20
25.4624181959
 30
0.0
 10
8.3751902374
 20
25.5794789275
 30
0.0
 10
8.4456172784
 20
25.6270729347
 30
0.0
 10
8.4819195694
 20
25.6480324553
 30
0.0
  0
ENDSEC
  0
SECTION
  2
OBJECTS
  0
DICTIONARY
  5
C
100
AcDbDictionary
280
0
281
1
  3
ACAD_GROUP
350
D
  3
ACAD_MLINESTYLE
350
17
  3
ACAD_LAYOUT
350
1A
  3
ACAD_PLOTSETTINGS
350
19
  3
ACAD_PLOTSTYLENAME
350
E
  0
DICTIONARY
  5
D
102
{ACAD_REACTORS
330
C
102
}
100
AcDbDictionary
280
0
281
1
  0
ACDBDICTIONARYWDFLT
  5
E
102
{ACAD_REACTORS
330
C
102
}
100
AcDbDictionary
281
1
  3
Normal
350
F
100
AcDbDictionaryWithDefault
340
F
  0
DICTIONARY
  5
17
102
{ACAD_REACTORS
330
C
102
}
100
AcDbDictionary
280
0
281
1
  3
Standard
350
18
  0
DICTIONARY
  5
19
102
{ACAD_REACTORS
330
C
102
}
100
AcDbDictionary
281
1
  0
DICTIONARY
  5
1A
102
{ACAD_REACTORS
330
C
102
}
100
AcDbDictionary
281
1
  3
Model
350
2D7
  3
Layout1
350
2D8
  0
ACDBPLACEHOLDER
  5
F
102
{ACAD_REACTORS
330
E
102
}
  0
MLINESTYLE
  5
18
102
{ACAD_REACTORS
330
17
102
}
100
AcDbMlineStyle
  2
STANDARD
 70
0
  3

 62
256
 51
90.0
 52
90.0
 71
2
 49
0.5
 62
256
  6
BYLAYER
 49
-0.5
 62
256
  6
BYLAYER
  0
LAYOUT
  5
2D7
102
{ACAD_REACTORS
330
1A
102
}
100
AcDbPlotSettings
  1

  2
none_device
  4

  6

 40
0.0
 41
0.0
 42
0.0
 43
0.0
 44
210.0
 45
297.0
 46
0.0
 47
0.0
 48
0.0
 49
0.0
140
0.0
141
0.0
142
1.0
143
1.0
 70
1024
 72
1
 73
0
 74
0
  7

 75
0
147
1.0
148
0.0
149
0.0
100
AcDbLayout
  1
Model
 70
0
 71
0
 10
0.0
 20
0.0
 11
210.0
 21
297.0
 12
0.0
 22
0.0
 32
0.0
 14
0.0
 24
0.0
 34
0.0
 15
0.0
 25
0.0
 35
0.0
146
0.0
 13
0.0
 23
0.0
 33
0.0
 16
1.0
 26
0.0
 36
0.0
 17
0.0
 27
1.0
 37
0.0
 76
0
330
216
345
0
346
0
  0
LAYOUT
  5
2D8
102
{ACAD_REACTORS
330
1A
102
}
100
AcDbPlotSettings
  1

  2
none_device
  4

  6

 40
0.0
 41
0.0
 42
0.0
 43
0.0
 44
210.0
 45
297.0
 46
0.0
 47
0.0
 48
0.0
 49
0.0
140
0.0
141
0.0
142
1.0
143
1.0
 70
0
 72
1
 73
0
 74
0
  7

 75
0
147
1.0
148
0.0
149
0.0
100
AcDbLayout
  1
Layout1
 70
0
 71
1
 10
0.0
 20
0.0
 11
210.0
 21
297.0
 12
0.0
 22
0.0
 32
0.0
 14
0.0
 24
0.0
 34
0.0
 15
0.0
 25
0.0
 35
0.0
146
0.0
 13
0.0
 23
0.0
 33
0.0
 16
1.0
 26
0.0
 36
0.0
 17
0.0
 27
1.0
 37
0.0
 76
0
330
217
345
0
346
0
  0
ENDSEC
  0
EOF
