999
DXF file: C:\Users\sesa63760\Dev\_Creo\CAD\MCADID0000943_3D-CAD\drw0001_5.dxf
999
Pro/ENGINEER 2019471 by Parametric Technology Corporation
  0
SECTION
  2
HEADER
  9
$ACADVER
  1
AC1024
  9
$DWGCODEPAGE
  3
ANSI_1252
  9
$EXTMAX
 10
231.9516956053
 20
328.0459694989
 30
0.0
  9
$EXTMIN
 10
0.0
 20
0.0
 30
0.0
  9
$LIMMIN
 10
0.0
 20
0.0
  9
$LIMMAX
 10
231.9516956053
 20
328.0459694989
  9
$VIEWCTR
 10
115.9758478026
 20
164.0229847495
  9
$VIEWSIZE
 40
328.0459694989
  9
$CLAYER
  8
0
  9
$LTSCALE
 40
21.383737271
  9
$CELTYPE
  6
BYLAYER
  9
$DIMSCALE
 40
1.0
  9
$DIMASZ
 40
2.7613297096
  9
$DIMEXO
 40
1.0
  9
$DIMDLI
 40
14.7742184782
  9
$DIMEXE
 40
1.0
  9
$DIMCEN
 40
3.499157008
  9
$DIMLFAC
 40
1.0
  9
$DIMBLK
  1
_FILLED
  9
$DIMALT
 70
0
  9
$DIMALTF
 40
0.0393700787
  9
$DIMTXT
 40
3.8658615934
  9
$DIMTOL
 70
1
  9
$DIMLIM
 70
0
  9
$DIMTFAC
 40
1.0
  9
$DIMTP
 40
0.01
  9
$DIMTM
 40
0.01
  9
$DIMGAP
 40
0.625
  9
$DIMDSEP
 70
46
  9
$AUNITS
 70
0
  9
$PDMODE
 70
3
  9
$PDSIZE
 40
0.3125
  9
$HANDSEED
  5
312
  9
$TILEMODE
 70
1
  9
$MEASUREMENT
 70
1
  9
$INSUNITS
 70
4
  0
ENDSEC
  0
SECTION
  2
CLASSES
  0
CLASS
  1
ACDBDICTIONARYWDFLT
  2
AcDbDictionaryWithDefault
  3
AutoCAD 2000
 90
0
 91
1
280
0
281
0
  0
CLASS
  1
ACDBPLACEHOLDER
  2
AcDbPlaceHolder
  3
AutoCAD 2000
 90
0
 91
1
280
0
281
0
  0
CLASS
  1
LAYOUT
  2
AcDbLayout
  3
AutoCAD 2000
 90
0
 91
0
280
0
281
0
  0
ENDSEC
  0
SECTION
  2
TABLES
  0
TABLE
  2
VPORT
  5
8
100
AcDbSymbolTable
 70
2
  0
VPORT
  5
1F4
100
AcDbSymbolTableRecord
100
AcDbViewportTableRecord
  2
*ACTIVE
 70
0
 10
0.0
 20
0.0
 11
1.0
 21
1.0
 12
115.9758478026
 22
164.0229847495
 13
0.0
 23
0.0
 14
1.0
 24
1.0
 15
0.0
 25
0.0
 16
0.0
 26
0.0
 36
1.0
 17
0.0
 27
0.0
 37
0.0
 40
328.0459694989
 41
0.7070707071
 42
50.0
 43
0.0
 44
0.0
 50
0.0
 51
0.0
 71
0
 72
100
 73
1
 74
1
 75
0
 76
0
 77
0
 78
0
  0
ENDTAB
  0
TABLE
  2
LTYPE
  5
5
100
AcDbSymbolTable
 70
6
  0
LTYPE
  5
14
100
AcDbSymbolTableRecord
100
AcDbLinetypeTableRecord
  2
BYBLOCK
 70
0
  3

 72
65
 73
0
 40
0.0
  0
LTYPE
  5
15
100
AcDbSymbolTableRecord
100
AcDbLinetypeTableRecord
  2
BYLAYER
 70
0
  3

 72
65
 73
0
 40
0.0
  0
LTYPE
  5
16
100
AcDbSymbolTableRecord
100
AcDbLinetypeTableRecord
  2
CONTINUOUS
 70
64
  3
Solid line
 72
65
 73
0
 40
0.0
  0
LTYPE
  5
1F5
100
AcDbSymbolTableRecord
100
AcDbLinetypeTableRecord
  2
CENTER
 70
64
  3
____ _ ____ _ ____ _ ____ _ ____ _ ____ _ ____
 72
65
 73
4
 40
0.6
 49
0.375
 74
0
 49
-0.075
 74
0
 49
0.075
 74
0
 49
-0.075
 74
0
  0
LTYPE
  5
1F6
100
AcDbSymbolTableRecord
100
AcDbLinetypeTableRecord
  2
HIDDEN
 70
64
  3
- - - - - - - - - - - - - - - - - - - -
 72
65
 73
2
 40
0.2
 49
0.1
 74
0
 49
-0.1
 74
0
  0
LTYPE
  5
1F7
100
AcDbSymbolTableRecord
100
AcDbLinetypeTableRecord
  2
PHANTOM
 70
64
  3
_____ _ _ _____ _ _ _____ _ _ _____
 72
65
 73
6
 40
0.8
 49
0.45
 74
0
 49
-0.05
 74
0
 49
0.1
 74
0
 49
-0.05
 74
0
 49
0.1
 74
0
 49
-0.05
 74
0
  0
LTYPE
  5
1F8
100
AcDbSymbolTableRecord
100
AcDbLinetypeTableRecord
  2
DOT
 70
64
  3
. . . . . . . . . . . . . . . . . . . .
 72
65
 73
2
 40
0.2
 49
0.1
 74
0
 49
-0.1
 74
0
  0
LTYPE
  5
1F9
100
AcDbSymbolTableRecord
100
AcDbLinetypeTableRecord
  2
DASHED
 70
64
  3
- - - - - - - - - - - - - - - - - - - -
 72
65
 73
2
 40
0.2
 49
0.1
 74
0
 49
-0.1
 74
0
  0
ENDTAB
  0
TABLE
  2
LAYER
  5
2
100
AcDbSymbolTable
 70
36
  0
LAYER
  5
10
100
AcDbSymbolTableRecord
100
AcDbLayerTableRecord
  2
0
 70
0
 62
7
  6
CONTINUOUS
370
-3
390
F
  0
LAYER
  5
1FA
100
AcDbSymbolTableRecord
100
AcDbLayerTableRecord
  2
DEFAULT_1
 70
0
 62
7
  6
CENTER
370
-3
390
F
  0
LAYER
  5
1FB
100
AcDbSymbolTableRecord
100
AcDbLayerTableRecord
  2
DEFAULT_2
 70
0
 62
8
  6
HIDDEN
370
-3
390
F
  0
LAYER
  5
1FC
100
AcDbSymbolTableRecord
100
AcDbLayerTableRecord
  2
DEFAULT_3
 70
0
 62
7
  6
PHANTOM
370
-3
390
F
  0
LAYER
  5
1FD
100
AcDbSymbolTableRecord
100
AcDbLayerTableRecord
  2
00_COMPONENTS
 70
0
 62
7
  6
CONTINUOUS
370
-3
390
F
  0
LAYER
  5
1FE
100
AcDbSymbolTableRecord
100
AcDbLayerTableRecord
  2
01_1_DEFAULT_DATUMS
 70
0
 62
7
  6
CONTINUOUS
370
-3
390
F
  0
LAYER
  5
1FF
100
AcDbSymbolTableRecord
100
AcDbLayerTableRecord
  2
01_PLANES
 70
0
 62
7
  6
CONTINUOUS
370
-3
390
F
  0
LAYER
  5
200
100
AcDbSymbolTableRecord
100
AcDbLayerTableRecord
  2
02_COORD_SYS
 70
0
 62
7
  6
CONTINUOUS
370
-3
390
F
  0
LAYER
  5
201
100
AcDbSymbolTableRecord
100
AcDbLayerTableRecord
  2
03_AXES
 70
0
 62
7
  6
CONTINUOUS
370
-3
390
F
  0
LAYER
  5
202
100
AcDbSymbolTableRecord
100
AcDbLayerTableRecord
  2
04_POINTS
 70
0
 62
7
  6
CONTINUOUS
370
-3
390
F
  0
LAYER
  5
203
100
AcDbSymbolTableRecord
100
AcDbLayerTableRecord
  2
05_CURVES
 70
0
 62
7
  6
CONTINUOUS
370
-3
390
F
  0
LAYER
  5
204
100
AcDbSymbolTableRecord
100
AcDbLayerTableRecord
  2
06_SURFS
 70
0
 62
7
  6
CONTINUOUS
370
-3
390
F
  0
LAYER
  5
205
100
AcDbSymbolTableRecord
100
AcDbLayerTableRecord
  2
07_COSMETICS
 70
0
 62
7
  6
CONTINUOUS
370
-3
390
F
  0
LAYER
  5
206
100
AcDbSymbolTableRecord
100
AcDbLayerTableRecord
  2
10_NOTES
 70
0
 62
7
  6
CONTINUOUS
370
-3
390
F
  0
LAYER
  5
207
100
AcDbSymbolTableRecord
100
AcDbLayerTableRecord
  2
11_NOTES_PUB
 70
0
 62
7
  6
CONTINUOUS
370
-3
390
F
  0
LAYER
  5
208
100
AcDbSymbolTableRecord
100
AcDbLayerTableRecord
  2
13_REF_GTOL
 70
0
 62
7
  6
CONTINUOUS
370
-3
390
F
  0
LAYER
  5
209
100
AcDbSymbolTableRecord
100
AcDbLayerTableRecord
  2
16_MISC
 70
0
 62
7
  6
CONTINUOUS
370
-3
390
F
  0
LAYER
  5
20A
100
AcDbSymbolTableRecord
100
AcDbLayerTableRecord
  2
17_NO_PRINT
 70
0
 62
7
  6
CONTINUOUS
370
-3
390
F
  0
LAYER
  5
20B
100
AcDbSymbolTableRecord
100
AcDbLayerTableRecord
  2
18_DATUM_CAMS_JOINTS
 70
0
 62
7
  6
CONTINUOUS
370
-3
390
F
  0
LAYER
  5
20C
100
AcDbSymbolTableRecord
100
AcDbLayerTableRecord
  2
19_DATUM_FUNCTIONAL
 70
0
 62
7
  6
CONTINUOUS
370
-3
390
F
  0
LAYER
  5
20D
100
AcDbSymbolTableRecord
100
AcDbLayerTableRecord
  2
20_DATUM_KINEMATIC_SCHEME
 70
0
 62
7
  6
CONTINUOUS
370
-3
390
F
  0
ENDTAB
  0
TABLE
  2
STYLE
  5
3
100
AcDbSymbolTable
 70
1
  0
STYLE
  5
11
100
AcDbSymbolTableRecord
100
AcDbTextStyleTableRecord
  2
STANDARD
 70
0
 40
0.0
 41
0.8
 50
0.0
 71
0
 42
0.2
  3
txt
  4

  0
STYLE
  5
20E
100
AcDbSymbolTableRecord
100
AcDbTextStyleTableRecord
  2
TEXTSTYLE_1
 70
0
 40
0.0
 41
0.8
 50
0.0
 71
0
 42
0.2
  3
gdt
  4

  0
ENDTAB
  0
TABLE
  2
VIEW
  5
6
100
AcDbSymbolTable
 70
0
  0
ENDTAB
  0
TABLE
  2
UCS
  5
7
100
AcDbSymbolTable
 70
0
  0
ENDTAB
  0
TABLE
  2
APPID
  5
9
100
AcDbSymbolTable
 70
1
  0
APPID
  5
20F
100
AcDbSymbolTableRecord
100
AcDbRegAppTableRecord
  2
ACAD
 70
0
  0
ENDTAB
  0
TABLE
  2
BLOCK_RECORD
  5
1
100
AcDbSymbolTable
 70
0
  0
BLOCK_RECORD
  5
210
100
AcDbSymbolTableRecord
100
AcDbBlockTableRecord
  2
*Model_Space
  0
BLOCK_RECORD
  5
211
100
AcDbSymbolTableRecord
100
AcDbBlockTableRecord
  2
*Paper_Space
  0
BLOCK_RECORD
  5
212
100
AcDbSymbolTableRecord
100
AcDbBlockTableRecord
  2
_FILLED
  0
ENDTAB
  0
TABLE
  2
DIMSTYLE
  5
A
100
AcDbSymbolTable
 70
1
100
AcDbDimStyleTable
 71
0
  0
DIMSTYLE
105
213
100
AcDbSymbolTableRecord
100
AcDbDimStyleTableRecord
  2
STANDARD
 70
0
  3

  4

 40
1.0
 41
2.7613297096
 42
1.0
 43
0.38
 44
1.0
 45
0.0
 46
0.0
 47
0.01
 48
0.01
140
3.8658615934
141
0.09
142
0.0
143
25.4
144
1.0
145
0.0
146
1.0
147
0.625
 71
1
 72
0
 73
0
 74
0
 75
0
 76
0
 77
1
 78
8
 79
2
170
0
171
1
172
0
173
0
174
0
175
0
176
0
177
0
178
0
270
2
179
2
271
2
272
2
273
2
274
2
275
0
280
0
281
0
282
0
283
1
284
8
285
0
286
0
287
3
288
0
340
11
278
46
341
212
342
212
343
212
344
212
  0
ENDTAB
  0
ENDSEC
  0
SECTION
  2
BLOCKS
  0
BLOCK
  5
20
100
AcDbEntity
  8
0
100
AcDbBlockBegin
  2
*Model_Space
 70
0
 10
0.0
 20
0.0
 30
0.0
  3
*Model_Space
  1

  0
ENDBLK
  5
21
100
AcDbEntity
  8
0
100
AcDbBlockEnd
  0
BLOCK
  5
1C
100
AcDbEntity
  8
0
100
AcDbBlockBegin
  2
*Paper_Space
 70
0
 10
0.0
 20
0.0
 30
0.0
  3
*Paper_Space
  1

  0
ENDBLK
  5
1D
100
AcDbEntity
  8
0
100
AcDbBlockEnd
  0
BLOCK
  5
214
100
AcDbEntity
  8
0
100
AcDbBlockBegin
  2
_FILLED
 70
64
 10
0.0
 20
0.0
  3
_FILLED
  1

  0
SOLID
  5
215
100
AcDbEntity
  8
0
  6
BYBLOCK
 62
0
100
AcDbTrace
 10
0.0
 20
0.0
 11
-1.0
 21
0.25
 12
-1.0
 22
-0.25
 13
-1.0
 23
-0.25
  0
ENDBLK
  5
216
100
AcDbEntity
  8
0
  6
BYBLOCK
 62
0
100
AcDbBlockEnd
  0
ENDSEC
  0
SECTION
  2
ENTITIES
  0
LINE
  5
217
100
AcDbEntity
  8
0
100
AcDbLine
 62
7
  6
CONTINUOUS
 10
27.0380482384
 20
217.3445098039
 11
27.0380482384
 21
166.3445098039
  0
LINE
  5
218
100
AcDbEntity
  8
0
100
AcDbLine
 62
7
  6
CONTINUOUS
 10
27.3380482384
 20
85.3445098039
 11
27.3380482384
 21
229.6294996863
  0
LINE
  5
219
100
AcDbEntity
  8
0
100
AcDbLine
 62
7
  6
CONTINUOUS
 10
32.3380482384
 20
170.3445098039
 11
32.3380482384
 21
173.1445098039
  0
LINE
  5
21A
100
AcDbEntity
  8
0
100
AcDbLine
 62
7
  6
CONTINUOUS
 10
32.3380482384
 20
176.1445098039
 11
32.3380482384
 21
178.9445098039
  0
LINE
  5
21B
100
AcDbEntity
  8
0
100
AcDbLine
 62
7
  6
CONTINUOUS
 10
32.3380482384
 20
181.9445098039
 11
32.3380482384
 21
184.7445098039
  0
LINE
  5
21C
100
AcDbEntity
  8
0
100
AcDbLine
 62
7
  6
CONTINUOUS
 10
32.3380482384
 20
187.7445098039
 11
32.3380482384
 21
190.5445098039
  0
LINE
  5
21D
100
AcDbEntity
  8
0
100
AcDbLine
 62
7
  6
CONTINUOUS
 10
32.3380482384
 20
193.5445098039
 11
32.3380482384
 21
196.3445098039
  0
LINE
  5
21E
100
AcDbEntity
  8
0
100
AcDbLine
 62
7
  6
CONTINUOUS
 10
32.3380482384
 20
199.3445098039
 11
32.3380482384
 21
202.1445098039
  0
LINE
  5
21F
100
AcDbEntity
  8
0
100
AcDbLine
 62
7
  6
CONTINUOUS
 10
32.3380482384
 20
205.1445098039
 11
32.3380482384
 21
207.9445098039
  0
LINE
  5
220
100
AcDbEntity
  8
0
100
AcDbLine
 62
7
  6
CONTINUOUS
 10
32.3380482384
 20
210.9445098039
 11
32.3380482384
 21
213.7445098039
  0
LINE
  5
221
100
AcDbEntity
  8
0
100
AcDbLine
 62
7
  6
CONTINUOUS
 10
32.3380482384
 20
216.7445098039
 11
32.3380482384
 21
219.5445098039
  0
LINE
  5
222
100
AcDbEntity
  8
0
100
AcDbLine
 62
7
  6
CONTINUOUS
 10
32.3380482384
 20
222.5445098039
 11
32.3380482384
 21
225.3445098039
  0
LINE
  5
223
100
AcDbEntity
  8
0
100
AcDbLine
 62
7
  6
CONTINUOUS
 10
35.1422720494
 20
230.0315826161
 11
35.1422720494
 21
225.3445098039
  0
LINE
  5
224
100
AcDbEntity
  8
0
100
AcDbLine
 62
7
  6
CONTINUOUS
 10
35.1422720494
 20
222.5445098039
 11
35.1422720494
 21
219.5445098039
  0
LINE
  5
225
100
AcDbEntity
  8
0
100
AcDbLine
 62
7
  6
CONTINUOUS
 10
35.1422720494
 20
216.7445098039
 11
35.1422720494
 21
213.7445098039
  0
LINE
  5
226
100
AcDbEntity
  8
0
100
AcDbLine
 62
7
  6
CONTINUOUS
 10
35.1422720494
 20
210.9445098039
 11
35.1422720494
 21
207.9445098039
  0
LINE
  5
227
100
AcDbEntity
  8
0
100
AcDbLine
 62
7
  6
CONTINUOUS
 10
35.1422720494
 20
205.1445098039
 11
35.1422720494
 21
202.1445098039
  0
LINE
  5
228
100
AcDbEntity
  8
0
100
AcDbLine
 62
7
  6
CONTINUOUS
 10
35.1422720494
 20
199.3445098039
 11
35.1422720494
 21
196.3445098039
  0
LINE
  5
229
100
AcDbEntity
  8
0
100
AcDbLine
 62
7
  6
CONTINUOUS
 10
35.1422720494
 20
193.5445098039
 11
35.1422720494
 21
190.5445098039
  0
LINE
  5
22A
100
AcDbEntity
  8
0
100
AcDbLine
 62
7
  6
CONTINUOUS
 10
35.1422720494
 20
187.7445098039
 11
35.1422720494
 21
184.7445098039
  0
LINE
  5
22B
100
AcDbEntity
  8
0
100
AcDbLine
 62
7
  6
CONTINUOUS
 10
35.1422720494
 20
181.9445098039
 11
35.1422720494
 21
178.9445098039
  0
LINE
  5
22C
100
AcDbEntity
  8
0
100
AcDbLine
 62
7
  6
CONTINUOUS
 10
35.1422720494
 20
176.1445098039
 11
35.1422720494
 21
173.1445098039
  0
LINE
  5
22D
100
AcDbEntity
  8
0
100
AcDbLine
 62
7
  6
CONTINUOUS
 10
35.1422720494
 20
170.3445098039
 11
35.1422720494
 21
93.3445098039
  0
LINE
  5
22E
100
AcDbEntity
  8
0
100
AcDbLine
 62
7
  6
CONTINUOUS
 10
39.4471159906
 20
225.3445098039
 11
39.4471159906
 21
222.5445098039
  0
LINE
  5
22F
100
AcDbEntity
  8
0
100
AcDbLine
 62
7
  6
CONTINUOUS
 10
39.4471159906
 20
219.5445098039
 11
39.4471159906
 21
216.7445098039
  0
LINE
  5
230
100
AcDbEntity
  8
0
100
AcDbLine
 62
7
  6
CONTINUOUS
 10
39.4471159906
 20
213.7445098039
 11
39.4471159906
 21
210.9445098039
  0
LINE
  5
231
100
AcDbEntity
  8
0
100
AcDbLine
 62
7
  6
CONTINUOUS
 10
39.4471159906
 20
207.9445098039
 11
39.4471159906
 21
205.1445098039
  0
LINE
  5
232
100
AcDbEntity
  8
0
100
AcDbLine
 62
7
  6
CONTINUOUS
 10
39.4471159906
 20
202.1445098039
 11
39.4471159906
 21
199.3445098039
  0
LINE
  5
233
100
AcDbEntity
  8
0
100
AcDbLine
 62
7
  6
CONTINUOUS
 10
39.4471159906
 20
196.3445098039
 11
39.4471159906
 21
193.5445098039
  0
LINE
  5
234
100
AcDbEntity
  8
0
100
AcDbLine
 62
7
  6
CONTINUOUS
 10
39.4471159906
 20
190.5445098039
 11
39.4471159906
 21
187.7445098039
  0
LINE
  5
235
100
AcDbEntity
  8
0
100
AcDbLine
 62
7
  6
CONTINUOUS
 10
39.4471159906
 20
184.7445098039
 11
39.4471159906
 21
181.9445098039
  0
LINE
  5
236
100
AcDbEntity
  8
0
100
AcDbLine
 62
7
  6
CONTINUOUS
 10
39.4471159906
 20
178.9445098039
 11
39.4471159906
 21
176.1445098039
  0
LINE
  5
237
100
AcDbEntity
  8
0
100
AcDbLine
 62
7
  6
CONTINUOUS
 10
39.4471159906
 20
173.1445098039
 11
39.4471159906
 21
170.3445098039
  0
LINE
  5
238
100
AcDbEntity
  8
0
100
AcDbLine
 62
7
  6
CONTINUOUS
 10
39.873739942
 20
93.3445098039
 11
39.873739942
 21
170.3445098039
  0
LINE
  5
239
100
AcDbEntity
  8
0
100
AcDbLine
 62
7
  6
CONTINUOUS
 10
39.873739942
 20
173.1445098039
 11
39.873739942
 21
176.1445098039
  0
LINE
  5
23A
100
AcDbEntity
  8
0
100
AcDbLine
 62
7
  6
CONTINUOUS
 10
39.873739942
 20
178.9445098039
 11
39.873739942
 21
181.9445098039
  0
LINE
  5
23B
100
AcDbEntity
  8
0
100
AcDbLine
 62
7
  6
CONTINUOUS
 10
39.873739942
 20
184.7445098039
 11
39.873739942
 21
187.7445098039
  0
LINE
  5
23C
100
AcDbEntity
  8
0
100
AcDbLine
 62
7
  6
CONTINUOUS
 10
39.873739942
 20
190.5445098039
 11
39.873739942
 21
193.5445098039
  0
LINE
  5
23D
100
AcDbEntity
  8
0
100
AcDbLine
 62
7
  6
CONTINUOUS
 10
39.873739942
 20
196.3445098039
 11
39.873739942
 21
199.3445098039
  0
LINE
  5
23E
100
AcDbEntity
  8
0
100
AcDbLine
 62
7
  6
CONTINUOUS
 10
39.873739942
 20
202.1445098039
 11
39.873739942
 21
205.1445098039
  0
LINE
  5
23F
100
AcDbEntity
  8
0
100
AcDbLine
 62
7
  6
CONTINUOUS
 10
39.873739942
 20
207.9445098039
 11
39.873739942
 21
210.9445098039
  0
LINE
  5
240
100
AcDbEntity
  8
0
100
AcDbLine
 62
7
  6
CONTINUOUS
 10
39.873739942
 20
213.7445098039
 11
39.873739942
 21
216.7445098039
  0
LINE
  5
241
100
AcDbEntity
  8
0
100
AcDbLine
 62
7
  6
CONTINUOUS
 10
39.873739942
 20
219.5445098039
 11
39.873739942
 21
222.5445098039
  0
LINE
  5
242
100
AcDbEntity
  8
0
100
AcDbLine
 62
7
  6
CONTINUOUS
 10
39.873739942
 20
225.3445098039
 11
39.873739942
 21
230.2482964254
  0
LINE
  5
243
100
AcDbEntity
  8
0
100
AcDbLine
 62
7
  6
CONTINUOUS
 10
40.3380482384
 20
93.3445098039
 11
40.3380482384
 21
230.2684630894
  0
LINE
  5
244
100
AcDbEntity
  8
0
100
AcDbLine
 62
7
  6
CONTINUOUS
 10
45.1380482384
 20
237.3445098039
 11
45.1380482384
 21
230.3709874664
  0
LINE
  5
245
100
AcDbEntity
  8
0
100
AcDbLine
 62
7
  6
CONTINUOUS
 10
46.3380482384
 20
180.77430475
 11
46.3380482384
 21
183.5764872225
  0
LINE
  5
246
100
AcDbEntity
  8
0
100
AcDbLine
 62
7
  6
CONTINUOUS
 10
46.3380482384
 20
186.578812729
 11
46.3380482384
 21
189.3809712994
  0
LINE
  5
247
100
AcDbEntity
  8
0
100
AcDbLine
 62
7
  6
CONTINUOUS
 10
46.3380482384
 20
192.3832714068
 11
46.3380482384
 21
195.1854064658
  0
LINE
  5
248
100
AcDbEntity
  8
0
100
AcDbLine
 62
7
  6
CONTINUOUS
 10
46.3380482384
 20
198.1876815882
 11
46.3380482384
 21
200.9897935179
  0
LINE
  5
249
100
AcDbEntity
  8
0
100
AcDbLine
 62
7
  6
CONTINUOUS
 10
46.3380482384
 20
203.9920440604
 11
46.3380482384
 21
206.7941332348
  0
LINE
  5
24A
100
AcDbEntity
  8
0
100
AcDbLine
 62
7
  6
CONTINUOUS
 10
46.3380482384
 20
209.7963595937
 11
46.3380482384
 21
212.5984263787
  0
LINE
  5
24B
100
AcDbEntity
  8
0
100
AcDbLine
 62
7
  6
CONTINUOUS
 10
46.3380482384
 20
215.6006289419
 11
46.3380482384
 21
218.4026736956
  0
LINE
  5
24C
100
AcDbEntity
  8
0
100
AcDbLine
 62
7
  6
CONTINUOUS
 10
27.3380482384
 20
85.3445098039
 11
197.3380482384
 21
85.3445098039
  0
LINE
  5
24D
100
AcDbEntity
  8
0
100
AcDbLine
 62
7
  6
CONTINUOUS
 10
27.3380482384
 20
93.3445098039
 11
40.3380482384
 21
93.3445098039
  0
LINE
  5
24E
100
AcDbEntity
  8
0
100
AcDbLine
 62
7
  6
CONTINUOUS
 10
184.3380482384
 20
93.3445098039
 11
197.3380482384
 21
93.3445098039
  0
LINE
  5
24F
100
AcDbEntity
  8
0
100
AcDbLine
 62
7
  6
CONTINUOUS
 10
61.3380482384
 20
175.6583544481
 11
61.3380482384
 21
178.4592532899
  0
LINE
  5
250
100
AcDbEntity
  8
0
100
AcDbLine
 62
7
  6
CONTINUOUS
 10
69.4201912773
 20
243.5045098039
 11
68.9894421157
 21
237.3445098039
  0
LINE
  5
251
100
AcDbEntity
  8
0
100
AcDbLine
 62
7
  6
CONTINUOUS
 10
90.8559051995
 20
243.5045098039
 11
91.2866543611
 21
237.3445098039
  0
LINE
  5
252
100
AcDbEntity
  8
0
100
AcDbLine
 62
7
  6
CONTINUOUS
 10
211.3380482384
 20
150.8445098039
 11
197.3380482384
 21
150.8445098039
  0
LINE
  5
253
100
AcDbEntity
  8
0
100
AcDbLine
 62
7
  6
CONTINUOUS
 10
197.3380482384
 20
160.8445098039
 11
211.3380482384
 21
160.8445098039
  0
LINE
  5
254
100
AcDbEntity
  8
0
100
AcDbLine
 62
7
  6
CONTINUOUS
 10
198.9387030077
 20
165.9445098039
 11
208.737393469
 21
165.9445098039
  0
LINE
  5
255
100
AcDbEntity
  8
0
100
AcDbLine
 62
7
  6
CONTINUOUS
 10
27.0380482384
 20
166.3445098039
 11
27.3380482384
 21
166.3445098039
  0
LINE
  5
256
100
AcDbEntity
  8
0
100
AcDbLine
 62
7
  6
CONTINUOUS
 10
198.5380482384
 20
168.8445098039
 11
197.3380482384
 21
168.8445098039
  0
LINE
  5
257
100
AcDbEntity
  8
0
100
AcDbLine
 62
7
  6
CONTINUOUS
 10
32.3380482384
 20
170.3445098039
 11
39.873739942
 21
170.3445098039
  0
LINE
  5
258
100
AcDbEntity
  8
0
100
AcDbLine
 62
7
  6
CONTINUOUS
 10
39.873739942
 20
173.1445098039
 11
32.3380482384
 21
173.1445098039
  0
LINE
  5
259
100
AcDbEntity
  8
0
100
AcDbLine
 62
7
  6
CONTINUOUS
 10
32.3380482384
 20
176.1445098039
 11
39.873739942
 21
176.1445098039
  0
LINE
  5
25A
100
AcDbEntity
  8
0
100
AcDbLine
 62
7
  6
CONTINUOUS
 10
39.873739942
 20
178.9445098039
 11
32.3380482384
 21
178.9445098039
  0
LINE
  5
25B
100
AcDbEntity
  8
0
100
AcDbLine
 62
7
  6
CONTINUOUS
 10
198.5380482384
 20
179.3445098039
 11
197.3380482384
 21
179.3445098039
  0
LINE
  5
25C
100
AcDbEntity
  8
0
100
AcDbLine
 62
7
  6
CONTINUOUS
 10
32.3380482384
 20
181.9445098039
 11
39.873739942
 21
181.9445098039
  0
LINE
  5
25D
100
AcDbEntity
  8
0
100
AcDbLine
 62
7
  6
CONTINUOUS
 10
184.6000871348
 20
183.8445098039
 11
189.5338244273
 21
183.8445098039
  0
LINE
  5
25E
100
AcDbEntity
  8
0
100
AcDbLine
 62
7
  6
CONTINUOUS
 10
39.873739942
 20
184.7445098039
 11
32.3380482384
 21
184.7445098039
  0
LINE
  5
25F
100
AcDbEntity
  8
0
100
AcDbLine
 62
7
  6
CONTINUOUS
 10
189.5338244274
 20
186.6445098039
 11
184.6000871348
 21
186.6445098039
  0
LINE
  5
260
100
AcDbEntity
  8
0
100
AcDbLine
 62
7
  6
CONTINUOUS
 10
32.3380482384
 20
187.7445098039
 11
39.873739942
 21
187.7445098039
  0
LINE
  5
261
100
AcDbEntity
  8
0
100
AcDbLine
 62
7
  6
CONTINUOUS
 10
184.6000871348
 20
189.6445098039
 11
189.5338244273
 21
189.6445098039
  0
LINE
  5
262
100
AcDbEntity
  8
0
100
AcDbLine
 62
7
  6
CONTINUOUS
 10
39.873739942
 20
190.5445098039
 11
32.3380482384
 21
190.5445098039
  0
LINE
  5
263
100
AcDbEntity
  8
0
100
AcDbLine
 62
7
  6
CONTINUOUS
 10
189.5338244274
 20
192.4445098039
 11
184.6000871348
 21
192.4445098039
  0
LINE
  5
264
100
AcDbEntity
  8
0
100
AcDbLine
 62
7
  6
CONTINUOUS
 10
32.3380482384
 20
193.5445098039
 11
39.873739942
 21
193.5445098039
  0
LINE
  5
265
100
AcDbEntity
  8
0
100
AcDbLine
 62
7
  6
CONTINUOUS
 10
184.6000871348
 20
195.4445098039
 11
189.5338244273
 21
195.4445098039
  0
LINE
  5
266
100
AcDbEntity
  8
0
100
AcDbLine
 62
7
  6
CONTINUOUS
 10
39.873739942
 20
196.3445098039
 11
32.3380482384
 21
196.3445098039
  0
LINE
  5
267
100
AcDbEntity
  8
0
100
AcDbLine
 62
7
  6
CONTINUOUS
 10
158.6380482384
 20
228.9863843449
 11
158.6380482384
 21
237.3445098039
  0
LINE
  5
268
100
AcDbEntity
  8
0
100
AcDbLine
 62
7
  6
CONTINUOUS
 10
159.8380482384
 20
176.3171172149
 11
159.8380482384
 21
173.5104615145
  0
LINE
  5
269
100
AcDbEntity
  8
0
100
AcDbLine
 62
7
  6
CONTINUOUS
 10
189.5338244274
 20
198.2445098039
 11
184.6000871348
 21
198.2445098039
  0
LINE
  5
26A
100
AcDbEntity
  8
0
100
AcDbLine
 62
7
  6
CONTINUOUS
 10
32.3380482384
 20
199.3445098039
 11
39.873739942
 21
199.3445098039
  0
LINE
  5
26B
100
AcDbEntity
  8
0
100
AcDbLine
 62
7
  6
CONTINUOUS
 10
184.6000871348
 20
201.2445098039
 11
189.5338244273
 21
201.2445098039
  0
LINE
  5
26C
100
AcDbEntity
  8
0
100
AcDbLine
 62
7
  6
CONTINUOUS
 10
39.873739942
 20
202.1445098039
 11
32.3380482384
 21
202.1445098039
  0
LINE
  5
26D
100
AcDbEntity
  8
0
100
AcDbLine
 62
7
  6
CONTINUOUS
 10
189.5338244274
 20
204.0445098039
 11
184.6000871348
 21
204.0445098039
  0
LINE
  5
26E
100
AcDbEntity
  8
0
100
AcDbLine
 62
7
  6
CONTINUOUS
 10
32.3380482384
 20
205.1445098039
 11
39.873739942
 21
205.1445098039
  0
LINE
  5
26F
100
AcDbEntity
  8
0
100
AcDbLine
 62
7
  6
CONTINUOUS
 10
184.6000871348
 20
207.0445098039
 11
189.5338244273
 21
207.0445098039
  0
LINE
  5
270
100
AcDbEntity
  8
0
100
AcDbLine
 62
7
  6
CONTINUOUS
 10
39.873739942
 20
207.9445098039
 11
32.3380482384
 21
207.9445098039
  0
LINE
  5
271
100
AcDbEntity
  8
0
100
AcDbLine
 62
7
  6
CONTINUOUS
 10
189.5338244274
 20
209.8445098039
 11
184.6000871348
 21
209.8445098039
  0
LINE
  5
272
100
AcDbEntity
  8
0
100
AcDbLine
 62
7
  6
CONTINUOUS
 10
32.3380482384
 20
210.9445098039
 11
39.873739942
 21
210.9445098039
  0
LINE
  5
273
100
AcDbEntity
  8
0
100
AcDbLine
 62
7
  6
CONTINUOUS
 10
39.873739942
 20
213.7445098039
 11
32.3380482384
 21
213.7445098039
  0
LINE
  5
274
100
AcDbEntity
  8
0
100
AcDbLine
 62
7
  6
CONTINUOUS
 10
32.3380482384
 20
216.7445098039
 11
39.873739942
 21
216.7445098039
  0
LINE
  5
275
100
AcDbEntity
  8
0
100
AcDbLine
 62
7
  6
CONTINUOUS
 10
27.0380482384
 20
217.3445098039
 11
27.3380482384
 21
217.3445098039
  0
LINE
  5
276
100
AcDbEntity
  8
0
100
AcDbLine
 62
7
  6
CONTINUOUS
 10
39.873739942
 20
219.5445098039
 11
32.3380482384
 21
219.5445098039
  0
LINE
  5
277
100
AcDbEntity
  8
0
100
AcDbLine
 62
7
  6
CONTINUOUS
 10
178.3380482384
 20
215.4237271945
 11
178.3380482384
 21
212.6139630646
  0
LINE
  5
278
100
AcDbEntity
  8
0
100
AcDbLine
 62
7
  6
CONTINUOUS
 10
178.3380482384
 20
209.6034451281
 11
178.3380482384
 21
206.7935753544
  0
LINE
  5
279
100
AcDbEntity
  8
0
100
AcDbLine
 62
7
  6
CONTINUOUS
 10
178.3380482384
 20
203.782943308
 11
178.3380482384
 21
200.9729661636
  0
LINE
  5
27A
100
AcDbEntity
  8
0
100
AcDbLine
 62
7
  6
CONTINUOUS
 10
178.3380482384
 20
197.9622181367
 11
178.3380482384
 21
195.1521318568
  0
LINE
  5
27B
100
AcDbEntity
  8
0
100
AcDbLine
 62
7
  6
CONTINUOUS
 10
178.3380482384
 20
192.1412659379
 11
178.3380482384
 21
189.3310687186
  0
LINE
  5
27C
100
AcDbEntity
  8
0
100
AcDbLine
 62
7
  6
CONTINUOUS
 10
178.3380482384
 20
186.3200829537
 11
178.3380482384
 21
183.5097729512
  0
LINE
  5
27D
100
AcDbEntity
  8
0
100
AcDbLine
 62
7
  6
CONTINUOUS
 10
178.3380482384
 20
180.4986653428
 11
178.3380482384
 21
177.688240672
  0
LINE
  5
27E
100
AcDbEntity
  8
0
100
AcDbLine
 62
7
  6
CONTINUOUS
 10
184.3380482384
 20
93.3445098039
 11
184.3380482384
 21
227.05349334
  0
LINE
  5
27F
100
AcDbEntity
  8
0
100
AcDbLine
 62
7
  6
CONTINUOUS
 10
184.6000871348
 20
183.8445098039
 11
184.6000871348
 21
186.6445098039
  0
LINE
  5
280
100
AcDbEntity
  8
0
100
AcDbLine
 62
7
  6
CONTINUOUS
 10
184.6000871348
 20
189.6445098039
 11
184.6000871348
 21
192.4445098039
  0
LINE
  5
281
100
AcDbEntity
  8
0
100
AcDbLine
 62
7
  6
CONTINUOUS
 10
184.6000871348
 20
195.4445098039
 11
184.6000871348
 21
198.2445098039
  0
LINE
  5
282
100
AcDbEntity
  8
0
100
AcDbLine
 62
7
  6
CONTINUOUS
 10
184.6000871348
 20
201.2445098039
 11
184.6000871348
 21
204.0445098039
  0
LINE
  5
283
100
AcDbEntity
  8
0
100
AcDbLine
 62
7
  6
CONTINUOUS
 10
184.6000871348
 20
207.0445098039
 11
184.6000871348
 21
209.8445098039
  0
LINE
  5
284
100
AcDbEntity
  8
0
100
AcDbLine
 62
7
  6
CONTINUOUS
 10
184.8023565348
 20
227.0125040509
 11
184.8023565348
 21
209.8445098039
  0
LINE
  5
285
100
AcDbEntity
  8
0
100
AcDbLine
 62
7
  6
CONTINUOUS
 10
184.8023565348
 20
207.0445098039
 11
184.8023565348
 21
204.0445098039
  0
LINE
  5
286
100
AcDbEntity
  8
0
100
AcDbLine
 62
7
  6
CONTINUOUS
 10
184.8023565348
 20
201.2445098039
 11
184.8023565348
 21
198.2445098039
  0
LINE
  5
287
100
AcDbEntity
  8
0
100
AcDbLine
 62
7
  6
CONTINUOUS
 10
184.8023565348
 20
195.4445098039
 11
184.8023565348
 21
192.4445098039
  0
LINE
  5
288
100
AcDbEntity
  8
0
100
AcDbLine
 62
7
  6
CONTINUOUS
 10
184.8023565348
 20
189.6445098039
 11
184.8023565348
 21
186.6445098039
  0
LINE
  5
289
100
AcDbEntity
  8
0
100
AcDbLine
 62
7
  6
CONTINUOUS
 10
184.8023565348
 20
183.8445098039
 11
184.8023565348
 21
93.3445098039
  0
LINE
  5
28A
100
AcDbEntity
  8
0
100
AcDbLine
 62
7
  6
CONTINUOUS
 10
32.3380482384
 20
222.5445098039
 11
39.873739942
 21
222.5445098039
  0
LINE
  5
28B
100
AcDbEntity
  8
0
100
AcDbLine
 62
7
  6
CONTINUOUS
 10
39.873739942
 20
225.3445098039
 11
32.3380482384
 21
225.3445098039
  0
LINE
  5
28C
100
AcDbEntity
  8
0
100
AcDbLine
 62
7
  6
CONTINUOUS
 10
189.5338244273
 20
93.3445098039
 11
189.5338244273
 21
183.8445098039
  0
LINE
  5
28D
100
AcDbEntity
  8
0
100
AcDbLine
 62
7
  6
CONTINUOUS
 10
189.5338244273
 20
186.6445098039
 11
189.5338244273
 21
189.6445098039
  0
LINE
  5
28E
100
AcDbEntity
  8
0
100
AcDbLine
 62
7
  6
CONTINUOUS
 10
189.5338244273
 20
192.4445098039
 11
189.5338244273
 21
195.4445098039
  0
LINE
  5
28F
100
AcDbEntity
  8
0
100
AcDbLine
 62
7
  6
CONTINUOUS
 10
189.5338244273
 20
198.2445098039
 11
189.5338244273
 21
201.2445098039
  0
LINE
  5
290
100
AcDbEntity
  8
0
100
AcDbLine
 62
7
  6
CONTINUOUS
 10
189.5338244273
 20
204.0445098039
 11
189.5338244273
 21
207.0445098039
  0
LINE
  5
291
100
AcDbEntity
  8
0
100
AcDbLine
 62
7
  6
CONTINUOUS
 10
189.5338244273
 20
209.8445098039
 11
189.5338244273
 21
226.5834986581
  0
LINE
  5
292
100
AcDbEntity
  8
0
100
AcDbLine
 62
7
  6
CONTINUOUS
 10
39.873739942
 20
230.2482964254
 11
40.3380482384
 21
230.2684630894
  0
LINE
  5
293
100
AcDbEntity
  8
0
100
AcDbLine
 62
7
  6
CONTINUOUS
 10
158.6380482384
 20
231.8445098039
 11
45.1380482384
 21
231.8445098039
  0
LINE
  5
294
100
AcDbEntity
  8
0
100
AcDbLine
 62
7
  6
CONTINUOUS
 10
158.6380482384
 20
237.3445098039
 11
45.1380482384
 21
237.3445098039
  0
LINE
  5
295
100
AcDbEntity
  8
0
100
AcDbLine
 62
7
  6
CONTINUOUS
 10
184.3380482384
 20
227.05349334
 11
184.8023565348
 21
227.0125040509
  0
LINE
  5
296
100
AcDbEntity
  8
0
100
AcDbLine
 62
7
  6
CONTINUOUS
 10
197.3380482384
 20
85.3445098039
 11
197.3380482384
 21
150.8445098039
  0
LINE
  5
297
100
AcDbEntity
  8
0
100
AcDbLine
 62
7
  6
CONTINUOUS
 10
197.3380482384
 20
160.8445098039
 11
197.3380482384
 21
225.8308271548
  0
LINE
  5
298
100
AcDbEntity
  8
0
100
AcDbLine
 62
7
  6
CONTINUOUS
 10
198.5380482384
 20
168.8445098039
 11
198.5380482384
 21
179.3445098039
  0
LINE
  5
299
100
AcDbEntity
  8
0
100
AcDbLine
 62
7
  6
CONTINUOUS
 10
198.9380482384
 20
165.9445098039
 11
198.9380482384
 21
160.8445098039
  0
LINE
  5
29A
100
AcDbEntity
  8
0
100
AcDbLine
 62
7
  6
CONTINUOUS
 10
69.4201912773
 20
243.5045098039
 11
90.8559051995
 21
243.5045098039
  0
LINE
  5
29B
100
AcDbEntity
  8
0
100
AcDbLine
 62
7
  6
CONTINUOUS
 10
208.7380482384
 20
165.9445098039
 11
208.7380482384
 21
160.8445098039
  0
LINE
  5
29C
100
AcDbEntity
  8
0
100
AcDbLine
 62
7
  6
CONTINUOUS
 10
211.3380482384
 20
150.8445098039
 11
211.3380482384
 21
160.8445098039
  0
ARC
  5
29D
100
AcDbEntity
  8
0
100
AcDbCircle
 62
7
  6
CONTINUOUS
 10
87.8380482384
 20
-868.7054901961
 40
1100.0
100
AcDbArc
 50
84.2870036614
 51
84.9428493153
  0
ARC
  5
29E
100
AcDbEntity
  8
0
100
AcDbCircle
 62
7
  6
CONTINUOUS
 10
87.8380482384
 20
-868.7054901961
 40
1100.0
100
AcDbArc
 50
92.4991073918
 51
93.152858804
  0
ARC
  5
29F
100
AcDbEntity
  8
0
100
AcDbCircle
 62
7
  6
CONTINUOUS
 10
87.8380482384
 20
-868.7054901961
 40
1100.0
100
AcDbArc
 50
84.9671278321
 51
92.474905487
  0
ARC
  5
2A0
100
AcDbEntity
  8
0
100
AcDbCircle
 62
7
  6
CONTINUOUS
 10
87.8380482384
 20
-868.7054901961
 40
1087.9
100
AcDbArc
 50
85.2281760548
 51
86.4975734157
  0
ARC
  5
2A1
100
AcDbEntity
  8
0
100
AcDbCircle
 62
7
  6
CONTINUOUS
 10
87.8380482384
 20
-868.7054901961
 40
1087.9
100
AcDbArc
 50
90.7904463423
 51
92.186186149
  0
ARC
  5
2A2
100
AcDbEntity
  8
0
100
AcDbCircle
 62
7
  6
CONTINUOUS
 10
87.8380482384
 20
-868.7054901961
 40
1087.9
100
AcDbArc
 50
88.7742563427
 51
90.5249063261
  0
ARC
  5
2A3
100
AcDbEntity
  8
0
100
AcDbCircle
 62
7
  6
CONTINUOUS
 10
87.8380482384
 20
-868.7054901961
 40
1087.9
100
AcDbArc
 50
86.7620706103
 51
88.5092802033
  0
ARC
  5
2A4
100
AcDbEntity
  8
0
100
AcDbCircle
 62
7
  6
CONTINUOUS
 10
87.8380482384
 20
-868.7054901961
 40
1085.1
100
AcDbArc
 50
85.2158341459
 51
86.5102853442
  0
ARC
  5
2A5
100
AcDbEntity
  8
0
100
AcDbCircle
 62
7
  6
CONTINUOUS
 10
87.8380482384
 20
-868.7054901961
 40
1085.1
100
AcDbArc
 50
90.8090559146
 51
92.1918301497
  0
ARC
  5
2A6
100
AcDbEntity
  8
0
100
AcDbCircle
 62
7
  6
CONTINUOUS
 10
87.8380482384
 20
-868.7054901961
 40
1085.1
100
AcDbArc
 50
88.790114573
 51
90.5431546693
  0
ARC
  5
2A7
100
AcDbEntity
  8
0
100
AcDbCircle
 62
7
  6
CONTINUOUS
 10
87.8380482384
 20
-868.7054901961
 40
1085.1
100
AcDbArc
 50
86.7751513369
 51
88.5247749527
  0
ARC
  5
2A8
100
AcDbEntity
  8
0
100
AcDbCircle
 62
7
  6
CONTINUOUS
 10
87.8380482384
 20
-868.7054901961
 40
1082.1
100
AcDbArc
 50
85.2025395459
 51
86.5216708854
  0
ARC
  5
2A9
100
AcDbEntity
  8
0
100
AcDbCircle
 62
7
  6
CONTINUOUS
 10
87.8380482384
 20
-868.7054901961
 40
1082.1
100
AcDbArc
 50
86.7869885981
 51
88.5395141327
  0
ARC
  5
2AA
100
AcDbEntity
  8
0
100
AcDbCircle
 62
7
  6
CONTINUOUS
 10
87.8380482384
 20
-868.7054901961
 40
1082.1
100
AcDbArc
 50
88.8052837606
 51
90.5611169094
  0
ARC
  5
2AB
100
AcDbEntity
  8
0
100
AcDbCircle
 62
7
  6
CONTINUOUS
 10
87.8380482384
 20
-868.7054901961
 40
1082.1
100
AcDbArc
 50
90.8274358117
 51
92.1979097295
  0
ARC
  5
2AC
100
AcDbEntity
  8
0
100
AcDbCircle
 62
7
  6
CONTINUOUS
 10
87.8380482384
 20
-868.7054901961
 40
1079.3
100
AcDbArc
 50
85.1900643368
 51
86.5302017971
  0
ARC
  5
2AD
100
AcDbEntity
  8
0
100
AcDbCircle
 62
7
  6
CONTINUOUS
 10
87.8380482384
 20
-868.7054901961
 40
1079.3
100
AcDbArc
 50
86.7959942724
 51
88.5515245325
  0
ARC
  5
2AE
100
AcDbEntity
  8
0
100
AcDbCircle
 62
7
  6
CONTINUOUS
 10
87.8380482384
 20
-868.7054901961
 40
1079.3
100
AcDbArc
 50
88.8177335826
 51
90.5763915357
  0
ARC
  5
2AF
100
AcDbEntity
  8
0
100
AcDbCircle
 62
7
  6
CONTINUOUS
 10
87.8380482384
 20
-868.7054901961
 40
1079.3
100
AcDbArc
 50
90.84312899
 51
92.2036145191
  0
ARC
  5
2B0
100
AcDbEntity
  8
0
100
AcDbCircle
 62
7
  6
CONTINUOUS
 10
87.8380482384
 20
-868.7054901961
 40
1076.3
100
AcDbArc
 50
85.1766257569
 51
86.5370841066
  0
ARC
  5
2B1
100
AcDbEntity
  8
0
100
AcDbCircle
 62
7
  6
CONTINUOUS
 10
87.8380482384
 20
-868.7054901961
 40
1076.3
100
AcDbArc
 50
86.8034426998
 51
88.5625122455
  0
ARC
  5
2B2
100
AcDbEntity
  8
0
100
AcDbCircle
 62
7
  6
CONTINUOUS
 10
87.8380482384
 20
-868.7054901961
 40
1076.3
100
AcDbArc
 50
88.8292332041
 51
90.5911528588
  0
ARC
  5
2B3
100
AcDbEntity
  8
0
100
AcDbCircle
 62
7
  6
CONTINUOUS
 10
87.8380482384
 20
-868.7054901961
 40
1076.3
100
AcDbArc
 50
90.8583697525
 51
92.2097597563
  0
ARC
  5
2B4
100
AcDbEntity
  8
0
100
AcDbCircle
 62
7
  6
CONTINUOUS
 10
87.8380482384
 20
-868.7054901961
 40
1073.5
100
AcDbArc
 50
85.1640150738
 51
86.541387202
  0
ARC
  5
2B5
100
AcDbEntity
  8
0
100
AcDbCircle
 62
7
  6
CONTINUOUS
 10
87.8380482384
 20
-868.7054901961
 40
1073.5
100
AcDbArc
 50
86.8083283301
 51
88.571002565
  0
ARC
  5
2B6
100
AcDbEntity
  8
0
100
AcDbCircle
 62
7
  6
CONTINUOUS
 10
87.8380482384
 20
-868.7054901961
 40
1073.5
100
AcDbArc
 50
88.8382399844
 51
90.6034250506
  0
ARC
  5
2B7
100
AcDbEntity
  8
0
100
AcDbCircle
 62
7
  6
CONTINUOUS
 10
87.8380482384
 20
-868.7054901961
 40
1073.5
100
AcDbArc
 50
90.8711185559
 51
92.2155263226
  0
ARC
  5
2B8
100
AcDbEntity
  8
0
100
AcDbCircle
 62
7
  6
CONTINUOUS
 10
87.8380482384
 20
-868.7054901961
 40
1070.5
100
AcDbArc
 50
85.1504301594
 51
86.5437100177
  0
ARC
  5
2B9
100
AcDbEntity
  8
0
100
AcDbCircle
 62
7
  6
CONTINUOUS
 10
87.8380482384
 20
-868.7054901961
 40
1070.5
100
AcDbArc
 50
86.8113340241
 51
88.5781968368
  0
ARC
  5
2BA
100
AcDbEntity
  8
0
100
AcDbCircle
 62
7
  6
CONTINUOUS
 10
87.8380482384
 20
-868.7054901961
 40
1070.5
100
AcDbArc
 50
88.8460294561
 51
90.6149522754
  0
ARC
  5
2BB
100
AcDbEntity
  8
0
100
AcDbCircle
 62
7
  6
CONTINUOUS
 10
87.8380482384
 20
-868.7054901961
 40
1070.5
100
AcDbArc
 50
90.8831879125
 51
92.2217382868
  0
ARC
  5
2BC
100
AcDbEntity
  8
0
100
AcDbCircle
 62
7
  6
CONTINUOUS
 10
87.8380482384
 20
-868.7054901961
 40
1067.7
100
AcDbArc
 50
85.1376817807
 51
86.5437269763
  0
ARC
  5
2BD
100
AcDbEntity
  8
0
100
AcDbCircle
 62
7
  6
CONTINUOUS
 10
87.8380482384
 20
-868.7054901961
 40
1067.7
100
AcDbArc
 50
86.8120439017
 51
88.5831244064
  0
ARC
  5
2BE
100
AcDbEntity
  8
0
100
AcDbCircle
 62
7
  6
CONTINUOUS
 10
87.8380482384
 20
-868.7054901961
 40
1067.7
100
AcDbArc
 50
88.8515520275
 51
90.6241887847
  0
ARC
  5
2BF
100
AcDbEntity
  8
0
100
AcDbCircle
 62
7
  6
CONTINUOUS
 10
87.8380482384
 20
-868.7054901961
 40
1067.7
100
AcDbArc
 50
90.8929600562
 51
92.227567639
  0
ARC
  5
2C0
100
AcDbEntity
  8
0
100
AcDbCircle
 62
7
  6
CONTINUOUS
 10
87.8380482384
 20
-868.7054901961
 40
1064.7
100
AcDbArc
 50
85.1239481256
 51
86.5414214614
  0
ARC
  5
2C1
100
AcDbEntity
  8
0
100
AcDbCircle
 62
7
  6
CONTINUOUS
 10
87.8380482384
 20
-868.7054901961
 40
1064.7
100
AcDbArc
 50
86.8105412723
 51
88.5864757152
  0
ARC
  5
2C2
100
AcDbEntity
  8
0
100
AcDbCircle
 62
7
  6
CONTINUOUS
 10
87.8380482384
 20
-868.7054901961
 40
1064.7
100
AcDbArc
 50
88.8555836614
 51
90.6324438129
  0
ARC
  5
2C3
100
AcDbEntity
  8
0
100
AcDbCircle
 62
7
  6
CONTINUOUS
 10
87.8380482384
 20
-868.7054901961
 40
1064.7
100
AcDbArc
 50
90.901821065
 51
92.2338474232
  0
ARC
  5
2C4
100
AcDbEntity
  8
0
100
AcDbCircle
 62
7
  6
CONTINUOUS
 10
87.8380482384
 20
-868.7054901961
 40
1061.9
100
AcDbArc
 50
85.111059781
 51
86.5370819736
  0
ARC
  5
2C5
100
AcDbEntity
  8
0
100
AcDbCircle
 62
7
  6
CONTINUOUS
 10
87.8380482384
 20
-868.7054901961
 40
1061.9
100
AcDbArc
 50
86.8070085507
 51
88.5877907002
  0
ARC
  5
2C6
100
AcDbEntity
  8
0
100
AcDbCircle
 62
7
  6
CONTINUOUS
 10
87.8380482384
 20
-868.7054901961
 40
1061.9
100
AcDbArc
 50
88.8575741149
 51
90.6386067358
  0
ARC
  5
2C7
100
AcDbEntity
  8
0
100
AcDbCircle
 62
7
  6
CONTINUOUS
 10
87.8380482384
 20
-868.7054901961
 40
1061.9
100
AcDbArc
 50
90.9085798433
 51
92.2397405925
  0
ARC
  5
2C8
100
AcDbEntity
  8
0
100
AcDbCircle
 62
7
  6
CONTINUOUS
 10
87.8380482384
 20
-868.7054901961
 40
1058.9
100
AcDbArc
 50
85.097174926
 51
86.5300661321
  0
ARC
  5
2C9
100
AcDbEntity
  8
0
100
AcDbCircle
 62
7
  6
CONTINUOUS
 10
87.8380482384
 20
-868.7054901961
 40
1058.9
100
AcDbArc
 50
86.8009197935
 51
88.5872417002
  0
ARC
  5
2CA
100
AcDbEntity
  8
0
100
AcDbCircle
 62
7
  6
CONTINUOUS
 10
87.8380482384
 20
-868.7054901961
 40
1058.9
100
AcDbArc
 50
88.8577928648
 51
90.6435464006
  0
ARC
  5
2CB
100
AcDbEntity
  8
0
100
AcDbCircle
 62
7
  6
CONTINUOUS
 10
87.8380482384
 20
-868.7054901961
 40
1058.9
100
AcDbArc
 50
90.9141907515
 51
92.2460893138
  0
ARC
  5
2CC
100
AcDbEntity
  8
0
100
AcDbCircle
 62
7
  6
CONTINUOUS
 10
87.8380482384
 20
-868.7054901961
 40
1056.1
100
AcDbArc
 50
85.0841442948
 51
86.521287273
  0
ARC
  5
2CD
100
AcDbEntity
  8
0
100
AcDbCircle
 62
7
  6
CONTINUOUS
 10
87.8380482384
 20
-868.7054901961
 40
1056.1
100
AcDbArc
 50
86.7930659275
 51
88.5848868092
  0
ARC
  5
2CE
100
AcDbEntity
  8
0
100
AcDbCircle
 62
7
  6
CONTINUOUS
 10
87.8380482384
 20
-868.7054901961
 40
1056.1
100
AcDbArc
 50
88.856196283
 51
90.6465930203
  0
ARC
  5
2CF
100
AcDbEntity
  8
0
100
AcDbCircle
 62
7
  6
CONTINUOUS
 10
87.8380482384
 20
-868.7054901961
 40
1056.1
100
AcDbArc
 50
90.9178948919
 51
92.2520473542
  0
ARC
  5
2D0
100
AcDbEntity
  8
0
100
AcDbCircle
 62
7
  6
CONTINUOUS
 10
87.8380482384
 20
-868.7054901961
 40
1053.1
100
AcDbArc
 50
85.0701057259
 51
86.5094651879
  0
ARC
  5
2D1
100
AcDbEntity
  8
0
100
AcDbCircle
 62
7
  6
CONTINUOUS
 10
87.8380482384
 20
-868.7054901961
 40
1053.1
100
AcDbArc
 50
90.9202089637
 51
92.2584661543
  0
ARC
  5
2D2
100
AcDbEntity
  8
0
100
AcDbCircle
 62
7
  6
CONTINUOUS
 10
87.8380482384
 20
-868.7054901961
 40
1053.1
100
AcDbArc
 50
86.7823003428
 51
88.5803719808
  0
ARC
  5
2D3
100
AcDbEntity
  8
0
100
AcDbCircle
 62
7
  6
CONTINUOUS
 10
87.8380482384
 20
-868.7054901961
 40
1053.1
100
AcDbArc
 50
88.8525394255
 51
90.6481689011
  0
ARC
  5
2D4
100
AcDbEntity
  8
0
100
AcDbCircle
 62
7
  6
CONTINUOUS
 10
87.8380482384
 20
-868.7054901961
 40
1050.3
100
AcDbArc
 50
85.0569304358
 51
86.496150616
  0
ARC
  5
2D5
100
AcDbEntity
  8
0
100
AcDbCircle
 62
7
  6
CONTINUOUS
 10
87.8380482384
 20
-868.7054901961
 40
1050.3
100
AcDbArc
 50
90.9208124509
 51
92.2644901432
  0
ARC
  5
2D6
100
AcDbEntity
  8
0
100
AcDbCircle
 62
7
  6
CONTINUOUS
 10
87.8380482384
 20
-868.7054901961
 40
1050.3
100
AcDbArc
 50
86.7700343745
 51
88.5742821036
  0
ARC
  5
2D7
100
AcDbEntity
  8
0
100
AcDbCircle
 62
7
  6
CONTINUOUS
 10
87.8380482384
 20
-868.7054901961
 40
1050.3
100
AcDbArc
 50
88.8472935521
 51
90.6480514981
  0
ARC
  5
2D8
100
AcDbEntity
  8
0
100
AcDbCircle
 62
7
  6
CONTINUOUS
 10
87.8380482384
 20
-868.7054901961
 40
1047.5
100
AcDbArc
 50
90.9199011443
 51
91.4496421587
  0
ARC
  5
2D9
100
AcDbEntity
  8
0
100
AcDbCircle
 62
7
  6
CONTINUOUS
 10
87.8380482384
 20
-868.7054901961
 40
1047.5
100
AcDbArc
 50
88.8402613951
 51
90.6463880178
  0
ARC
  5
2DA
100
AcDbEntity
  8
0
100
AcDbCircle
 62
7
  6
CONTINUOUS
 10
87.8380482384
 20
-868.7054901961
 40
1047.5
100
AcDbArc
 50
86.7556019708
 51
88.566363399
  0
ARC
  5
2DB
100
AcDbEntity
  8
0
100
AcDbCircle
 62
7
  6
CONTINUOUS
 10
87.8380482384
 20
-868.7054901961
 40
1047.5
100
AcDbArc
 50
86.0586621619
 51
86.4806076824
  0
ARC
  5
2DC
100
AcDbEntity
  8
0
100
AcDbCircle
 62
7
  6
CONTINUOUS
 10
87.8380482384
 20
-868.7054901961
 40
1044.7
100
AcDbArc
 50
90.9174625928
 51
91.4535283153
  0
ARC
  5
2DD
100
AcDbEntity
  8
0
100
AcDbCircle
 62
7
  6
CONTINUOUS
 10
87.8380482384
 20
-868.7054901961
 40
1044.7
100
AcDbArc
 50
88.8314257402
 51
90.6431655148
  0
ARC
  5
2DE
100
AcDbEntity
  8
0
100
AcDbCircle
 62
7
  6
CONTINUOUS
 10
87.8380482384
 20
-868.7054901961
 40
1044.7
100
AcDbArc
 50
86.7389772675
 51
88.5565978047
  0
ARC
  5
2DF
100
AcDbEntity
  8
0
100
AcDbCircle
 62
7
  6
CONTINUOUS
 10
87.8380482384
 20
-868.7054901961
 40
1044.7
100
AcDbArc
 50
86.0480818457
 51
86.4628088738
  0
ARC
  5
2E0
100
AcDbEntity
  8
0
100
AcDbCircle
 62
7
  6
CONTINUOUS
 10
353.4180482384
 20
186.2796630644
 40
282.5
100
AcDbArc
 50
180.4098906983
 51
180.9777848392
  0
ARC
  5
2E1
100
AcDbEntity
  8
0
100
AcDbCircle
 62
7
  6
CONTINUOUS
 10
353.4180482384
 20
186.2796630644
 40
282.5
100
AcDbArc
 50
179.2333168072
 51
179.8013757608
  0
ARC
  5
2E2
100
AcDbEntity
  8
0
100
AcDbCircle
 62
7
  6
CONTINUOUS
 10
353.4180482384
 20
186.2796630644
 40
282.5
100
AcDbArc
 50
181.5456846161
 51
182.1136461019
  0
ARC
  5
2E3
100
AcDbEntity
  8
0
100
AcDbCircle
 62
7
  6
CONTINUOUS
 10
353.4180482384
 20
186.2796630644
 40
282.5
100
AcDbArc
 50
173.3302556613
 51
173.9026379124
  0
ARC
  5
2E4
100
AcDbEntity
  8
0
100
AcDbCircle
 62
7
  6
CONTINUOUS
 10
353.4180482384
 20
186.2796630644
 40
282.5
100
AcDbArc
 50
174.5151623928
 51
175.0862165473
  0
ARC
  5
2E5
100
AcDbEntity
  8
0
100
AcDbCircle
 62
7
  6
CONTINUOUS
 10
353.4180482384
 20
186.2796630644
 40
282.5
100
AcDbArc
 50
175.6974422983
 51
176.2674000421
  0
ARC
  5
2E6
100
AcDbEntity
  8
0
100
AcDbCircle
 62
7
  6
CONTINUOUS
 10
353.4180482384
 20
186.2796630644
 40
282.5
100
AcDbArc
 50
176.8775749584
 51
177.4466675622
  0
ARC
  5
2E7
100
AcDbEntity
  8
0
100
AcDbCircle
 62
7
  6
CONTINUOUS
 10
353.4180482384
 20
186.2796630644
 40
282.5
100
AcDbArc
 50
178.0560395711
 51
178.6244987836
  0
ARC
  5
2E8
100
AcDbEntity
  8
0
100
AcDbCircle
 62
7
  6
CONTINUOUS
 10
353.4180482384
 20
186.2796630644
 40
277.5
100
AcDbArc
 50
179.2054620874
 51
179.7837006863
  0
ARC
  5
2E9
100
AcDbEntity
  8
0
100
AcDbCircle
 62
7
  6
CONTINUOUS
 10
353.4180482384
 20
186.2796630644
 40
277.5
100
AcDbArc
 50
180.4031464875
 51
180.9812686882
  0
ARC
  5
2EA
100
AcDbEntity
  8
0
100
AcDbCircle
 62
7
  6
CONTINUOUS
 10
353.4180482384
 20
186.2796630644
 40
277.5
100
AcDbArc
 50
181.5594249095
 51
182.1376745583
  0
ARC
  5
2EB
100
AcDbEntity
  8
0
100
AcDbCircle
 62
7
  6
CONTINUOUS
 10
353.4180482384
 20
186.2796630644
 40
277.5
100
AcDbArc
 50
173.1974856532
 51
173.7800060211
  0
ARC
  5
2EC
100
AcDbEntity
  8
0
100
AcDbCircle
 62
7
  6
CONTINUOUS
 10
353.4180482384
 20
186.2796630644
 40
277.5
100
AcDbArc
 50
174.4033814748
 51
174.9845558779
  0
ARC
  5
2ED
100
AcDbEntity
  8
0
100
AcDbCircle
 62
7
  6
CONTINUOUS
 10
353.4180482384
 20
186.2796630644
 40
277.5
100
AcDbArc
 50
175.6066204246
 51
176.1866935532
  0
ARC
  5
2EE
100
AcDbEntity
  8
0
100
AcDbCircle
 62
7
  6
CONTINUOUS
 10
353.4180482384
 20
186.2796630644
 40
277.5
100
AcDbArc
 50
176.8077090312
 51
177.3869252004
  0
ARC
  5
2EF
100
AcDbEntity
  8
0
100
AcDbCircle
 62
7
  6
CONTINUOUS
 10
353.4180482384
 20
186.2796630644
 40
277.5
100
AcDbArc
 50
178.0071535684
 51
178.5857576958
  0
ARC
  5
2F0
100
AcDbEntity
  8
0
100
AcDbCircle
 62
7
  6
CONTINUOUS
 10
353.4180482384
 20
186.2796630644
 40
244.5
100
AcDbArc
 50
179.1318731019
 51
179.7880610106
  0
ARC
  5
2F1
100
AcDbEntity
  8
0
100
AcDbCircle
 62
7
  6
CONTINUOUS
 10
353.4180482384
 20
186.2796630644
 40
244.5
100
AcDbArc
 50
180.4912580461
 51
181.1477975073
  0
ARC
  5
2F2
100
AcDbEntity
  8
0
100
AcDbCircle
 62
7
  6
CONTINUOUS
 10
353.4180482384
 20
186.2796630644
 40
244.5
100
AcDbArc
 50
181.8046422379
 51
182.4618819397
  0
ARC
  5
2F3
100
AcDbEntity
  8
0
100
AcDbCircle
 62
7
  6
CONTINUOUS
 10
353.4180482384
 20
186.2796630644
 40
244.5
100
AcDbArc
 50
172.3221606615
 51
172.9820856853
  0
ARC
  5
2F4
100
AcDbEntity
  8
0
100
AcDbCircle
 62
7
  6
CONTINUOUS
 10
353.4180482384
 20
186.2796630644
 40
244.5
100
AcDbArc
 50
173.6883130077
 51
174.3467680986
  0
ARC
  5
2F5
100
AcDbEntity
  8
0
100
AcDbCircle
 62
7
  6
CONTINUOUS
 10
353.4180482384
 20
186.2796630644
 40
244.5
100
AcDbArc
 50
175.0516135098
 51
175.7089587873
  0
ARC
  5
2F6
100
AcDbEntity
  8
0
100
AcDbCircle
 62
7
  6
CONTINUOUS
 10
353.4180482384
 20
186.2796630644
 40
244.5
100
AcDbArc
 50
176.4128079917
 51
177.0694037744
  0
ARC
  5
2F7
100
AcDbEntity
  8
0
100
AcDbCircle
 62
7
  6
CONTINUOUS
 10
353.4180482384
 20
186.2796630644
 40
244.5
100
AcDbArc
 50
177.7726436833
 51
178.4288523521
  0
ARC
  5
2F8
100
AcDbEntity
  8
0
100
AcDbCircle
 62
7
  6
CONTINUOUS
 10
353.4180482384
 20
186.2796630644
 40
239.5
100
AcDbArc
 50
179.1404193024
 51
179.81035009
  0
ARC
  5
2F9
100
AcDbEntity
  8
0
100
AcDbCircle
 62
7
  6
CONTINUOUS
 10
353.4180482384
 20
186.2796630644
 40
239.5
100
AcDbArc
 50
180.5283225165
 51
181.1987062086
  0
ARC
  5
2FA
100
AcDbEntity
  8
0
100
AcDbCircle
 62
7
  6
CONTINUOUS
 10
353.4180482384
 20
186.2796630644
 40
239.5
100
AcDbArc
 50
181.8694534704
 51
182.5406602931
  0
ARC
  5
2FB
100
AcDbEntity
  8
0
100
AcDbCircle
 62
7
  6
CONTINUOUS
 10
353.4180482384
 20
186.2796630644
 40
239.5
100
AcDbArc
 50
172.1896725918
 51
172.8632008222
  0
ARC
  5
2FC
100
AcDbEntity
  8
0
100
AcDbCircle
 62
7
  6
CONTINUOUS
 10
353.4180482384
 20
186.2796630644
 40
239.5
100
AcDbArc
 50
173.5839895172
 51
174.2560284097
  0
ARC
  5
2FD
100
AcDbEntity
  8
0
100
AcDbCircle
 62
7
  6
CONTINUOUS
 10
353.4180482384
 20
186.2796630644
 40
239.5
100
AcDbArc
 50
174.9754269319
 51
175.6463600092
  0
ARC
  5
2FE
100
AcDbEntity
  8
0
100
AcDbCircle
 62
7
  6
CONTINUOUS
 10
353.4180482384
 20
186.2796630644
 40
239.5
100
AcDbArc
 50
176.3647791975
 51
177.0349903433
  0
ARC
  5
2FF
100
AcDbEntity
  8
0
100
AcDbCircle
 62
7
  6
CONTINUOUS
 10
353.4180482384
 20
186.2796630644
 40
239.5
100
AcDbArc
 50
177.7528425275
 51
178.4227180575
  0
ARC
  5
300
100
AcDbEntity
  8
0
100
AcDbCircle
 62
7
  6
CONTINUOUS
 10
353.4180482384
 20
186.2796630644
 40
206.5
100
AcDbArc
 50
179.371614821
 51
180.1495531347
  0
ARC
  5
301
100
AcDbEntity
  8
0
100
AcDbCircle
 62
7
  6
CONTINUOUS
 10
353.4180482384
 20
186.2796630644
 40
206.5
100
AcDbArc
 50
182.543513003
 51
183.3249624629
  0
ARC
  5
302
100
AcDbEntity
  8
0
100
AcDbCircle
 62
7
  6
CONTINUOUS
 10
353.4180482384
 20
186.2796630644
 40
206.5
100
AcDbArc
 50
171.3160677953
 51
172.0960083238
  0
ARC
  5
303
100
AcDbEntity
  8
0
100
AcDbCircle
 62
7
  6
CONTINUOUS
 10
353.4180482384
 20
186.2796630644
 40
206.5
100
AcDbArc
 50
172.9307143321
 51
173.7090405188
  0
ARC
  5
304
100
AcDbEntity
  8
0
100
AcDbCircle
 62
7
  6
CONTINUOUS
 10
353.4180482384
 20
186.2796630644
 40
206.5
100
AcDbArc
 50
174.5423394174
 51
175.3196534347
  0
ARC
  5
305
100
AcDbEntity
  8
0
100
AcDbCircle
 62
7
  6
CONTINUOUS
 10
353.4180482384
 20
186.2796630644
 40
206.5
100
AcDbArc
 50
176.1521911981
 51
176.9290977685
  0
ARC
  5
306
100
AcDbEntity
  8
0
100
AcDbCircle
 62
7
  6
CONTINUOUS
 10
353.4180482384
 20
186.2796630644
 40
206.5
100
AcDbArc
 50
177.7615254514
 51
178.5386362648
  0
ARC
  5
307
100
AcDbEntity
  8
0
100
AcDbCircle
 62
7
  6
CONTINUOUS
 10
353.4180482384
 20
186.2796630644
 40
206.5
100
AcDbArc
 50
180.9837584824
 51
181.7631640021
  0
ARC
  5
308
100
AcDbEntity
  8
0
100
AcDbCircle
 62
7
  6
CONTINUOUS
 10
353.4180482384
 20
186.2796630644
 40
201.5
100
AcDbArc
 50
179.4388161006
 51
180.2363241275
  0
ARC
  5
309
100
AcDbEntity
  8
0
100
AcDbCircle
 62
7
  6
CONTINUOUS
 10
353.4180482384
 20
186.2796630644
 40
201.5
100
AcDbArc
 50
181.0916119795
 51
181.8908152001
  0
ARC
  5
30A
100
AcDbEntity
  8
0
100
AcDbCircle
 62
7
  6
CONTINUOUS
 10
353.4180482384
 20
186.2796630644
 40
201.5
100
AcDbArc
 50
177.7884653737
 51
178.5849706681
  0
ARC
  5
30B
100
AcDbEntity
  8
0
100
AcDbCircle
 62
7
  6
CONTINUOUS
 10
353.4180482384
 20
186.2796630644
 40
201.5
100
AcDbArc
 50
176.1391553148
 51
176.9353313665
  0
ARC
  5
30C
100
AcDbEntity
  8
0
100
AcDbCircle
 62
7
  6
CONTINUOUS
 10
353.4180482384
 20
186.2796630644
 40
201.5
100
AcDbArc
 50
174.4895121305
 51
175.2860190277
  0
ARC
  5
30D
100
AcDbEntity
  8
0
100
AcDbCircle
 62
7
  6
CONTINUOUS
 10
353.4180482384
 20
186.2796630644
 40
201.5
100
AcDbArc
 50
172.8381817205
 51
173.6356713792
  0
ARC
  5
30E
100
AcDbEntity
  8
0
100
AcDbCircle
 62
7
  6
CONTINUOUS
 10
353.4180482384
 20
186.2796630644
 40
201.5
100
AcDbArc
 50
171.183819198
 51
171.982940371
  0
ARC
  5
30F
100
AcDbEntity
  8
0
100
AcDbCircle
 62
7
  6
CONTINUOUS
 10
353.4180482384
 20
186.2796630644
 40
201.5
100
AcDbArc
 50
182.6910917889
 51
183.4926122138
  0
ENDSEC
  0
SECTION
  2
OBJECTS
  0
DICTIONARY
  5
C
100
AcDbDictionary
280
0
281
1
  3
ACAD_GROUP
350
D
  3
ACAD_MLINESTYLE
350
17
  3
ACAD_LAYOUT
350
1A
  3
ACAD_PLOTSETTINGS
350
19
  3
ACAD_PLOTSTYLENAME
350
E
  0
DICTIONARY
  5
D
102
{ACAD_REACTORS
330
C
102
}
100
AcDbDictionary
280
0
281
1
  0
ACDBDICTIONARYWDFLT
  5
E
102
{ACAD_REACTORS
330
C
102
}
100
AcDbDictionary
281
1
  3
Normal
350
F
100
AcDbDictionaryWithDefault
340
F
  0
DICTIONARY
  5
17
102
{ACAD_REACTORS
330
C
102
}
100
AcDbDictionary
280
0
281
1
  3
Standard
350
18
  0
DICTIONARY
  5
19
102
{ACAD_REACTORS
330
C
102
}
100
AcDbDictionary
281
1
  0
DICTIONARY
  5
1A
102
{ACAD_REACTORS
330
C
102
}
100
AcDbDictionary
281
1
  3
Model
350
310
  3
Layout1
350
311
  0
ACDBPLACEHOLDER
  5
F
102
{ACAD_REACTORS
330
E
102
}
  0
MLINESTYLE
  5
18
102
{ACAD_REACTORS
330
17
102
}
100
AcDbMlineStyle
  2
STANDARD
 70
0
  3

 62
256
 51
90.0
 52
90.0
 71
2
 49
0.5
 62
256
  6
BYLAYER
 49
-0.5
 62
256
  6
BYLAYER
  0
LAYOUT
  5
310
102
{ACAD_REACTORS
330
1A
102
}
100
AcDbPlotSettings
  1

  2
none_device
  4

  6

 40
0.0
 41
0.0
 42
0.0
 43
0.0
 44
210.0
 45
297.0
 46
0.0
 47
0.0
 48
0.0
 49
0.0
140
0.0
141
0.0
142
1.0
143
1.0
 70
1024
 72
1
 73
0
 74
0
  7

 75
0
147
1.0
148
0.0
149
0.0
100
AcDbLayout
  1
Model
 70
0
 71
0
 10
0.0
 20
0.0
 11
210.0
 21
297.0
 12
0.0
 22
0.0
 32
0.0
 14
0.0
 24
0.0
 34
0.0
 15
0.0
 25
0.0
 35
0.0
146
0.0
 13
0.0
 23
0.0
 33
0.0
 16
1.0
 26
0.0
 36
0.0
 17
0.0
 27
1.0
 37
0.0
 76
0
330
210
345
0
346
0
  0
LAYOUT
  5
311
102
{ACAD_REACTORS
330
1A
102
}
100
AcDbPlotSettings
  1

  2
none_device
  4

  6

 40
0.0
 41
0.0
 42
0.0
 43
0.0
 44
210.0
 45
297.0
 46
0.0
 47
0.0
 48
0.0
 49
0.0
140
0.0
141
0.0
142
1.0
143
1.0
 70
0
 72
1
 73
0
 74
0
  7

 75
0
147
1.0
148
0.0
149
0.0
100
AcDbLayout
  1
Layout1
 70
0
 71
1
 10
0.0
 20
0.0
 11
210.0
 21
297.0
 12
0.0
 22
0.0
 32
0.0
 14
0.0
 24
0.0
 34
0.0
 15
0.0
 25
0.0
 35
0.0
146
0.0
 13
0.0
 23
0.0
 33
0.0
 16
1.0
 26
0.0
 36
0.0
 17
0.0
 27
1.0
 37
0.0
 76
0
330
211
345
0
346
0
  0
ENDSEC
  0
EOF
