999
DXF file: C:\Users\sesa63760\Dev\_Creo\CAD\MCADID0004160_3D-CAD\drw0001_1.dxf
999
Pro/ENGINEER 2019471 by Parametric Technology Corporation
  0
SECTION
  2
HEADER
  9
$ACADVER
  1
AC1024
  9
$DWGCODEPAGE
  3
ANSI_1252
  9
$EXTMAX
 10
361.0299213463
 20
510.5994601898
 30
0.0
  9
$EXTMIN
 10
0.0
 20
0.0
 30
0.0
  9
$LIMMIN
 10
0.0
 20
0.0
  9
$LIMMAX
 10
361.0299213463
 20
510.5994601898
  9
$VIEWCTR
 10
180.5149606731
 20
255.2997300949
  9
$VIEWSIZE
 40
510.5994601898
  9
$CLAYER
  8
0
  9
$LTSCALE
 40
33.2835203679
  9
$CELTYPE
  6
BYLAYER
  9
$DIMSCALE
 40
1.0
  9
$DIMASZ
 40
4.2979752541
  9
$DIMEXO
 40
1.0
  9
$DIMDLI
 40
22.9958867997
  9
$DIMEXE
 40
1.0
  9
$DIMCEN
 40
5.446394242
  9
$DIMLFAC
 40
1.0
  9
$DIMBLK
  1
_FILLED
  9
$DIMALT
 70
0
  9
$DIMALTF
 40
0.0393700787
  9
$DIMTXT
 40
6.0171653558
  9
$DIMTOL
 70
1
  9
$DIMLIM
 70
0
  9
$DIMTFAC
 40
1.0
  9
$DIMTP
 40
0.01
  9
$DIMTM
 40
0.01
  9
$DIMGAP
 40
0.625
  9
$DIMDSEP
 70
46
  9
$AUNITS
 70
0
  9
$PDMODE
 70
3
  9
$PDSIZE
 40
0.3125
  9
$HANDSEED
  5
54D
  9
$TILEMODE
 70
1
  9
$MEASUREMENT
 70
1
  9
$INSUNITS
 70
4
  0
ENDSEC
  0
SECTION
  2
CLASSES
  0
CLASS
  1
ACDBDICTIONARYWDFLT
  2
AcDbDictionaryWithDefault
  3
AutoCAD 2000
 90
0
 91
1
280
0
281
0
  0
CLASS
  1
ACDBPLACEHOLDER
  2
AcDbPlaceHolder
  3
AutoCAD 2000
 90
0
 91
1
280
0
281
0
  0
CLASS
  1
LAYOUT
  2
AcDbLayout
  3
AutoCAD 2000
 90
0
 91
0
280
0
281
0
  0
ENDSEC
  0
SECTION
  2
TABLES
  0
TABLE
  2
VPORT
  5
8
100
AcDbSymbolTable
 70
2
  0
VPORT
  5
1F4
100
AcDbSymbolTableRecord
100
AcDbViewportTableRecord
  2
*ACTIVE
 70
0
 10
0.0
 20
0.0
 11
1.0
 21
1.0
 12
180.5149606731
 22
255.2997300949
 13
0.0
 23
0.0
 14
1.0
 24
1.0
 15
0.0
 25
0.0
 16
0.0
 26
0.0
 36
1.0
 17
0.0
 27
0.0
 37
0.0
 40
510.5994601898
 41
0.7070707071
 42
50.0
 43
0.0
 44
0.0
 50
0.0
 51
0.0
 71
0
 72
100
 73
1
 74
1
 75
0
 76
0
 77
0
 78
0
  0
ENDTAB
  0
TABLE
  2
LTYPE
  5
5
100
AcDbSymbolTable
 70
6
  0
LTYPE
  5
14
100
AcDbSymbolTableRecord
100
AcDbLinetypeTableRecord
  2
BYBLOCK
 70
0
  3

 72
65
 73
0
 40
0.0
  0
LTYPE
  5
15
100
AcDbSymbolTableRecord
100
AcDbLinetypeTableRecord
  2
BYLAYER
 70
0
  3

 72
65
 73
0
 40
0.0
  0
LTYPE
  5
16
100
AcDbSymbolTableRecord
100
AcDbLinetypeTableRecord
  2
CONTINUOUS
 70
64
  3
Solid line
 72
65
 73
0
 40
0.0
  0
LTYPE
  5
1F5
100
AcDbSymbolTableRecord
100
AcDbLinetypeTableRecord
  2
CENTER
 70
64
  3
____ _ ____ _ ____ _ ____ _ ____ _ ____ _ ____
 72
65
 73
4
 40
0.6
 49
0.375
 74
0
 49
-0.075
 74
0
 49
0.075
 74
0
 49
-0.075
 74
0
  0
LTYPE
  5
1F6
100
AcDbSymbolTableRecord
100
AcDbLinetypeTableRecord
  2
HIDDEN
 70
64
  3
- - - - - - - - - - - - - - - - - - - -
 72
65
 73
2
 40
0.2
 49
0.1
 74
0
 49
-0.1
 74
0
  0
LTYPE
  5
1F7
100
AcDbSymbolTableRecord
100
AcDbLinetypeTableRecord
  2
PHANTOM
 70
64
  3
_____ _ _ _____ _ _ _____ _ _ _____
 72
65
 73
6
 40
0.8
 49
0.45
 74
0
 49
-0.05
 74
0
 49
0.1
 74
0
 49
-0.05
 74
0
 49
0.1
 74
0
 49
-0.05
 74
0
  0
LTYPE
  5
1F8
100
AcDbSymbolTableRecord
100
AcDbLinetypeTableRecord
  2
DOT
 70
64
  3
. . . . . . . . . . . . . . . . . . . .
 72
65
 73
2
 40
0.2
 49
0.1
 74
0
 49
-0.1
 74
0
  0
LTYPE
  5
1F9
100
AcDbSymbolTableRecord
100
AcDbLinetypeTableRecord
  2
DASHED
 70
64
  3
- - - - - - - - - - - - - - - - - - - -
 72
65
 73
2
 40
0.2
 49
0.1
 74
0
 49
-0.1
 74
0
  0
ENDTAB
  0
TABLE
  2
LAYER
  5
2
100
AcDbSymbolTable
 70
36
  0
LAYER
  5
10
100
AcDbSymbolTableRecord
100
AcDbLayerTableRecord
  2
0
 70
0
 62
7
  6
CONTINUOUS
370
-3
390
F
  0
LAYER
  5
1FA
100
AcDbSymbolTableRecord
100
AcDbLayerTableRecord
  2
DEFAULT_1
 70
0
 62
7
  6
CENTER
370
-3
390
F
  0
LAYER
  5
1FB
100
AcDbSymbolTableRecord
100
AcDbLayerTableRecord
  2
DEFAULT_2
 70
0
 62
7
  6
HIDDEN
370
-3
390
F
  0
LAYER
  5
1FC
100
AcDbSymbolTableRecord
100
AcDbLayerTableRecord
  2
DEFAULT_3
 70
0
 62
7
  6
PHANTOM
370
-3
390
F
  0
LAYER
  5
1FD
100
AcDbSymbolTableRecord
100
AcDbLayerTableRecord
  2
00_COMPONENTS
 70
0
 62
7
  6
CONTINUOUS
370
-3
390
F
  0
LAYER
  5
1FE
100
AcDbSymbolTableRecord
100
AcDbLayerTableRecord
  2
01_1_DEFAULT_DATUMS
 70
0
 62
7
  6
CONTINUOUS
370
-3
390
F
  0
LAYER
  5
1FF
100
AcDbSymbolTableRecord
100
AcDbLayerTableRecord
  2
01_PLANES
 70
0
 62
7
  6
CONTINUOUS
370
-3
390
F
  0
LAYER
  5
200
100
AcDbSymbolTableRecord
100
AcDbLayerTableRecord
  2
02_COORD_SYS
 70
0
 62
7
  6
CONTINUOUS
370
-3
390
F
  0
LAYER
  5
201
100
AcDbSymbolTableRecord
100
AcDbLayerTableRecord
  2
03_AXES
 70
0
 62
7
  6
CONTINUOUS
370
-3
390
F
  0
LAYER
  5
202
100
AcDbSymbolTableRecord
100
AcDbLayerTableRecord
  2
04_POINTS
 70
0
 62
7
  6
CONTINUOUS
370
-3
390
F
  0
LAYER
  5
203
100
AcDbSymbolTableRecord
100
AcDbLayerTableRecord
  2
05_CURVES
 70
0
 62
7
  6
CONTINUOUS
370
-3
390
F
  0
LAYER
  5
204
100
AcDbSymbolTableRecord
100
AcDbLayerTableRecord
  2
06_SURFS
 70
0
 62
7
  6
CONTINUOUS
370
-3
390
F
  0
LAYER
  5
205
100
AcDbSymbolTableRecord
100
AcDbLayerTableRecord
  2
07_COSMETICS
 70
0
 62
7
  6
CONTINUOUS
370
-3
390
F
  0
LAYER
  5
206
100
AcDbSymbolTableRecord
100
AcDbLayerTableRecord
  2
10_NOTES
 70
0
 62
7
  6
CONTINUOUS
370
-3
390
F
  0
LAYER
  5
207
100
AcDbSymbolTableRecord
100
AcDbLayerTableRecord
  2
11_NOTES_PUB
 70
0
 62
7
  6
CONTINUOUS
370
-3
390
F
  0
LAYER
  5
208
100
AcDbSymbolTableRecord
100
AcDbLayerTableRecord
  2
13_REF_GTOL
 70
0
 62
7
  6
CONTINUOUS
370
-3
390
F
  0
LAYER
  5
209
100
AcDbSymbolTableRecord
100
AcDbLayerTableRecord
  2
16_MISC
 70
0
 62
7
  6
CONTINUOUS
370
-3
390
F
  0
LAYER
  5
20A
100
AcDbSymbolTableRecord
100
AcDbLayerTableRecord
  2
17_NO_PRINT
 70
0
 62
7
  6
CONTINUOUS
370
-3
390
F
  0
LAYER
  5
20B
100
AcDbSymbolTableRecord
100
AcDbLayerTableRecord
  2
18_DATUM_CAMS_JOINTS
 70
0
 62
7
  6
CONTINUOUS
370
-3
390
F
  0
LAYER
  5
20C
100
AcDbSymbolTableRecord
100
AcDbLayerTableRecord
  2
19_DATUM_FUNCTIONAL
 70
0
 62
7
  6
CONTINUOUS
370
-3
390
F
  0
LAYER
  5
20D
100
AcDbSymbolTableRecord
100
AcDbLayerTableRecord
  2
20_DATUM_KINEMATIC_SCHEME
 70
0
 62
7
  6
CONTINUOUS
370
-3
390
F
  0
ENDTAB
  0
TABLE
  2
STYLE
  5
3
100
AcDbSymbolTable
 70
1
  0
STYLE
  5
11
100
AcDbSymbolTableRecord
100
AcDbTextStyleTableRecord
  2
STANDARD
 70
0
 40
0.0
 41
1.0
 50
0.0
 71
0
 42
0.2
  3
ARIAL.TTF
  4

  0
STYLE
  5
20E
100
AcDbSymbolTableRecord
100
AcDbTextStyleTableRecord
  2
TEXTSTYLE_1
 70
0
 40
0.0
 41
0.8
 50
0.0
 71
0
 42
0.2
  3
gdt
  4

  0
ENDTAB
  0
TABLE
  2
VIEW
  5
6
100
AcDbSymbolTable
 70
0
  0
ENDTAB
  0
TABLE
  2
UCS
  5
7
100
AcDbSymbolTable
 70
0
  0
ENDTAB
  0
TABLE
  2
APPID
  5
9
100
AcDbSymbolTable
 70
1
  0
APPID
  5
20F
100
AcDbSymbolTableRecord
100
AcDbRegAppTableRecord
  2
ACAD
 70
0
  0
ENDTAB
  0
TABLE
  2
BLOCK_RECORD
  5
1
100
AcDbSymbolTable
 70
0
  0
BLOCK_RECORD
  5
210
100
AcDbSymbolTableRecord
100
AcDbBlockTableRecord
  2
*Model_Space
  0
BLOCK_RECORD
  5
211
100
AcDbSymbolTableRecord
100
AcDbBlockTableRecord
  2
*Paper_Space
  0
BLOCK_RECORD
  5
212
100
AcDbSymbolTableRecord
100
AcDbBlockTableRecord
  2
_FILLED
  0
ENDTAB
  0
TABLE
  2
DIMSTYLE
  5
A
100
AcDbSymbolTable
 70
1
100
AcDbDimStyleTable
 71
0
  0
DIMSTYLE
105
213
100
AcDbSymbolTableRecord
100
AcDbDimStyleTableRecord
  2
STANDARD
 70
0
  3

  4

 40
1.0
 41
4.2979752541
 42
1.0
 43
0.38
 44
1.0
 45
0.0
 46
0.0
 47
0.01
 48
0.01
140
6.0171653558
141
0.09
142
0.0
143
25.4
144
1.0
145
0.0
146
1.0
147
0.625
 71
1
 72
0
 73
0
 74
0
 75
0
 76
0
 77
1
 78
8
 79
2
170
0
171
1
172
0
173
0
174
0
175
0
176
0
177
0
178
0
270
2
179
2
271
2
272
2
273
2
274
2
275
0
280
0
281
0
282
0
283
1
284
8
285
0
286
0
287
3
288
0
340
11
278
46
341
212
342
212
343
212
344
212
  0
ENDTAB
  0
ENDSEC
  0
SECTION
  2
BLOCKS
  0
BLOCK
  5
20
100
AcDbEntity
  8
0
100
AcDbBlockBegin
  2
*Model_Space
 70
0
 10
0.0
 20
0.0
 30
0.0
  3
*Model_Space
  1

  0
ENDBLK
  5
21
100
AcDbEntity
  8
0
100
AcDbBlockEnd
  0
BLOCK
  5
1C
100
AcDbEntity
  8
0
100
AcDbBlockBegin
  2
*Paper_Space
 70
0
 10
0.0
 20
0.0
 30
0.0
  3
*Paper_Space
  1

  0
ENDBLK
  5
1D
100
AcDbEntity
  8
0
100
AcDbBlockEnd
  0
BLOCK
  5
214
100
AcDbEntity
  8
0
100
AcDbBlockBegin
  2
_FILLED
 70
64
 10
0.0
 20
0.0
  3
_FILLED
  1

  0
SOLID
  5
215
100
AcDbEntity
  8
0
  6
BYBLOCK
 62
0
100
AcDbTrace
 10
0.0
 20
0.0
 11
-1.0
 21
0.25
 12
-1.0
 22
-0.25
 13
-1.0
 23
-0.25
  0
ENDBLK
  5
216
100
AcDbEntity
  8
0
  6
BYBLOCK
 62
0
100
AcDbBlockEnd
  0
ENDSEC
  0
SECTION
  2
ENTITIES
  0
LINE
  5
217
100
AcDbEntity
  8
0
100
AcDbLine
 62
7
  6
BYLAYER
 10
169.9417250187
 20
467.6114596038
 11
167.7850583148
 21
466.3663149342
  0
LINE
  5
218
100
AcDbEntity
  8
0
100
AcDbLine
 62
7
  6
BYLAYER
 10
175.4571349484
 20
470.7957640037
 11
177.6138016519
 21
472.040908673
  0
LINE
  5
219
100
AcDbEntity
  8
0
100
AcDbLine
 62
7
  6
BYLAYER
 10
177.6491680309
 20
470.5099995548
 11
176.5178018913
 21
469.8568089086
  0
LINE
  5
21A
100
AcDbEntity
  8
0
100
AcDbLine
 62
7
  6
BYLAYER
 10
171.2852334959
 20
466.83580217
 11
170.4367088913
 21
466.3459091853
  0
LINE
  5
21B
100
AcDbEntity
  8
0
100
AcDbLine
 62
7
  6
BYLAYER
 10
167.5507460948
 20
463.7815282671
 11
166.9472672706
 21
463.4331116853
  0
LINE
  5
21C
100
AcDbEntity
  8
0
100
AcDbLine
 62
7
  6
BYLAYER
 10
180.3008505548
 20
471.1427605687
 11
180.3401866135
 21
471.1654711172
  0
LINE
  5
21D
100
AcDbEntity
  8
0
100
AcDbLine
 62
7
  6
BYLAYER
 10
166.191605717
 20
462.9248427098
 11
166.2424051121
 21
462.9541715792
  0
LINE
  5
21E
100
AcDbEntity
  8
0
100
AcDbLine
 62
7
  6
BYLAYER
 10
181.7478901357
 20
471.906214095
 11
181.7986895308
 21
471.9355429644
  0
LINE
  5
21F
100
AcDbEntity
  8
0
100
AcDbLine
 62
7
  6
BYLAYER
 10
171.9923502866
 20
465.4477795254
 11
179.2048094262
 21
469.6118698949
  0
LINE
  5
220
100
AcDbEntity
  8
0
100
AcDbLine
 62
7
  6
BYLAYER
 10
166.2129510426
 20
461.9723503647
 11
166.5557702713
 21
462.1702759572
  0
LINE
  5
221
100
AcDbEntity
  8
0
100
AcDbLine
 62
7
  6
BYLAYER
 10
167.5493747819
 20
462.7439303646
 11
167.8921940105
 21
462.9418559571
  0
LINE
  5
222
100
AcDbEntity
  8
0
100
AcDbLine
 62
7
  6
BYLAYER
 10
181.7692354614
 20
470.9537217499
 11
182.11205469
 21
471.1516473423
  0
LINE
  5
223
100
AcDbEntity
  8
0
100
AcDbLine
 62
7
  6
BYLAYER
 10
183.1056592006
 20
471.7253017498
 11
183.4484784292
 21
471.9232273423
  0
LINE
  5
224
100
AcDbEntity
  8
0
100
AcDbLine
 62
7
  6
BYLAYER
 10
183.85283311
 20
471.6897783398
 11
183.5100138814
 21
471.4918527474
  0
LINE
  5
225
100
AcDbEntity
  8
0
100
AcDbLine
 62
7
  6
BYLAYER
 10
182.5164093707
 20
470.9181983399
 11
182.1735901421
 21
470.7202727474
  0
LINE
  5
226
100
AcDbEntity
  8
0
100
AcDbLine
 62
7
  6
BYLAYER
 10
168.2965486913
 20
462.7084069546
 11
167.9537294627
 21
462.5104813622
  0
LINE
  5
227
100
AcDbEntity
  8
0
100
AcDbLine
 62
7
  6
BYLAYER
 10
166.960124952
 20
461.9368269547
 11
166.6173057234
 21
461.7389013623
  0
LINE
  5
228
100
AcDbEntity
  8
0
100
AcDbLine
 62
7
  6
BYLAYER
 10
183.3879762672
 20
471.0743154246
 11
183.1116197519
 21
470.9147618686
  0
LINE
  5
229
100
AcDbEntity
  8
0
100
AcDbLine
 62
7
  6
BYLAYER
 10
167.8316918484
 20
462.0929440394
 11
167.5553353332
 21
461.9333904834
  0
LINE
  5
22A
100
AcDbEntity
  8
0
100
AcDbLine
 62
7
  6
BYLAYER
 10
183.831501344
 20
470.7619250676
 11
183.7807019489
 21
470.7325961982
  0
LINE
  5
22B
100
AcDbEntity
  8
0
100
AcDbLine
 62
7
  6
BYLAYER
 10
168.2752169253
 20
461.7805536824
 11
168.2244175302
 21
461.7512248131
  0
LINE
  5
22C
100
AcDbEntity
  8
0
100
AcDbLine
 62
7
  6
BYLAYER
 10
167.5195802279
 20
460.8650435884
 11
169.5528564736
 21
462.0389491689
  0
LINE
  5
22D
100
AcDbEntity
  8
0
100
AcDbLine
 62
7
  6
BYLAYER
 10
185.1091408923
 20
471.0203205541
 11
187.1424171381
 21
472.1942261347
  0
LINE
  5
22E
100
AcDbEntity
  8
0
100
AcDbLine
 62
7
  6
BYLAYER
 10
197.976628705
 20
466.4469456371
 11
197.985230086
 21
466.4519116171
  0
LINE
  5
22F
100
AcDbEntity
  8
0
100
AcDbLine
 62
7
  6
BYLAYER
 10
197.9766334153
 20
465.7937577104
 11
196.0693416321
 21
464.6925888591
  0
LINE
  5
230
100
AcDbEntity
  8
0
100
AcDbLine
 62
7
  6
BYLAYER
 10
180.5130572134
 20
455.7112174739
 11
178.5981068771
 21
454.6056269812
  0
LINE
  5
231
100
AcDbEntity
  8
0
100
AcDbLine
 62
7
  6
BYLAYER
 10
178.5981068771
 20
452.1561197298
 11
180.4327697104
 21
453.2153564877
  0
LINE
  5
232
100
AcDbEntity
  8
0
100
AcDbLine
 62
7
  6
BYLAYER
 10
181.7480196702
 20
453.9435461104
 11
181.7988190653
 21
453.9728749798
  0
LINE
  5
233
100
AcDbEntity
  8
0
100
AcDbLine
 62
7
  6
BYLAYER
 10
197.3043040889
 20
462.9036070033
 11
197.355103484
 21
462.9329358727
  0
LINE
  5
234
100
AcDbEntity
  8
0
100
AcDbLine
 62
7
  6
BYLAYER
 10
173.4635494114
 20
61.9591049813
 11
173.5658881332
 21
61.9026385432
  0
LINE
  5
235
100
AcDbEntity
  8
0
100
AcDbLine
 62
7
  6
BYLAYER
 10
173.4657462839
 20
61.9604309161
 11
173.5677009502
 21
61.9037346894
  0
LINE
  5
236
100
AcDbEntity
  8
0
100
AcDbLine
 62
7
  6
BYLAYER
 10
188.0791140913
 20
47.7835081628
 11
186.9441725656
 21
48.4387521346
  0
LINE
  5
237
100
AcDbEntity
  8
0
100
AcDbLine
 62
7
  6
BYLAYER
 10
167.2852939353
 20
56.6019256482
 11
167.2057193003
 21
56.6545463688
  0
LINE
  5
238
100
AcDbEntity
  8
0
100
AcDbLine
 62
7
  6
BYLAYER
 10
167.285268008
 20
56.6019125892
 11
167.205698359
 21
56.654535805
  0
LINE
  5
239
100
AcDbEntity
  8
0
100
AcDbLine
 62
7
  6
BYLAYER
 10
181.7693649959
 20
452.9910537653
 11
182.1121842245
 21
453.1889793577
  0
LINE
  5
23A
100
AcDbEntity
  8
0
100
AcDbLine
 62
7
  6
BYLAYER
 10
183.1057887352
 20
453.7626337652
 11
183.4486079638
 21
453.9605593576
  0
LINE
  5
23B
100
AcDbEntity
  8
0
100
AcDbLine
 62
7
  6
BYLAYER
 10
197.3256494146
 20
461.9511146582
 11
197.6684686432
 21
462.1490402507
  0
LINE
  5
23C
100
AcDbEntity
  8
0
100
AcDbLine
 62
7
  6
BYLAYER
 10
198.6620731539
 20
462.7226946581
 11
199.0048923825
 21
462.9206202506
  0
LINE
  5
23D
100
AcDbEntity
  8
0
100
AcDbLine
 62
7
  6
BYLAYER
 10
183.8529626445
 20
453.7271103552
 11
183.5101434159
 21
453.5291847627
  0
LINE
  5
23E
100
AcDbEntity
  8
0
100
AcDbLine
 62
7
  6
BYLAYER
 10
182.5165389052
 20
452.9555303553
 11
182.1737196766
 21
452.7576047628
  0
LINE
  5
23F
100
AcDbEntity
  8
0
100
AcDbLine
 62
7
  6
BYLAYER
 10
199.4092470632
 20
462.6871712481
 11
199.0664278346
 21
462.4892456557
  0
LINE
  5
240
100
AcDbEntity
  8
0
100
AcDbLine
 62
7
  6
BYLAYER
 10
198.0728233239
 20
461.9155912482
 11
197.7300040953
 21
461.7176656558
  0
LINE
  5
241
100
AcDbEntity
  8
0
100
AcDbLine
 62
7
  6
BYLAYER
 10
183.3881058017
 20
453.11164744
 11
183.1117492864
 21
452.9520938839
  0
LINE
  5
242
100
AcDbEntity
  8
0
100
AcDbLine
 62
7
  6
BYLAYER
 10
198.9443902204
 20
462.0717083329
 11
198.6680337052
 21
461.9121547768
  0
LINE
  5
243
100
AcDbEntity
  8
0
100
AcDbLine
 62
7
  6
BYLAYER
 10
183.8316308785
 20
452.799257083
 11
183.7808314834
 21
452.7699282136
  0
LINE
  5
244
100
AcDbEntity
  8
0
100
AcDbLine
 62
7
  6
BYLAYER
 10
199.3879152972
 20
461.7593179759
 11
199.3371159021
 21
461.7299891066
  0
LINE
  5
245
100
AcDbEntity
  8
0
100
AcDbLine
 62
7
  6
BYLAYER
 10
199.0392282785
 20
459.6712126826
 11
189.2104849412
 21
453.9966189438
  0
LINE
  5
246
100
AcDbEntity
  8
0
100
AcDbLine
 62
7
  6
BYLAYER
 10
200.5049793075
 20
458.067952131
 11
199.0392282785
 21
457.2217054312
  0
LINE
  5
247
100
AcDbEntity
  8
0
100
AcDbLine
 62
7
  6
BYLAYER
 10
187.7447339122
 20
450.7008649926
 11
189.2104849413
 21
451.5471116924
  0
LINE
  5
248
100
AcDbEntity
  8
0
100
AcDbLine
 62
7
  6
BYLAYER
 10
200.5049793075
 20
455.6184448796
 11
187.8815342639
 21
448.3303389896
  0
LINE
  5
249
100
AcDbEntity
  8
0
100
AcDbLine
 62
7
  6
BYLAYER
 10
187.9928336404
 20
448.1268127499
 11
200.7207027102
 21
455.4752075195
  0
LINE
  5
24A
100
AcDbEntity
  8
0
100
AcDbLine
 62
7
  6
BYLAYER
 10
187.9928336404
 20
58.2469085705
 11
187.8815342638
 21
58.3111658418
  0
LINE
  5
24B
100
AcDbEntity
  8
0
100
AcDbLine
 62
7
  6
BYLAYER
 10
166.4319408972
 20
458.7525362831
 11
166.4077159295
 21
458.6683884666
  0
LINE
  5
24C
100
AcDbEntity
  8
0
100
AcDbLine
 62
7
  6
BYLAYER
 10
182.1199586292
 20
447.7670165224
 11
182.1132678478
 21
447.736310234
  0
LINE
  5
24D
100
AcDbEntity
  8
0
100
AcDbLine
 62
7
  6
BYLAYER
 10
182.1266958872
 20
447.8134544876
 11
182.1199586292
 21
447.7670165224
  0
LINE
  5
24E
100
AcDbEntity
  8
0
100
AcDbLine
 62
7
  6
BYLAYER
 10
164.0113598039
 20
68.6620371852
 11
164.0096483267
 21
68.720927071
  0
LINE
  5
24F
100
AcDbEntity
  8
0
100
AcDbLine
 62
7
  6
BYLAYER
 10
164.0096483267
 20
458.6008312503
 11
164.0113598039
 21
458.5419413646
  0
LINE
  5
250
100
AcDbEntity
  8
0
100
AcDbLine
 62
7
  6
BYLAYER
 10
167.4814474402
 20
56.4718689608
 11
167.4824303078
 21
54.0217087929
  0
LINE
  5
251
100
AcDbEntity
  8
0
100
AcDbLine
 62
7
  6
BYLAYER
 10
164.0005980162
 20
68.6620371852
 11
164.0005980162
 21
59.7345362371
  0
LINE
  5
252
100
AcDbEntity
  8
0
100
AcDbLine
 62
7
  6
BYLAYER
 10
164.0077179032
 20
458.6176571215
 11
164.0077179032
 21
461.0671643729
  0
LINE
  5
253
100
AcDbEntity
  8
0
100
AcDbLine
 62
7
  6
BYLAYER
 10
164.0096394852
 20
68.7209270709
 11
164.0096394852
 21
458.6008312502
  0
LINE
  5
254
100
AcDbEntity
  8
0
100
AcDbLine
 62
7
  6
BYLAYER
 10
164.1735844223
 20
68.1537990211
 11
164.1735844222
 21
460.4832104519
  0
LINE
  5
255
100
AcDbEntity
  8
0
100
AcDbLine
 62
7
  6
BYLAYER
 10
164.2652464989
 20
68.0007607587
 11
164.2652464989
 21
59.0192341703
  0
LINE
  5
256
100
AcDbEntity
  8
0
100
AcDbLine
 62
7
  6
BYLAYER
 10
164.2652464989
 20
457.8838204776
 11
164.2652464989
 21
460.333327729
  0
LINE
  5
257
100
AcDbEntity
  8
0
100
AcDbLine
 62
7
  6
BYLAYER
 10
164.7547498669
 20
460.9795412979
 11
164.7547498669
 21
461.6599599788
  0
LINE
  5
258
100
AcDbEntity
  8
0
100
AcDbLine
 62
7
  6
BYLAYER
 10
165.5423199152
 20
66.7690052191
 11
165.5423199152
 21
57.7874786307
  0
LINE
  5
259
100
AcDbEntity
  8
0
100
AcDbLine
 62
7
  6
BYLAYER
 10
165.5423199152
 20
456.652064938
 11
165.5423199152
 21
459.1015721894
  0
LINE
  5
25A
100
AcDbEntity
  8
0
100
AcDbLine
 62
7
  6
BYLAYER
 10
165.5978777552
 20
456.6088542232
 11
165.5978777552
 21
66.7289500438
  0
LINE
  5
25B
100
AcDbEntity
  8
0
100
AcDbLine
 62
7
  6
BYLAYER
 10
165.8623260485
 20
456.5558100056
 11
165.8623260485
 21
66.6759058263
  0
LINE
  5
25C
100
AcDbEntity
  8
0
100
AcDbLine
 62
7
  6
BYLAYER
 10
165.9197033049
 20
459.0098407746
 11
165.9197033049
 21
456.5603335232
  0
LINE
  5
25D
100
AcDbEntity
  8
0
100
AcDbLine
 62
7
  6
BYLAYER
 10
165.9197033049
 20
66.6772738043
 11
165.9197033049
 21
57.6957472159
  0
LINE
  5
25E
100
AcDbEntity
  8
0
100
AcDbLine
 62
7
  6
BYLAYER
 10
166.191605717
 20
462.7207214827
 11
166.191605717
 21
462.9248427098
  0
LINE
  5
25F
100
AcDbEntity
  8
0
100
AcDbLine
 62
7
  6
BYLAYER
 10
166.2129510426
 20
461.7682291376
 11
166.2129510426
 21
461.9723503647
  0
LINE
  5
260
100
AcDbEntity
  8
0
100
AcDbLine
 62
7
  6
BYLAYER
 10
166.2424051121
 20
462.9541715792
 11
166.2424051121
 21
462.6913939516
  0
LINE
  5
261
100
AcDbEntity
  8
0
100
AcDbLine
 62
7
  6
BYLAYER
 10
166.3613492948
 20
66.2292225827
 11
166.3613492948
 21
456.109126762
  0
LINE
  5
262
100
AcDbEntity
  8
0
100
AcDbLine
 62
7
  6
BYLAYER
 10
166.386153854
 20
66.1532417859
 11
166.386153854
 21
57.2794968296
  0
LINE
  5
263
100
AcDbEntity
  8
0
100
AcDbLine
 62
7
  6
BYLAYER
 10
166.386153854
 20
456.144083137
 11
166.386153854
 21
458.5935903884
  0
LINE
  5
264
100
AcDbEntity
  8
0
100
AcDbLine
 62
7
  6
BYLAYER
 10
166.4219554285
 20
456.0331459653
 11
166.4219554285
 21
66.1532417859
  0
LINE
  5
265
100
AcDbEntity
  8
0
100
AcDbLine
 62
7
  6
BYLAYER
 10
166.4867402269
 20
458.4404570386
 11
166.4867402269
 21
455.9909497873
  0
LINE
  5
266
100
AcDbEntity
  8
0
100
AcDbLine
 62
7
  6
BYLAYER
 10
166.4867402269
 20
57.1263634799
 11
166.4867402269
 21
66.1078900683
  0
LINE
  5
267
100
AcDbEntity
  8
0
100
AcDbLine
 62
7
  6
BYLAYER
 10
166.5557702709
 20
462.170275957
 11
166.5557702709
 21
461.7136306439
  0
LINE
  5
268
100
AcDbEntity
  8
0
100
AcDbLine
 62
7
  6
BYLAYER
 10
166.5959585027
 20
462.4802383689
 11
166.5959585027
 21
462.9541724291
  0
LINE
  5
269
100
AcDbEntity
  8
0
100
AcDbLine
 62
7
  6
BYLAYER
 10
166.6778078855
 20
461.7738320933
 11
166.6778078855
 21
462.3403772729
  0
LINE
  5
26A
100
AcDbEntity
  8
0
100
AcDbLine
 62
7
  6
BYLAYER
 10
166.9601191313
 20
462.7439289484
 11
166.9601191313
 21
461.9368269547
  0
LINE
  5
26B
100
AcDbEntity
  8
0
100
AcDbLine
 62
7
  6
BYLAYER
 10
167.285268008
 20
54.3253429232
 11
167.285268008
 21
56.6019125892
  0
LINE
  5
26C
100
AcDbEntity
  8
0
100
AcDbLine
 62
7
  6
BYLAYER
 10
167.285268008
 20
458.0889437334
 11
167.285268008
 21
460.5384509848
  0
LINE
  5
26D
100
AcDbEntity
  8
0
100
AcDbLine
 62
7
  6
BYLAYER
 10
167.5493747823
 20
461.936828371
 11
167.5493747823
 21
462.7439303648
  0
LINE
  5
26E
100
AcDbEntity
  8
0
100
AcDbLine
 62
7
  6
BYLAYER
 10
167.5507460948
 20
466.0397204076
 11
167.5507460948
 21
463.5902131562
  0
LINE
  5
26F
100
AcDbEntity
  8
0
100
AcDbLine
 62
7
  6
BYLAYER
 10
167.5510470741
 20
460.1892038972
 11
167.5510470741
 21
455.2901893945
  0
LINE
  5
270
100
AcDbEntity
  8
0
100
AcDbLine
 62
7
  6
BYLAYER
 10
167.5510469951
 20
65.4071297275
 11
167.5510469951
 21
53.9760958876
  0
LINE
  5
271
100
AcDbEntity
  8
0
100
AcDbLine
 62
7
  6
BYLAYER
 10
167.7850630251
 20
463.3890981131
 11
167.7850630251
 21
465.7131270075
  0
LINE
  5
272
100
AcDbEntity
  8
0
100
AcDbLine
 62
7
  6
BYLAYER
 10
167.8316918484
 20
461.7738395844
 11
167.8316918484
 21
462.3403800465
  0
LINE
  5
273
100
AcDbEntity
  8
0
100
AcDbLine
 62
7
  6
BYLAYER
 10
167.8921940105
 20
462.9418559571
 11
167.8921940105
 21
462.4641810421
  0
LINE
  5
274
100
AcDbEntity
  8
0
100
AcDbLine
 62
7
  6
BYLAYER
 10
167.9537319163
 20
461.7208522142
 11
167.9537319163
 21
462.1702793173
  0
LINE
  5
275
100
AcDbEntity
  8
0
100
AcDbLine
 62
7
  6
BYLAYER
 10
168.2457474011
 20
462.6790769912
 11
168.2457474011
 21
462.9418568069
  0
LINE
  5
276
100
AcDbEntity
  8
0
100
AcDbLine
 62
7
  6
BYLAYER
 10
168.2752154533
 20
461.9846749095
 11
168.2752154533
 21
461.7805536824
  0
LINE
  5
277
100
AcDbEntity
  8
0
100
AcDbLine
 62
7
  6
BYLAYER
 10
168.2965472193
 20
462.9125281817
 11
168.2965472193
 21
462.7084069546
  0
LINE
  5
278
100
AcDbEntity
  8
0
100
AcDbLine
 62
7
  6
BYLAYER
 10
169.5528373379
 20
464.6925251212
 11
169.5528373379
 21
462.3723762384
  0
LINE
  5
279
100
AcDbEntity
  8
0
100
AcDbLine
 62
7
  6
BYLAYER
 10
170.4367088913
 20
466.0193152219
 11
170.4367088913
 21
466.3459091853
  0
LINE
  5
27A
100
AcDbEntity
  8
0
100
AcDbLine
 62
7
  6
BYLAYER
 10
167.4823287476
 20
460.2348843212
 11
167.4814474402
 21
457.7859625196
  0
LINE
  5
27B
100
AcDbEntity
  8
0
100
AcDbLine
 62
7
  6
BYLAYER
 10
167.2857628264
 20
460.5543751764
 11
167.2853682274
 21
460.5384510891
  0
LINE
  5
27C
100
AcDbEntity
  8
0
100
AcDbLine
 62
7
  6
BYLAYER
 10
182.1287245036
 20
450.2431375825
 11
182.1276179404
 21
450.2260150482
  0
LINE
  5
27D
100
AcDbEntity
  8
0
100
AcDbLine
 62
7
  6
BYLAYER
 10
187.8688917572
 20
450.3386506989
 11
187.8815007806
 21
450.4254461806
  0
LINE
  5
27E
100
AcDbEntity
  8
0
100
AcDbLine
 62
7
  6
BYLAYER
 10
187.8815007806
 20
447.9759389292
 11
187.8688917572
 21
447.8891434475
  0
LINE
  5
27F
100
AcDbEntity
  8
0
100
AcDbLine
 62
7
  6
BYLAYER
 10
164.0077181729
 20
461.0671643729
 11
164.0191775605
 21
460.9117632276
  0
LINE
  5
280
100
AcDbEntity
  8
0
100
AcDbLine
 62
7
  6
BYLAYER
 10
171.2852334959
 20
466.83580217
 11
171.2852334959
 21
465.5294317554
  0
LINE
  5
281
100
AcDbEntity
  8
0
100
AcDbLine
 62
7
  6
BYLAYER
 10
171.4023896059
 20
465.461793174
 11
171.4023896059
 21
466.9990994332
  0
LINE
  5
282
100
AcDbEntity
  8
0
100
AcDbLine
 62
7
  6
BYLAYER
 10
175.3399788385
 20
467.380522234
 11
175.3399788385
 21
470.6324667404
  0
LINE
  5
283
100
AcDbEntity
  8
0
100
AcDbLine
 62
7
  6
BYLAYER
 10
175.4571373036
 20
467.4481633016
 11
175.4571373036
 21
470.4691700404
  0
LINE
  5
284
100
AcDbEntity
  8
0
100
AcDbLine
 62
7
  6
BYLAYER
 10
176.5178018913
 20
469.8568089086
 11
176.5178018913
 21
468.0605346315
  0
LINE
  5
285
100
AcDbEntity
  8
0
100
AcDbLine
 62
7
  6
BYLAYER
 10
177.1996107175
 20
48.5318205808
 11
177.1996107175
 21
59.9628544207
  0
LINE
  5
286
100
AcDbEntity
  8
0
100
AcDbLine
 62
7
  6
BYLAYER
 10
177.2070613092
 20
449.8420601066
 11
177.2070613092
 21
454.7410746094
  0
LINE
  5
287
100
AcDbEntity
  8
0
100
AcDbLine
 62
7
  6
BYLAYER
 10
177.4657931993
 20
48.3919718615
 11
177.4657931993
 21
50.8414791129
  0
LINE
  5
288
100
AcDbEntity
  8
0
100
AcDbLine
 62
7
  6
BYLAYER
 10
177.4743945803
 20
50.8414791129
 11
177.4743945803
 21
48.3969378415
  0
LINE
  5
289
100
AcDbEntity
  8
0
100
AcDbLine
 62
7
  6
BYLAYER
 10
177.497497419
 20
452.1392744783
 11
177.497497419
 21
454.5887817296
  0
LINE
  5
28A
100
AcDbEntity
  8
0
100
AcDbLine
 62
7
  6
BYLAYER
 10
177.6491680309
 20
470.5099995548
 11
177.6491680309
 21
468.7137252777
  0
LINE
  5
28B
100
AcDbEntity
  8
0
100
AcDbLine
 62
7
  6
BYLAYER
 10
178.2148534558
 20
469.0403219605
 11
178.2148534558
 21
470.5100009145
  0
LINE
  5
28C
100
AcDbEntity
  8
0
100
AcDbLine
 62
7
  6
BYLAYER
 10
178.5981068771
 20
452.1561197298
 11
178.5981068771
 21
454.6056269812
  0
LINE
  5
28D
100
AcDbEntity
  8
0
100
AcDbLine
 62
7
  6
BYLAYER
 10
178.6057654302
 20
48.396940561
 11
178.6057654302
 21
50.2712631127
  0
LINE
  5
28E
100
AcDbEntity
  8
0
100
AcDbLine
 62
7
  6
BYLAYER
 10
179.204807071
 20
469.9384638582
 11
179.204807071
 21
469.6118698949
  0
LINE
  5
28F
100
AcDbEntity
  8
0
100
AcDbLine
 62
7
  6
BYLAYER
 10
179.6395379535
 20
42.8639104689
 11
179.6395379535
 21
46.831135611
  0
LINE
  5
290
100
AcDbEntity
  8
0
100
AcDbLine
 62
7
  6
BYLAYER
 10
180.3111638202
 20
451.9982446984
 11
180.3111638202
 21
452.6786633793
  0
LINE
  5
291
100
AcDbEntity
  8
0
100
AcDbLine
 62
7
  6
BYLAYER
 10
180.4140135461
 20
450.763990331
 11
180.4140135461
 21
448.3144830797
  0
LINE
  5
292
100
AcDbEntity
  8
0
100
AcDbLine
 62
7
  6
BYLAYER
 10
180.4140135461
 20
58.4314233607
 11
180.4140135461
 21
49.4498967723
  0
LINE
  5
293
100
AcDbEntity
  8
0
100
AcDbLine
 62
7
  6
BYLAYER
 10
180.5130572134
 20
455.7112174739
 11
180.5130572134
 21
453.3907409187
  0
LINE
  5
294
100
AcDbEntity
  8
0
100
AcDbLine
 62
7
  6
BYLAYER
 10
180.907918506
 20
49.2445737196
 11
180.907918506
 21
58.226100308
  0
LINE
  5
295
100
AcDbEntity
  8
0
100
AcDbLine
 62
7
  6
BYLAYER
 10
180.907918506
 20
448.1091600269
 11
180.907918506
 21
450.5586672783
  0
LINE
  5
296
100
AcDbEntity
  8
0
100
AcDbLine
 62
7
  6
BYLAYER
 10
181.0481618207
 20
49.1883568607
 11
181.0481618207
 21
58.1698834491
  0
LINE
  5
297
100
AcDbEntity
  8
0
100
AcDbLine
 62
7
  6
BYLAYER
 10
181.0481618207
 20
448.052943168
 11
181.0481618207
 21
450.5024504194
  0
LINE
  5
298
100
AcDbEntity
  8
0
100
AcDbLine
 62
7
  6
BYLAYER
 10
181.124006821
 20
448.0229343285
 11
181.124006821
 21
58.1430301491
  0
LINE
  5
299
100
AcDbEntity
  8
0
100
AcDbLine
 62
7
  6
BYLAYER
 10
181.4156751626
 20
448.0251120487
 11
181.4156751626
 21
58.1452078694
  0
LINE
  5
29A
100
AcDbEntity
  8
0
100
AcDbLine
 62
7
  6
BYLAYER
 10
181.465508045
 20
58.1570170192
 11
181.465508045
 21
49.1754904308
  0
LINE
  5
29B
100
AcDbEntity
  8
0
100
AcDbLine
 62
7
  6
BYLAYER
 10
181.4655080451
 20
448.0400767381
 11
181.4655080451
 21
450.4895839895
  0
LINE
  5
29C
100
AcDbEntity
  8
0
100
AcDbLine
 62
7
  6
BYLAYER
 10
181.7478901357
 20
471.7020928679
 11
181.7478901357
 21
471.906214095
  0
LINE
  5
29D
100
AcDbEntity
  8
0
100
AcDbLine
 62
7
  6
BYLAYER
 10
181.7480196702
 20
453.7394248833
 11
181.7480196702
 21
453.9435461104
  0
LINE
  5
29E
100
AcDbEntity
  8
0
100
AcDbLine
 62
7
  6
BYLAYER
 10
181.7692354614
 20
470.7496005228
 11
181.7692354614
 21
470.9537217499
  0
LINE
  5
29F
100
AcDbEntity
  8
0
100
AcDbLine
 62
7
  6
BYLAYER
 10
181.7693649959
 20
452.7869325382
 11
181.7693649959
 21
452.9910537653
  0
LINE
  5
2A0
100
AcDbEntity
  8
0
100
AcDbLine
 62
7
  6
BYLAYER
 10
181.7986895308
 20
471.9355429644
 11
181.7986895308
 21
471.6727653368
  0
LINE
  5
2A1
100
AcDbEntity
  8
0
100
AcDbLine
 62
7
  6
BYLAYER
 10
181.7988190653
 20
453.9728749798
 11
181.7988190653
 21
453.7100973522
  0
LINE
  5
2A2
100
AcDbEntity
  8
0
100
AcDbLine
 62
7
  6
BYLAYER
 10
182.1120546896
 20
471.1516473421
 11
182.1120546896
 21
470.6950020291
  0
LINE
  5
2A3
100
AcDbEntity
  8
0
100
AcDbLine
 62
7
  6
BYLAYER
 10
182.1121842241
 20
453.1889793575
 11
182.1121842241
 21
452.7323340445
  0
LINE
  5
2A4
100
AcDbEntity
  8
0
100
AcDbLine
 62
7
  6
BYLAYER
 10
182.1137612197
 20
57.8564021427
 11
182.1137612197
 21
447.736306322
  0
LINE
  5
2A5
100
AcDbEntity
  8
0
100
AcDbLine
 62
7
  6
BYLAYER
 10
182.1274858197
 20
57.7975879517
 11
182.1274858197
 21
48.9110601272
  0
LINE
  5
2A6
100
AcDbEntity
  8
0
100
AcDbLine
 62
7
  6
BYLAYER
 10
182.1276112969
 20
447.7765077977
 11
182.1276112969
 21
450.2260150491
  0
LINE
  5
2A7
100
AcDbEntity
  8
0
100
AcDbLine
 62
7
  6
BYLAYER
 10
182.1522429214
 20
471.4616097541
 11
182.1522429214
 21
471.9355438142
  0
LINE
  5
2A8
100
AcDbEntity
  8
0
100
AcDbLine
 62
7
  6
BYLAYER
 10
182.1523724559
 20
453.4989417695
 11
182.1523724559
 21
453.9728758296
  0
LINE
  5
2A9
100
AcDbEntity
  8
0
100
AcDbLine
 62
7
  6
BYLAYER
 10
182.2340923042
 20
470.7552034785
 11
182.2340923042
 21
471.321748658
  0
LINE
  5
2AA
100
AcDbEntity
  8
0
100
AcDbLine
 62
7
  6
BYLAYER
 10
182.2342218387
 20
452.7925354939
 11
182.2342218387
 21
453.3590806734
  0
LINE
  5
2AB
100
AcDbEntity
  8
0
100
AcDbLine
 62
7
  6
BYLAYER
 10
182.2382230583
 20
447.6113735545
 11
182.2382230583
 21
57.7314693752
  0
LINE
  5
2AC
100
AcDbEntity
  8
0
100
AcDbLine
 62
7
  6
BYLAYER
 10
182.2738584085
 20
57.7161302115
 11
182.2738584085
 21
48.7346036231
  0
LINE
  5
2AD
100
AcDbEntity
  8
0
100
AcDbLine
 62
7
  6
BYLAYER
 10
182.2738584085
 20
447.5991899304
 11
182.2738584085
 21
450.0486971818
  0
LINE
  5
2AE
100
AcDbEntity
  8
0
100
AcDbLine
 62
7
  6
BYLAYER
 10
182.5164035501
 20
471.7253003336
 11
182.5164035501
 21
470.9181983399
  0
LINE
  5
2AF
100
AcDbEntity
  8
0
100
AcDbLine
 62
7
  6
BYLAYER
 10
182.5165330846
 20
453.762632349
 11
182.5165330846
 21
452.9555303553
  0
LINE
  5
2B0
100
AcDbEntity
  8
0
100
AcDbLine
 62
7
  6
BYLAYER
 10
183.105659201
 20
470.9181997561
 11
183.105659201
 21
471.72530175
  0
LINE
  5
2B1
100
AcDbEntity
  8
0
100
AcDbLine
 62
7
  6
BYLAYER
 10
183.1057887355
 20
452.9555317715
 11
183.1057887355
 21
453.7626337654
  0
LINE
  5
2B2
100
AcDbEntity
  8
0
100
AcDbLine
 62
7
  6
BYLAYER
 10
183.3879762672
 20
470.7552109696
 11
183.3879762672
 21
471.3217514317
  0
LINE
  5
2B3
100
AcDbEntity
  8
0
100
AcDbLine
 62
7
  6
BYLAYER
 10
183.3881058017
 20
452.792542985
 11
183.3881058017
 21
453.359083447
  0
LINE
  5
2B4
100
AcDbEntity
  8
0
100
AcDbLine
 62
7
  6
BYLAYER
 10
183.4484784292
 20
471.9232273423
 11
183.4484784292
 21
471.4455524272
  0
LINE
  5
2B5
100
AcDbEntity
  8
0
100
AcDbLine
 62
7
  6
BYLAYER
 10
183.4486079638
 20
453.9605593576
 11
183.4486079638
 21
453.4828844426
  0
LINE
  5
2B6
100
AcDbEntity
  8
0
100
AcDbLine
 62
7
  6
BYLAYER
 10
183.510016335
 20
470.7022235994
 11
183.510016335
 21
471.1516507024
  0
LINE
  5
2B7
100
AcDbEntity
  8
0
100
AcDbLine
 62
7
  6
BYLAYER
 10
183.5101458695
 20
452.7395556148
 11
183.5101458695
 21
453.1889827178
  0
LINE
  5
2B8
100
AcDbEntity
  8
0
100
AcDbLine
 62
7
  6
BYLAYER
 10
183.6918926163
 20
57.3227767813
 11
183.6918926163
 21
48.3412501929
  0
LINE
  5
2B9
100
AcDbEntity
  8
0
100
AcDbLine
 62
7
  6
BYLAYER
 10
183.6918926163
 20
447.2058365002
 11
183.6918926163
 21
449.6553437516
  0
LINE
  5
2BA
100
AcDbEntity
  8
0
100
AcDbLine
 62
7
  6
BYLAYER
 10
183.8020318198
 20
471.6604483764
 11
183.8020318198
 21
471.9232281921
  0
LINE
  5
2BB
100
AcDbEntity
  8
0
100
AcDbLine
 62
7
  6
BYLAYER
 10
183.8021613543
 20
453.6977803917
 11
183.8021613543
 21
453.9605602075
  0
LINE
  5
2BC
100
AcDbEntity
  8
0
100
AcDbLine
 62
7
  6
BYLAYER
 10
183.831499872
 20
470.9660462947
 11
183.831499872
 21
470.7619250676
  0
LINE
  5
2BD
100
AcDbEntity
  8
0
100
AcDbLine
 62
7
  6
BYLAYER
 10
183.8316294065
 20
453.0033783101
 11
183.8316294065
 21
452.799257083
  0
LINE
  5
2BE
100
AcDbEntity
  8
0
100
AcDbLine
 62
7
  6
BYLAYER
 10
183.852831638
 20
471.8938995669
 11
183.852831638
 21
471.6897783398
  0
LINE
  5
2BF
100
AcDbEntity
  8
0
100
AcDbLine
 62
7
  6
BYLAYER
 10
183.8529611725
 20
453.9312315823
 11
183.8529611725
 21
453.7271103552
  0
LINE
  5
2C0
100
AcDbEntity
  8
0
100
AcDbLine
 62
7
  6
BYLAYER
 10
184.9365523283
 20
449.4831396393
 11
184.9365523283
 21
447.0336323879
  0
LINE
  5
2C1
100
AcDbEntity
  8
0
100
AcDbLine
 62
7
  6
BYLAYER
 10
184.9365523283
 20
57.150572669
 11
184.9365523283
 21
48.1690460805
  0
LINE
  5
2C2
100
AcDbEntity
  8
0
100
AcDbLine
 62
7
  6
BYLAYER
 10
185.1092512911
 20
453.3910796389
 11
185.1092512911
 21
455.7112285218
  0
LINE
  5
2C3
100
AcDbEntity
  8
0
100
AcDbLine
 62
7
  6
BYLAYER
 10
182.1296356537
 20
450.2606284948
 11
182.1287245036
 21
450.2431375825
  0
LINE
  5
2C4
100
AcDbEntity
  8
0
100
AcDbLine
 62
7
  6
BYLAYER
 10
187.8814502127
 20
447.9759389375
 11
187.8802270163
 21
448.0039372262
  0
LINE
  5
2C5
100
AcDbEntity
  8
0
100
AcDbLine
 62
7
  6
BYLAYER
 10
185.3111638202
 20
451.9982446984
 11
185.3111638202
 21
452.6786633793
  0
LINE
  5
2C6
100
AcDbEntity
  8
0
100
AcDbLine
 62
7
  6
BYLAYER
 10
185.5876243816
 20
447.0286780023
 11
185.5876243816
 21
57.148773823
  0
LINE
  5
2C7
100
AcDbEntity
  8
0
100
AcDbLine
 62
7
  6
BYLAYER
 10
186.2246720611
 20
449.5559416981
 11
186.2246720611
 21
447.1064344467
  0
LINE
  5
2C8
100
AcDbEntity
  8
0
100
AcDbLine
 62
7
  6
BYLAYER
 10
186.2246720611
 20
57.2233747278
 11
186.2246720611
 21
48.2418481394
  0
LINE
  5
2C9
100
AcDbEntity
  8
0
100
AcDbLine
 62
7
  6
BYLAYER
 10
187.5450464821
 20
450.0202486732
 11
187.5450464821
 21
447.5707414219
  0
LINE
  5
2CA
100
AcDbEntity
  8
0
100
AcDbLine
 62
7
  6
BYLAYER
 10
187.5450464821
 20
57.6876817029
 11
187.5450464821
 21
48.7061551145
  0
LINE
  5
2CB
100
AcDbEntity
  8
0
100
AcDbLine
 62
7
  6
BYLAYER
 10
187.6935344181
 20
447.6580755069
 11
187.6935344181
 21
57.7781713275
  0
LINE
  5
2CC
100
AcDbEntity
  8
0
100
AcDbLine
 62
7
  6
BYLAYER
 10
187.8815342639
 20
58.0928791936
 11
187.8815342639
 21
49.1113526051
  0
LINE
  5
2CD
100
AcDbEntity
  8
0
100
AcDbLine
 62
7
  6
BYLAYER
 10
187.8815342638
 20
58.0960347332
 11
187.8815342639
 21
450.4254461639
  0
LINE
  5
2CE
100
AcDbEntity
  8
0
100
AcDbLine
 62
7
  6
BYLAYER
 10
187.9928336404
 20
448.1268127499
 11
187.9928336404
 21
58.2469085705
  0
LINE
  5
2CF
100
AcDbEntity
  8
0
100
AcDbLine
 62
7
  6
BYLAYER
 10
188.0791140914
 20
453.9966162243
 11
188.0791140914
 21
451.5471089729
  0
LINE
  5
2D0
100
AcDbEntity
  8
0
100
AcDbLine
 62
7
  6
BYLAYER
 10
188.0791140913
 20
49.5798247679
 11
188.0791140913
 21
47.7835081628
  0
LINE
  5
2D1
100
AcDbEntity
  8
0
100
AcDbLine
 62
7
  6
BYLAYER
 10
189.2104849413
 20
47.7835108822
 11
189.2104849413
 21
50.2330181336
  0
LINE
  5
2D2
100
AcDbEntity
  8
0
100
AcDbLine
 62
7
  6
BYLAYER
 10
189.2104849413
 20
451.5471116924
 11
189.2104849412
 21
453.9966189438
  0
LINE
  5
2D3
100
AcDbEntity
  8
0
100
AcDbLine
 62
7
  6
BYLAYER
 10
191.6395379535
 20
42.8639104689
 11
191.6395379535
 21
46.8310436449
  0
LINE
  5
2D4
100
AcDbEntity
  8
0
100
AcDbLine
 62
7
  6
BYLAYER
 10
196.0693416321
 20
462.3508018116
 11
196.0693416321
 21
464.6925888591
  0
LINE
  5
2D5
100
AcDbEntity
  8
0
100
AcDbLine
 62
7
  6
BYLAYER
 10
197.3043040889
 20
462.6994857763
 11
197.3043040889
 21
462.9036070033
  0
LINE
  5
2D6
100
AcDbEntity
  8
0
100
AcDbLine
 62
7
  6
BYLAYER
 10
197.3256494146
 20
461.7469934311
 11
197.3256494146
 21
461.9511146582
  0
LINE
  5
2D7
100
AcDbEntity
  8
0
100
AcDbLine
 62
7
  6
BYLAYER
 10
197.355103484
 20
462.9329358727
 11
197.355103484
 21
462.6701582451
  0
LINE
  5
2D8
100
AcDbEntity
  8
0
100
AcDbLine
 62
7
  6
BYLAYER
 10
197.6684686428
 20
462.1490402505
 11
197.6684686428
 21
461.6923949374
  0
LINE
  5
2D9
100
AcDbEntity
  8
0
100
AcDbLine
 62
7
  6
BYLAYER
 10
197.7086568746
 20
462.4590026624
 11
197.7086568746
 21
462.9329367226
  0
LINE
  5
2DA
100
AcDbEntity
  8
0
100
AcDbLine
 62
7
  6
BYLAYER
 10
197.7905062574
 20
461.7525963868
 11
197.7905062574
 21
462.3191415664
  0
LINE
  5
2DB
100
AcDbEntity
  8
0
100
AcDbLine
 62
7
  6
BYLAYER
 10
197.9766334153
 20
465.7937577104
 11
197.9766334153
 21
463.3949564633
  0
LINE
  5
2DC
100
AcDbEntity
  8
0
100
AcDbLine
 62
7
  6
BYLAYER
 10
197.985230086
 20
466.4519116171
 11
197.985230086
 21
466.4469456371
  0
LINE
  5
2DD
100
AcDbEntity
  8
0
100
AcDbLine
 62
7
  6
BYLAYER
 10
198.0728175033
 20
462.7226932419
 11
198.0728175033
 21
461.9155912482
  0
LINE
  5
2DE
100
AcDbEntity
  8
0
100
AcDbLine
 62
7
  6
BYLAYER
 10
198.2109456352
 20
463.6708449856
 11
198.2109456352
 21
466.120352237
  0
LINE
  5
2DF
100
AcDbEntity
  8
0
100
AcDbLine
 62
7
  6
BYLAYER
 10
198.6620731542
 20
461.9155926645
 11
198.6620731542
 21
462.7226946583
  0
LINE
  5
2E0
100
AcDbEntity
  8
0
100
AcDbLine
 62
7
  6
BYLAYER
 10
198.8978075111
 20
55.8259630417
 11
198.8978075111
 21
53.3764557903
  0
LINE
  5
2E1
100
AcDbEntity
  8
0
100
AcDbLine
 62
7
  6
BYLAYER
 10
198.9443902204
 20
461.7526038779
 11
198.9443902204
 21
462.31914434
  0
LINE
  5
2E2
100
AcDbEntity
  8
0
100
AcDbLine
 62
7
  6
BYLAYER
 10
199.0048923825
 20
462.9206202506
 11
199.0048923825
 21
462.4429453356
  0
LINE
  5
2E3
100
AcDbEntity
  8
0
100
AcDbLine
 62
7
  6
BYLAYER
 10
199.0392282785
 20
459.6712126826
 11
199.0392282785
 21
457.2217054312
  0
LINE
  5
2E4
100
AcDbEntity
  8
0
100
AcDbLine
 62
7
  6
BYLAYER
 10
199.0664302882
 20
461.6996165077
 11
199.0664302882
 21
462.1490436108
  0
LINE
  5
2E5
100
AcDbEntity
  8
0
100
AcDbLine
 62
7
  6
BYLAYER
 10
199.1906977859
 20
55.9950623113
 11
199.1906977859
 21
53.7846989485
  0
LINE
  5
2E6
100
AcDbEntity
  8
0
100
AcDbLine
 62
7
  6
BYLAYER
 10
199.2735404983
 20
459.9978072092
 11
199.2735404983
 21
457.5482999578
  0
LINE
  5
2E7
100
AcDbEntity
  8
0
100
AcDbLine
 62
7
  6
BYLAYER
 10
199.3584457731
 20
462.6578412847
 11
199.3584457731
 21
462.9206211004
  0
LINE
  5
2E8
100
AcDbEntity
  8
0
100
AcDbLine
 62
7
  6
BYLAYER
 10
199.3879138252
 20
461.963439203
 11
199.3879138252
 21
461.7593179759
  0
LINE
  5
2E9
100
AcDbEntity
  8
0
100
AcDbLine
 62
7
  6
BYLAYER
 10
199.4092455912
 20
462.8912924752
 11
199.4092455912
 21
462.6871712481
  0
LINE
  5
2EA
100
AcDbEntity
  8
0
100
AcDbLine
 62
7
  6
BYLAYER
 10
200.9191347751
 20
461.8031888141
 11
200.9185794275
 21
461.8155048511
  0
LINE
  5
2EB
100
AcDbEntity
  8
0
100
AcDbLine
 62
7
  6
BYLAYER
 10
200.5049793075
 20
458.067952131
 11
200.5049793075
 21
455.6184448796
  0
LINE
  5
2EC
100
AcDbEntity
  8
0
100
AcDbLine
 62
7
  6
BYLAYER
 10
200.5049793076
 20
65.470756119
 11
200.5049793076
 21
56.7538585722
  0
LINE
  5
2ED
100
AcDbEntity
  8
0
100
AcDbLine
 62
7
  6
BYLAYER
 10
200.7207027102
 20
65.5953033402
 11
200.7207027102
 21
455.4752075195
  0
LINE
  5
2EE
100
AcDbEntity
  8
0
100
AcDbLine
 62
7
  6
BYLAYER
 10
200.8674482389
 20
460.9583055913
 11
200.8674482389
 21
461.6387242722
  0
LINE
  5
2EF
100
AcDbEntity
  8
0
100
AcDbLine
 62
7
  6
BYLAYER
 10
200.8708816854
 20
461.6932148078
 11
200.8708816854
 21
461.4639195706
  0
LINE
  5
2F0
100
AcDbEntity
  8
0
100
AcDbLine
 62
7
  6
BYLAYER
 10
200.9191486667
 20
461.4132099995
 11
200.9191486667
 21
461.803188814
  0
LINE
  5
2F1
100
AcDbEntity
  8
0
100
AcDbLine
 62
7
  6
BYLAYER
 10
201.5325885449
 20
455.6480094388
 11
201.5325885449
 21
65.7681052594
  0
LINE
  5
2F2
100
AcDbEntity
  8
0
100
AcDbLine
 62
7
  6
BYLAYER
 10
201.6838565435
 20
56.8691521829
 11
201.6838565435
 21
65.8506787714
  0
LINE
  5
2F3
100
AcDbEntity
  8
0
100
AcDbLine
 62
7
  6
BYLAYER
 10
201.6838565435
 20
455.7337384903
 11
201.6838565435
 21
458.1832457417
  0
LINE
  5
2F4
100
AcDbEntity
  8
0
100
AcDbLine
 62
7
  6
BYLAYER
 10
202.4880603171
 20
57.6314636785
 11
202.4880603171
 21
66.6076380823
  0
LINE
  5
2F5
100
AcDbEntity
  8
0
100
AcDbLine
 62
7
  6
BYLAYER
 10
202.4880603171
 20
456.4960499859
 11
202.4880603171
 21
458.9455572372
  0
LINE
  5
2F6
100
AcDbEntity
  8
0
100
AcDbLine
 62
7
  6
BYLAYER
 10
202.6227350503
 20
456.8638450245
 11
202.6227350503
 21
66.9839408452
  0
LINE
  5
2F7
100
AcDbEntity
  8
0
100
AcDbLine
 62
7
  6
BYLAYER
 10
202.6367447862
 20
66.9839408452
 11
202.6367447862
 21
58.1649168349
  0
LINE
  5
2F8
100
AcDbEntity
  8
0
100
AcDbLine
 62
7
  6
BYLAYER
 10
202.6367447862
 20
457.0295031423
 11
202.6367447862
 21
459.4790103937
  0
LINE
  5
2F9
100
AcDbEntity
  8
0
100
AcDbLine
 62
7
  6
BYLAYER
 10
187.8688917572
 20
58.0060837286
 11
187.8815007806
 21
58.0928792103
  0
LINE
  5
2FA
100
AcDbEntity
  8
0
100
AcDbLine
 62
7
  6
BYLAYER
 10
187.8815007806
 20
49.1113526218
 11
187.8688917572
 21
49.0245571401
  0
LINE
  5
2FB
100
AcDbEntity
  8
0
100
AcDbLine
 62
7
  6
BYLAYER
 10
166.4219907796
 20
456.0331236157
 11
166.4872994105
 21
455.9918342655
  0
LWPOLYLINE
  5
2FC
100
AcDbEntity
  8
0
100
AcDbPolyline
 62
7
  6
BYLAYER
 90
3
 70
0
 10
168.6840319563
 20
454.6030184544
 10
168.6971303285
 20
454.5947374161
 10
168.7281383607
 20
454.5762673148
  0
LINE
  5
2FD
100
AcDbEntity
  8
0
100
AcDbLine
 62
7
  6
BYLAYER
 10
166.4219907796
 20
456.0331236157
 11
166.4862538713
 21
455.9912983421
  0
LINE
  5
2FE
100
AcDbEntity
  8
0
100
AcDbLine
 62
7
  6
BYLAYER
 10
200.7207027102
 20
65.5953033402
 11
187.9928336404
 21
58.2469085705
  0
LINE
  5
2FF
100
AcDbEntity
  8
0
100
AcDbLine
 62
7
  6
BYLAYER
 10
180.6661671779
 20
448.2324094581
 11
181.1210763335
 21
448.024407292
  0
LINE
  5
300
100
AcDbEntity
  8
0
100
AcDbLine
 62
7
  6
BYLAYER
 10
180.4238683539
 20
448.3440959688
 11
180.6661671779
 21
448.2324094581
  0
LINE
  5
301
100
AcDbEntity
  8
0
100
AcDbLine
 62
7
  6
BYLAYER
 10
180.4299593384
 20
448.3484882018
 11
181.1210763335
 21
448.024407292
  0
LINE
  5
302
100
AcDbEntity
  8
0
100
AcDbLine
 62
7
  6
BYLAYER
 10
187.8815342639
 20
448.1910700211
 11
187.9928336404
 21
448.1268127499
  0
LINE
  5
303
100
AcDbEntity
  8
0
100
AcDbLine
 62
7
  6
BYLAYER
 10
181.820166286
 20
452.757603913
 11
181.7693664679
 21
452.7869325382
  0
LINE
  5
304
100
AcDbEntity
  8
0
100
AcDbLine
 62
7
  6
BYLAYER
 10
166.2637523328
 20
461.7389005124
 11
166.2129525146
 21
461.7682291376
  0
LINE
  5
305
100
AcDbEntity
  8
0
100
AcDbLine
 62
7
  6
BYLAYER
 10
182.5105783539
 20
452.9520890499
 11
182.2342218387
 21
453.1116399489
  0
LINE
  5
306
100
AcDbEntity
  8
0
100
AcDbLine
 62
7
  6
BYLAYER
 10
166.9541644007
 20
461.9333856494
 11
166.6778078855
 21
462.0929365483
  0
LINE
  5
307
100
AcDbEntity
  8
0
100
AcDbLine
 62
7
  6
BYLAYER
 10
183.4272780928
 20
452.7699273638
 11
183.1057945558
 21
452.9555317715
  0
LINE
  5
308
100
AcDbEntity
  8
0
100
AcDbLine
 62
7
  6
BYLAYER
 10
182.1121817709
 20
453.5291814026
 11
181.7480211422
 21
453.7394248833
  0
LINE
  5
309
100
AcDbEntity
  8
0
100
AcDbLine
 62
7
  6
BYLAYER
 10
167.8708641396
 20
461.7512239632
 11
167.5493806025
 21
461.936828371
  0
LINE
  5
30A
100
AcDbEntity
  8
0
100
AcDbLine
 62
7
  6
BYLAYER
 10
166.5557678177
 20
462.5104780021
 11
166.191607189
 21
462.7207214827
  0
LINE
  5
30B
100
AcDbEntity
  8
0
100
AcDbLine
 62
7
  6
BYLAYER
 10
166.5959585027
 20
462.9541724291
 11
166.9601191313
 21
462.7439289484
  0
LINE
  5
30C
100
AcDbEntity
  8
0
100
AcDbLine
 62
7
  6
BYLAYER
 10
167.9537319163
 20
462.1702793172
 11
168.2752154533
 21
461.9846749095
  0
LINE
  5
30D
100
AcDbEntity
  8
0
100
AcDbLine
 62
7
  6
BYLAYER
 10
182.1523724559
 20
453.9728758296
 11
182.5165330846
 21
453.762632349
  0
LINE
  5
30E
100
AcDbEntity
  8
0
100
AcDbLine
 62
7
  6
BYLAYER
 10
183.5101458695
 20
453.1889827178
 11
183.8316294065
 21
453.0033783101
  0
LINE
  5
30F
100
AcDbEntity
  8
0
100
AcDbLine
 62
7
  6
BYLAYER
 10
168.2457474011
 20
462.9418568069
 11
168.2965472193
 21
462.9125281817
  0
LINE
  5
310
100
AcDbEntity
  8
0
100
AcDbLine
 62
7
  6
BYLAYER
 10
183.8021613543
 20
453.9605602075
 11
183.8529611725
 21
453.9312315823
  0
LINE
  5
311
100
AcDbEntity
  8
0
100
AcDbLine
 62
7
  6
BYLAYER
 10
185.1889111823
 20
453.2157306512
 11
188.0791140914
 21
451.5471089729
  0
LINE
  5
312
100
AcDbEntity
  8
0
100
AcDbLine
 62
7
  6
BYLAYER
 10
188.0791140914
 20
453.9966162243
 11
185.1092512911
 21
455.7112285218
  0
LINE
  5
313
100
AcDbEntity
  8
0
100
AcDbLine
 62
7
  6
BYLAYER
 10
169.5528373379
 20
464.6925251212
 11
167.7850630251
 21
465.7131270075
  0
LINE
  5
314
100
AcDbEntity
  8
0
100
AcDbLine
 62
7
  6
BYLAYER
 10
170.4367112464
 20
466.0193152219
 11
171.4266648617
 21
465.4477781656
  0
LINE
  5
315
100
AcDbEntity
  8
0
100
AcDbLine
 62
7
  6
BYLAYER
 10
168.6838228723
 20
454.6029049224
 11
168.7276626006
 21
454.5760086866
  0
LINE
  5
316
100
AcDbEntity
  8
0
100
AcDbLine
 62
7
  6
BYLAYER
 10
177.4743945803
 20
48.3969378415
 11
177.4657931993
 21
48.3919718615
  0
LINE
  5
317
100
AcDbEntity
  8
0
100
AcDbLine
 62
7
  6
BYLAYER
 10
178.6057654302
 20
48.396940561
 11
180.4178976231
 21
49.4431693252
  0
LINE
  5
318
100
AcDbEntity
  8
0
100
AcDbLine
 62
7
  6
BYLAYER
 10
200.5049793076
 20
56.7538585722
 11
198.8978075111
 21
55.8259630417
  0
LINE
  5
319
100
AcDbEntity
  8
0
100
AcDbLine
 62
7
  6
BYLAYER
 10
187.8815342639
 20
49.4657526823
 11
189.2104849413
 21
50.2330181336
  0
LINE
  5
31A
100
AcDbEntity
  8
0
100
AcDbLine
 62
7
  6
BYLAYER
 10
198.897807511
 20
53.3764557902
 11
189.2104849419
 21
47.7835108826
  0
LINE
  5
31B
100
AcDbEntity
  8
0
100
AcDbLine
 62
7
  6
BYLAYER
 10
170.5074104431
 20
467.6114609633
 11
171.2852311408
 21
467.1623961333
  0
LINE
  5
31C
100
AcDbEntity
  8
0
100
AcDbLine
 62
7
  6
BYLAYER
 10
200.7207027102
 20
455.4752075195
 11
200.4968854334
 21
455.6044255612
  0
LINE
  5
31D
100
AcDbEntity
  8
0
100
AcDbLine
 62
7
  6
BYLAYER
 10
176.5178018913
 20
469.8568089086
 11
175.4571373036
 21
470.4691700404
  0
LINE
  5
31E
100
AcDbEntity
  8
0
100
AcDbLine
 62
7
  6
BYLAYER
 10
179.204807071
 20
469.9384638582
 11
178.2148534558
 21
470.5100009145
  0
LINE
  5
31F
100
AcDbEntity
  8
0
100
AcDbLine
 62
7
  6
BYLAYER
 10
178.7451725018
 20
472.0409113925
 11
180.5129468147
 21
471.0203095062
  0
LINE
  5
320
100
AcDbEntity
  8
0
100
AcDbLine
 62
7
  6
BYLAYER
 10
196.0693607679
 20
462.0390129068
 11
199.0392235681
 21
460.3244006093
  0
LINE
  5
321
100
AcDbEntity
  8
0
100
AcDbLine
 62
7
  6
BYLAYER
 10
197.3764507047
 20
461.7176648059
 11
197.3256508866
 21
461.7469934311
  0
LINE
  5
322
100
AcDbEntity
  8
0
100
AcDbLine
 62
7
  6
BYLAYER
 10
181.8200367515
 20
470.7202718976
 11
181.7692369333
 21
470.7496005228
  0
LINE
  5
323
100
AcDbEntity
  8
0
100
AcDbLine
 62
7
  6
BYLAYER
 10
198.0668627726
 20
461.9121499428
 11
197.7905062574
 21
462.0717008417
  0
LINE
  5
324
100
AcDbEntity
  8
0
100
AcDbLine
 62
7
  6
BYLAYER
 10
182.5104488194
 20
470.9147570346
 11
182.2340923042
 21
471.0743079335
  0
LINE
  5
325
100
AcDbEntity
  8
0
100
AcDbLine
 62
7
  6
BYLAYER
 10
198.9835625115
 20
461.7299882567
 11
198.6620789745
 21
461.9155926645
  0
LINE
  5
326
100
AcDbEntity
  8
0
100
AcDbLine
 62
7
  6
BYLAYER
 10
197.6684661896
 20
462.4892422956
 11
197.3043055609
 21
462.6994857763
  0
LINE
  5
327
100
AcDbEntity
  8
0
100
AcDbLine
 62
7
  6
BYLAYER
 10
183.4271485583
 20
470.7325953484
 11
183.1056650213
 21
470.9181997561
  0
LINE
  5
328
100
AcDbEntity
  8
0
100
AcDbLine
 62
7
  6
BYLAYER
 10
182.1120522363
 20
471.4918493873
 11
181.7478916077
 21
471.7020928679
  0
LINE
  5
329
100
AcDbEntity
  8
0
100
AcDbLine
 62
7
  6
BYLAYER
 10
197.7086568746
 20
462.9329367226
 11
198.0728175033
 21
462.7226932419
  0
LINE
  5
32A
100
AcDbEntity
  8
0
100
AcDbLine
 62
7
  6
BYLAYER
 10
199.0664302882
 20
462.1490436108
 11
199.3879138252
 21
461.963439203
  0
LINE
  5
32B
100
AcDbEntity
  8
0
100
AcDbLine
 62
7
  6
BYLAYER
 10
182.1522429214
 20
471.9355438142
 11
182.51640355
 21
471.7253003336
  0
LINE
  5
32C
100
AcDbEntity
  8
0
100
AcDbLine
 62
7
  6
BYLAYER
 10
183.510016335
 20
471.1516507024
 11
183.831499872
 21
470.9660462947
  0
LINE
  5
32D
100
AcDbEntity
  8
0
100
AcDbLine
 62
7
  6
BYLAYER
 10
199.3584457731
 20
462.9206211004
 11
199.4092455912
 21
462.8912924752
  0
LINE
  5
32E
100
AcDbEntity
  8
0
100
AcDbLine
 62
7
  6
BYLAYER
 10
183.8020318198
 20
471.9232281921
 11
183.852831638
 21
471.8938995669
  0
ARC
  5
32F
100
AcDbEntity
  8
0
100
AcDbCircle
 62
7
  6
BYLAYER
 10
92.055772689
 20
-57.079534243
 40
136.319316325
100
AcDbArc
 50
56.6385039696
 51
56.9066618881
  0
ARC
  5
330
100
AcDbEntity
  8
0
100
AcDbCircle
 62
7
  6
BYLAYER
 10
92.0557726928
 20
-48.0980076488
 40
136.3193163181
100
AcDbArc
 50
56.6385039696
 51
56.9066618881
  0
ARC
  5
331
100
AcDbEntity
  8
0
100
AcDbCircle
 62
7
  6
BYLAYER
 10
92.6554309978
 20
-47.1872368261
 40
135.2288606454
100
AcDbArc
 50
56.3689065087
 51
56.6385016254
  0
ARC
  5
332
100
AcDbEntity
  8
0
100
AcDbCircle
 62
7
  6
BYLAYER
 10
167.1930347885
 20
61.2780094404
 40
3.8583596813
100
AcDbArc
 50
258.1330873673
 51
258.6283348267
  0
ARC
  5
333
100
AcDbEntity
  8
0
100
AcDbCircle
 62
7
  6
BYLAYER
 10
167.1865611223
 20
61.247130285
 40
3.8268092396
100
AcDbArc
 50
257.8060011598
 51
258.132868015
  0
ARC
  5
334
100
AcDbEntity
  8
0
100
AcDbCircle
 62
7
  6
BYLAYER
 10
167.1751757715
 20
61.1949513643
 40
3.7734027386
100
AcDbArc
 50
256.8068034186
 51
257.8076276332
  0
ARC
  5
335
100
AcDbEntity
  8
0
100
AcDbCircle
 62
7
  6
BYLAYER
 10
167.154697528
 20
61.1077592911
 40
3.683838155
100
AcDbArc
 50
255.7026280401
 51
256.8073856578
  0
ARC
  5
336
100
AcDbEntity
  8
0
100
AcDbCircle
 62
7
  6
BYLAYER
 10
166.9603326947
 20
60.4951016915
 40
3.0406348723
100
AcDbArc
 50
248.1119216206
 51
249.3247364247
  0
ARC
  5
337
100
AcDbEntity
  8
0
100
AcDbCircle
 62
7
  6
BYLAYER
 10
165.0335984502
 20
68.7179422173
 40
1.0330703116
100
AcDbArc
 50
183.163351612
 51
192.2224450404
  0
ARC
  5
338
100
AcDbEntity
  8
0
100
AcDbCircle
 62
7
  6
BYLAYER
 10
165.0296877909
 20
59.7356718505
 40
1.0290908365
100
AcDbArc
 50
180.0632265695
 51
192.2280681856
  0
ARC
  5
339
100
AcDbEntity
  8
0
100
AcDbCircle
 62
7
  6
BYLAYER
 10
165.0132595667
 20
68.7161454471
 40
1.0126634911
100
AcDbArc
 50
182.5077137638
 51
183.1253487331
  0
ARC
  5
33A
100
AcDbEntity
  8
0
100
AcDbCircle
 62
7
  6
BYLAYER
 10
165.0111654537
 20
68.7160680676
 40
1.0105678728
100
AcDbArc
 50
179.6930474763
 51
182.5077663915
  0
ARC
  5
33B
100
AcDbEntity
  8
0
100
AcDbCircle
 62
7
  6
BYLAYER
 10
165.8642985633
 20
67.3670187028
 40
0.6919654062
100
AcDbArc
 50
268.6706853968
 51
269.7706514794
  0
ARC
  5
33C
100
AcDbEntity
  8
0
100
AcDbCircle
 62
7
  6
BYLAYER
 10
165.8644085985
 20
67.3644869037
 40
0.6894340784
100
AcDbArc
 50
269.7606647932
 51
274.6002363192
  0
ARC
  5
33D
100
AcDbEntity
  8
0
100
AcDbCircle
 62
7
  6
BYLAYER
 10
166.121180106
 20
66.2881878597
 40
0.3626363284
100
AcDbArc
 50
55.0220793644
 51
55.7926698333
  0
ARC
  5
33E
100
AcDbEntity
  8
0
100
AcDbCircle
 62
7
  6
BYLAYER
 10
166.6285068967
 20
66.3352263653
 40
0.2676040638
100
AcDbArc
 50
226.6966660123
 51
229.8644333216
  0
ARC
  5
33F
100
AcDbEntity
  8
0
100
AcDbCircle
 62
7
  6
BYLAYER
 10
118.369297257
 20
342.8561035585
 40
147.0230486827
100
AcDbArc
 50
59.4347009724
 51
61.5929260377
  0
ARC
  5
340
100
AcDbEntity
  8
0
100
AcDbCircle
 62
7
  6
BYLAYER
 10
123.2070670827
 20
350.98637542
 40
137.5623774625
100
AcDbArc
 50
57.1914456582
 51
59.4476779068
  0
ARC
  5
341
100
AcDbEntity
  8
0
100
AcDbCircle
 62
7
  6
BYLAYER
 10
92.0557726869
 20
344.2345593125
 40
136.3193163289
100
AcDbArc
 50
56.6385039696
 51
56.9066618881
  0
ARC
  5
342
100
AcDbEntity
  8
0
100
AcDbCircle
 62
7
  6
BYLAYER
 10
92.0557727049
 20
341.7850520887
 40
136.319316296
100
AcDbArc
 50
56.6385039696
 51
56.9066618881
  0
ARC
  5
343
100
AcDbEntity
  8
0
100
AcDbCircle
 62
7
  6
BYLAYER
 10
92.6178709522
 20
345.088459708
 40
135.2970148397
100
AcDbArc
 50
56.4043968661
 51
56.6384606992
  0
ARC
  5
344
100
AcDbEntity
  8
0
100
AcDbCircle
 62
7
  6
BYLAYER
 10
92.6554308053
 20
342.6958226014
 40
135.2288609946
100
AcDbArc
 50
56.3689065085
 51
56.6385016252
  0
ARC
  5
345
100
AcDbEntity
  8
0
100
AcDbCircle
 62
7
  6
BYLAYER
 10
169.9898709861
 20
462.4858503708
 40
7.3346528704
100
AcDbArc
 50
226.5176641933
 51
227.7087694898
  0
ARC
  5
346
100
AcDbEntity
  8
0
100
AcDbCircle
 62
7
  6
BYLAYER
 10
169.8429413792
 20
462.3307562514
 40
7.1210118592
100
AcDbArc
 50
225.5083029145
 51
226.5167396216
  0
ARC
  5
347
100
AcDbEntity
  8
0
100
AcDbCircle
 62
7
  6
BYLAYER
 10
169.7417340096
 20
462.2274435352
 40
6.9763868067
100
AcDbArc
 50
224.989425563
 51
225.5066137028
  0
ARC
  5
348
100
AcDbEntity
  8
0
100
AcDbCircle
 62
7
  6
BYLAYER
 10
169.5331790724
 20
462.0216744908
 40
6.6834154257
100
AcDbArc
 50
222.154398222
 51
225.0058498459
  0
ARC
  5
349
100
AcDbEntity
  8
0
100
AcDbCircle
 62
7
  6
BYLAYER
 10
169.1866870112
 20
461.7080318284
 40
6.2160521116
100
AcDbArc
 50
219.1619099609
 51
222.1546374202
  0
ARC
  5
34A
100
AcDbEntity
  8
0
100
AcDbCircle
 62
7
  6
BYLAYER
 10
168.9442791952
 20
461.5086593679
 40
5.902191394
100
AcDbArc
 50
217.7564676745
 51
219.1473253422
  0
ARC
  5
34B
100
AcDbEntity
  8
0
100
AcDbCircle
 62
7
  6
BYLAYER
 10
168.8265282481
 20
461.4171778999
 40
5.7530803901
100
AcDbArc
 50
216.8818297644
 51
217.7542025016
  0
ARC
  5
34C
100
AcDbEntity
  8
0
100
AcDbCircle
 62
7
  6
BYLAYER
 10
168.7375851037
 20
461.3504395773
 40
5.6418828784
100
AcDbArc
 50
216.0065380958
 51
216.8818133733
  0
ARC
  5
34D
100
AcDbEntity
  8
0
100
AcDbCircle
 62
7
  6
BYLAYER
 10
167.9482324603
 20
460.2397249496
 40
4.3720328765
100
AcDbArc
 50
211.4503959942
 51
212.605925218
  0
ARC
  5
34E
100
AcDbEntity
  8
0
100
AcDbCircle
 62
7
  6
BYLAYER
 10
167.94823246
 20
462.6892322008
 40
4.3720328761
100
AcDbArc
 50
211.4503959941
 51
212.6059252181
  0
ARC
  5
34F
100
AcDbEntity
  8
0
100
AcDbCircle
 62
7
  6
BYLAYER
 10
167.8667380268
 20
462.6393855776
 40
4.2765026271
100
AcDbArc
 50
210.2776792141
 51
211.4503529302
  0
ARC
  5
350
100
AcDbEntity
  8
0
100
AcDbCircle
 62
7
  6
BYLAYER
 10
167.8667380253
 20
460.1898783253
 40
4.2765026253
100
AcDbArc
 50
210.2776792143
 51
211.4503529303
  0
ARC
  5
351
100
AcDbEntity
  8
0
100
AcDbCircle
 62
7
  6
BYLAYER
 10
167.1374382995
 20
463.8411212863
 40
3.6134855707
100
AcDbArc
 50
255.1338532771
 51
255.7007518069
  0
ARC
  5
352
100
AcDbEntity
  8
0
100
AcDbCircle
 62
7
  6
BYLAYER
 10
168.1538088078
 20
459.7989651552
 40
2.8160457114
100
AcDbArc
 50
56.7600478616
 51
57.6997949773
  0
ARC
  5
353
100
AcDbEntity
  8
0
100
AcDbCircle
 62
7
  6
BYLAYER
 10
165.1520917749
 20
458.633922992
 40
1.146949184
100
AcDbArc
 50
198.90197422
 51
202.2441376031
  0
ARC
  5
354
100
AcDbEntity
  8
0
100
AcDbCircle
 62
7
  6
BYLAYER
 10
165.1072236173
 20
458.6186093935
 40
1.0995397383
100
AcDbArc
 50
194.7287646389
 51
198.9044358433
  0
ARC
  5
355
100
AcDbEntity
  8
0
100
AcDbCircle
 62
7
  6
BYLAYER
 10
165.0735604851
 20
458.6181992538
 40
1.0658525497
100
AcDbArc
 50
181.4306066608
 51
188.4130583176
  0
ARC
  5
356
100
AcDbEntity
  8
0
100
AcDbCircle
 62
7
  6
BYLAYER
 10
165.068569567
 20
458.6083289963
 40
1.059542133
100
AcDbArc
 50
190.6967901966
 51
194.7225435166
  0
ARC
  5
357
100
AcDbEntity
  8
0
100
AcDbCircle
 62
7
  6
BYLAYER
 10
165.0635992805
 20
458.6176788981
 40
1.0558814936
100
AcDbArc
 50
180.9172805743
 51
181.4158741309
  0
ARC
  5
358
100
AcDbEntity
  8
0
100
AcDbCircle
 62
7
  6
BYLAYER
 10
165.0456257645
 20
458.6038637229
 40
1.0361682221
100
AcDbArc
 50
187.8350807169
 51
190.6896544896
  0
ARC
  5
359
100
AcDbEntity
  8
0
100
AcDbCircle
 62
7
  6
BYLAYER
 10
165.0282340006
 20
458.6015038089
 40
1.0186171099
100
AcDbArc
 50
183.352215865
 51
187.8369368941
  0
ARC
  5
35A
100
AcDbEntity
  8
0
100
AcDbCircle
 62
7
  6
BYLAYER
 10
165.9764614558
 20
455.8116399535
 40
0.7529449277
100
AcDbArc
 50
92.9550064711
 51
98.7448044223
  0
ARC
  5
35B
100
AcDbEntity
  8
0
100
AcDbCircle
 62
7
  6
BYLAYER
 10
165.9978546422
 20
455.907079702
 40
0.6559410617
100
AcDbArc
 50
73.1142123429
 51
78.9701306701
  0
ARC
  5
35C
100
AcDbEntity
  8
0
100
AcDbCircle
 62
7
  6
BYLAYER
 10
166.5192897657
 20
456.1440931796
 40
0.1331362129
100
AcDbArc
 50
180.004322065
 51
182.1675270709
  0
ARC
  5
35D
100
AcDbEntity
  8
0
100
AcDbCircle
 62
7
  6
BYLAYER
 10
185.7712832225
 20
70.627459972
 40
13.3208872784
100
AcDbArc
 50
247.4298569172
 51
248.5866844906
  0
ARC
  5
35E
100
AcDbEntity
  8
0
100
AcDbCircle
 62
7
  6
BYLAYER
 10
185.7712832218
 20
61.645933382
 40
13.3208872766
100
AcDbArc
 50
247.4298569172
 51
248.5866844906
  0
ARC
  5
35F
100
AcDbEntity
  8
0
100
AcDbCircle
 62
7
  6
BYLAYER
 10
185.6026447837
 20
61.2403124954
 40
12.8816069278
100
AcDbArc
 50
246.2470518674
 51
247.4300322935
  0
ARC
  5
360
100
AcDbEntity
  8
0
100
AcDbCircle
 62
7
  6
BYLAYER
 10
185.6026447743
 20
70.2218390616
 40
12.8816069037
100
AcDbArc
 50
246.2470518681
 51
247.4300322943
  0
ARC
  5
361
100
AcDbEntity
  8
0
100
AcDbCircle
 62
7
  6
BYLAYER
 10
185.9913856436
 20
59.4326576095
 40
11.3255625839
100
AcDbArc
 50
250.8378829735
 51
254.510085161
  0
ARC
  5
362
100
AcDbEntity
  8
0
100
AcDbCircle
 62
7
  6
BYLAYER
 10
185.9254938707
 20
68.2140595239
 40
11.1149388986
100
AcDbArc
 50
252.0542985482
 51
252.4008297937
  0
ARC
  5
363
100
AcDbEntity
  8
0
100
AcDbCircle
 62
7
  6
BYLAYER
 10
185.8544840374
 20
67.9967870381
 40
10.8863577325
100
AcDbArc
 50
250.7974047863
 51
252.0575095438
  0
ARC
  5
364
100
AcDbEntity
  8
0
100
AcDbCircle
 62
7
  6
BYLAYER
 10
185.6309492227
 20
57.8363877795
 40
9.6922485818
100
AcDbArc
 50
262.1424598425
 51
265.8915491712
  0
ARC
  5
365
100
AcDbEntity
  8
0
100
AcDbCircle
 62
7
  6
BYLAYER
 10
185.6242404343
 20
66.7539017649
 40
9.6279200587
100
AcDbArc
 50
262.1299306394
 51
265.9040783744
  0
ARC
  5
366
100
AcDbEntity
  8
0
100
AcDbCircle
 62
7
  6
BYLAYER
 10
185.5883579268
 20
66.4882629514
 40
9.3598700123
100
AcDbArc
 50
260.8441880019
 51
262.1248583204
  0
ARC
  5
367
100
AcDbEntity
  8
0
100
AcDbCircle
 62
7
  6
BYLAYER
 10
185.5675786497
 20
57.3655293292
 40
9.2171477164
100
AcDbArc
 50
258.2583178365
 51
262.1325406654
  0
ARC
  5
368
100
AcDbEntity
  8
0
100
AcDbCircle
 62
7
  6
BYLAYER
 10
185.5346926751
 20
66.1678542473
 40
9.035004562
100
AcDbArc
 50
258.231241804
 51
260.8568592561
  0
ARC
  5
369
100
AcDbEntity
  8
0
100
AcDbCircle
 62
7
  6
BYLAYER
 10
170.5069993657
 20
73.229620157
 40
8.1448120634
100
AcDbArc
 50
225.5687608359
 51
226.035315042
  0
ARC
  5
36A
100
AcDbEntity
  8
0
100
AcDbCircle
 62
7
  6
BYLAYER
 10
182.0056428752
 20
52.6030955121
 40
5.8921111432
100
AcDbArc
 50
227.1901408703
 51
227.7872233297
  0
ARC
  5
36B
100
AcDbEntity
  8
0
100
AcDbCircle
 62
7
  6
BYLAYER
 10
185.1345240218
 20
62.710774039
 40
5.5946379639
100
AcDbArc
 50
281.2363039559
 51
281.3690769546
  0
ARC
  5
36C
100
AcDbEntity
  8
0
100
AcDbCircle
 62
7
  6
BYLAYER
 10
185.3007028607
 20
53.2410276547
 40
5.0850371384
100
AcDbArc
 50
265.8934099525
 51
273.2346131221
  0
ARC
  5
36D
100
AcDbEntity
  8
0
100
AcDbCircle
 62
7
  6
BYLAYER
 10
185.3007028607
 20
62.222554243
 40
5.0850371382
100
AcDbArc
 50
265.8934099525
 51
273.2346131222
  0
ARC
  5
36E
100
AcDbEntity
  8
0
100
AcDbCircle
 62
7
  6
BYLAYER
 10
185.3070868497
 20
62.1191411172
 40
4.9814285788
100
AcDbArc
 50
273.228416286
 51
277.6302902745
  0
ARC
  5
36F
100
AcDbEntity
  8
0
100
AcDbCircle
 62
7
  6
BYLAYER
 10
185.3255113992
 20
61.9657243157
 40
4.826924251
100
AcDbArc
 50
277.6553281543
 51
278.0629868615
  0
ARC
  5
370
100
AcDbEntity
  8
0
100
AcDbCircle
 62
7
  6
BYLAYER
 10
185.3388722664
 20
61.8739684717
 40
4.7342014583
100
AcDbArc
 50
278.0586425133
 51
280.7839699151
  0
ARC
  5
371
100
AcDbEntity
  8
0
100
AcDbCircle
 62
7
  6
BYLAYER
 10
182.8129833369
 20
52.7181015343
 40
4.2843155428
100
AcDbArc
 50
272.1528970085
 51
274.503578467
  0
ARC
  5
372
100
AcDbEntity
  8
0
100
AcDbCircle
 62
7
  6
BYLAYER
 10
182.9459537682
 20
50.457775372
 40
2.207827012
100
AcDbArc
 50
287.1354445223
 51
289.755352818
  0
ARC
  5
373
100
AcDbEntity
  8
0
100
AcDbCircle
 62
7
  6
BYLAYER
 10
181.3705907173
 20
49.9584327132
 40
1.0752584592
100
AcDbArc
 50
207.6219571101
 51
210.0957477924
  0
ARC
  5
374
100
AcDbEntity
  8
0
100
AcDbCircle
 62
7
  6
BYLAYER
 10
181.2842376607
 20
58.7501460792
 40
0.6203317299
100
AcDbArc
 50
280.5891786426
 51
281.898907023
  0
ARC
  5
375
100
AcDbEntity
  8
0
100
AcDbCircle
 62
7
  6
BYLAYER
 10
181.2897664648
 20
58.7247310841
 40
0.5943228938
100
AcDbArc
 50
281.882537214
 51
285.1371778711
  0
ARC
  5
376
100
AcDbEntity
  8
0
100
AcDbCircle
 62
7
  6
BYLAYER
 10
181.2997505255
 20
58.6875228156
 40
0.5557984846
100
AcDbArc
 50
285.1452786763
 51
287.3515115902
  0
ARC
  5
377
100
AcDbEntity
  8
0
100
AcDbCircle
 62
7
  6
BYLAYER
 10
182.4482749052
 20
58.091865998
 40
0.4142444877
100
AcDbArc
 50
242.5271917985
 51
245.0992784352
  0
ARC
  5
378
100
AcDbEntity
  8
0
100
AcDbCircle
 62
7
  6
BYLAYER
 10
182.4320402927
 20
58.0608726436
 40
0.3792567977
100
AcDbArc
 50
239.0006457928
 51
242.5431668615
  0
ARC
  5
379
100
AcDbEntity
  8
0
100
AcDbCircle
 62
7
  6
BYLAYER
 10
181.888795058
 20
57.8768131258
 40
0.2558837903
100
AcDbArc
 50
41.0569849181
 51
43.2229743417
  0
ARC
  5
37A
100
AcDbEntity
  8
0
100
AcDbCircle
 62
7
  6
BYLAYER
 10
190.8959604748
 20
73.9587791616
 40
26.6561992658
100
AcDbArc
 50
248.1565663155
 51
248.319071586
  0
ARC
  5
37B
100
AcDbEntity
  8
0
100
AcDbCircle
 62
7
  6
BYLAYER
 10
190.8503435536
 20
73.8449795874
 40
26.5335972813
100
AcDbArc
 50
247.9935613293
 51
248.1565667981
  0
ARC
  5
37C
100
AcDbEntity
  8
0
100
AcDbCircle
 62
7
  6
BYLAYER
 10
186.2922643704
 20
69.5549928219
 40
12.5055604642
100
AcDbArc
 50
256.6034317661
 51
257.9985033051
  0
ARC
  5
37D
100
AcDbEntity
  8
0
100
AcDbCircle
 62
7
  6
BYLAYER
 10
186.2498996529
 20
60.3815900656
 40
12.3090691871
100
AcDbArc
 50
254.5301289395
 51
258.0056740375
  0
ARC
  5
37E
100
AcDbEntity
  8
0
100
AcDbCircle
 62
7
  6
BYLAYER
 10
200.9820423953
 20
67.2077210243
 40
1.5513144993
100
AcDbArc
 50
268.2059676782
 51
275.5606159057
  0
ARC
  5
37F
100
AcDbEntity
  8
0
100
AcDbCircle
 62
7
  6
BYLAYER
 10
200.9792071096
 20
67.1678595015
 40
1.5082343863
100
AcDbArc
 50
260.126955702
 51
268.2645788551
  0
ARC
  5
380
100
AcDbEntity
  8
0
100
AcDbCircle
 62
7
  6
BYLAYER
 10
200.9778892894
 20
67.1520959124
 40
1.4955885746
100
AcDbArc
 50
260.0740424864
 51
268.2982804432
  0
ARC
  5
381
100
AcDbEntity
  8
0
100
AcDbCircle
 62
7
  6
BYLAYER
 10
201.6439404331
 20
58.1654578869
 40
0.9928046467
100
AcDbArc
 50
350.3631012306
 51
359.9687753311
  0
ARC
  5
382
100
AcDbEntity
  8
0
100
AcDbCircle
 62
7
  6
BYLAYER
 10
187.558149783
 20
58.0972580039
 40
0.3238415092
100
AcDbArc
 50
342.7511487695
 51
343.6478734022
  0
ARC
  5
383
100
AcDbEntity
  8
0
100
AcDbCircle
 62
7
  6
BYLAYER
 10
197.8018354647
 20
90.1709527116
 40
44.2779939461
100
AcDbArc
 50
244.5458870226
 51
246.8775999189
  0
ARC
  5
384
100
AcDbEntity
  8
0
100
AcDbCircle
 62
7
  6
BYLAYER
 10
197.5941960486
 20
98.6923575428
 40
43.7732965635
100
AcDbArc
 50
244.5324430423
 51
246.8910438996
  0
ARC
  5
385
100
AcDbEntity
  8
0
100
AcDbCircle
 62
7
  6
BYLAYER
 10
196.6046860206
 20
87.6301382726
 40
41.4692978141
100
AcDbArc
 50
242.5147933692
 51
244.5305923486
  0
ARC
  5
386
100
AcDbEntity
  8
0
100
AcDbCircle
 62
7
  6
BYLAYER
 10
196.2830920535
 20
95.9653593615
 40
40.7475106223
100
AcDbArc
 50
242.0737344948
 51
244.548041821
  0
ARC
  5
387
100
AcDbEntity
  8
0
100
AcDbCircle
 62
7
  6
BYLAYER
 10
195.8236734641
 20
83.6568748387
 40
39.7570767261
100
AcDbArc
 50
242.0664984747
 51
242.4998290462
  0
ARC
  5
388
100
AcDbEntity
  8
0
100
AcDbCircle
 62
7
  6
BYLAYER
 10
190.8959604784
 20
82.9403057589
 40
26.6561992754
100
AcDbArc
 50
248.1565663155
 51
248.319071586
  0
ARC
  5
389
100
AcDbEntity
  8
0
100
AcDbCircle
 62
7
  6
BYLAYER
 10
190.8503435457
 20
82.826506156
 40
26.53359726
100
AcDbArc
 50
247.9935613293
 51
248.1565667982
  0
ARC
  5
38A
100
AcDbEntity
  8
0
100
AcDbCircle
 62
7
  6
BYLAYER
 10
247.8775079455
 20
196.7363258285
 40
153.9556677668
100
AcDbArc
 50
241.2778911672
 51
242.6722721269
  0
ARC
  5
38B
100
AcDbEntity
  8
0
100
AcDbCircle
 62
7
  6
BYLAYER
 10
247.7556698143
 20
185.058980702
 40
153.6809126925
100
AcDbArc
 50
240.5825141155
 51
242.6704691288
  0
ARC
  5
38C
100
AcDbEntity
  8
0
100
AcDbCircle
 62
7
  6
BYLAYER
 10
246.438828378
 20
194.0977550533
 40
150.9503701521
100
AcDbArc
 50
241.1341218606
 51
241.275488097
  0
ARC
  5
38D
100
AcDbEntity
  8
0
100
AcDbCircle
 62
7
  6
BYLAYER
 10
245.9258516503
 20
193.168723291
 40
149.8891229634
100
AcDbArc
 50
240.851312492
 51
241.0897257228
  0
ARC
  5
38E
100
AcDbEntity
  8
0
100
AcDbCircle
 62
7
  6
BYLAYER
 10
243.0604749051
 20
176.6772309683
 40
144.0737381034
100
AcDbArc
 50
238.3921306864
 51
240.571758467
  0
ARC
  5
38F
100
AcDbEntity
  8
0
100
AcDbCircle
 62
7
  6
BYLAYER
 10
241.4455047964
 20
185.4089766016
 40
140.9284717403
100
AcDbArc
 50
238.3761693294
 51
239.7097421113
  0
ARC
  5
390
100
AcDbEntity
  8
0
100
AcDbCircle
 62
7
  6
BYLAYER
 10
179.3692964602
 20
437.37663791
 40
34.5242599617
100
AcDbArc
 50
57.3699120311
 51
57.8459914418
  0
ARC
  5
391
100
AcDbEntity
  8
0
100
AcDbCircle
 62
7
  6
BYLAYER
 10
180.2505156423
 20
436.2778148475
 40
32.9115163079
100
AcDbArc
 50
55.3623640114
 51
56.9246308819
  0
ARC
  5
392
100
AcDbEntity
  8
0
100
AcDbCircle
 62
7
  6
BYLAYER
 10
179.5909229411
 20
455.8518819413
 40
16.3259819019
100
AcDbArc
 50
69.4666022441
 51
69.9534449276
  0
ARC
  5
393
100
AcDbEntity
  8
0
100
AcDbCircle
 62
7
  6
BYLAYER
 10
185.7850156279
 20
460.5445227182
 40
13.3575567227
100
AcDbArc
 50
247.4314448447
 51
248.5850965628
  0
ARC
  5
394
100
AcDbEntity
  8
0
100
AcDbCircle
 62
7
  6
BYLAYER
 10
185.7577030641
 20
462.9264008966
 40
13.2846243873
100
AcDbArc
 50
247.4282779738
 51
248.5882634337
  0
ARC
  5
395
100
AcDbEntity
  8
0
100
AcDbCircle
 62
7
  6
BYLAYER
 10
185.617168239
 20
460.1388476209
 40
12.9185299304
100
AcDbArc
 50
246.24874244
 51
247.4283416802
  0
ARC
  5
396
100
AcDbEntity
  8
0
100
AcDbCircle
 62
7
  6
BYLAYER
 10
185.5882767028
 20
462.5208204383
 40
12.845078956
100
AcDbArc
 50
246.2453697145
 51
247.4317144042
  0
ARC
  5
397
100
AcDbEntity
  8
0
100
AcDbCircle
 62
7
  6
BYLAYER
 10
185.9391797052
 20
460.579404865
 40
11.1503535602
100
AcDbArc
 50
250.8090216232
 51
254.5389465113
  0
ARC
  5
398
100
AcDbEntity
  8
0
100
AcDbCircle
 62
7
  6
BYLAYER
 10
185.6047059108
 20
457.6038421699
 40
10.5751875281
100
AcDbArc
 50
266.704564545
 51
269.9068806394
  0
ARC
  5
399
100
AcDbEntity
  8
0
100
AcDbCircle
 62
7
  6
BYLAYER
 10
185.5907287668
 20
457.3730750642
 40
10.3439985729
100
AcDbArc
 50
263.4547710229
 51
266.7083781791
  0
ARC
  5
39A
100
AcDbEntity
  8
0
100
AcDbCircle
 62
7
  6
BYLAYER
 10
185.5697147013
 20
457.1774304319
 40
10.1472338755
100
AcDbArc
 50
262.8499971727
 51
263.4467308115
  0
ARC
  5
39B
100
AcDbEntity
  8
0
100
AcDbCircle
 62
7
  6
BYLAYER
 10
185.5452393535
 20
456.9931840793
 40
9.961373987
100
AcDbArc
 50
260.1296564314
 51
262.8577755895
  0
ARC
  5
39C
100
AcDbEntity
  8
0
100
AcDbCircle
 62
7
  6
BYLAYER
 10
185.6309492228
 20
456.700974087
 40
9.6922485819
100
AcDbArc
 50
262.1424598425
 51
265.8915491711
  0
ARC
  5
39D
100
AcDbEntity
  8
0
100
AcDbCircle
 62
7
  6
BYLAYER
 10
185.6242404343
 20
459.0864687351
 40
9.6279200585
100
AcDbArc
 50
262.1299306394
 51
265.9040783745
  0
ARC
  5
39E
100
AcDbEntity
  8
0
100
AcDbCircle
 62
7
  6
BYLAYER
 10
185.4831108882
 20
456.6287296215
 40
9.5916641895
100
AcDbArc
 50
259.2304835838
 51
260.1220961707
  0
ARC
  5
39F
100
AcDbEntity
  8
0
100
AcDbCircle
 62
7
  6
BYLAYER
 10
185.4569253527
 20
456.4918138876
 40
9.4522669855
100
AcDbArc
 50
258.084164753
 51
259.2313348267
  0
ARC
  5
3A0
100
AcDbEntity
  8
0
100
AcDbCircle
 62
7
  6
BYLAYER
 10
185.413367548
 20
456.2865255135
 40
9.242408596
100
AcDbArc
 50
256.669490942
 51
258.0856053366
  0
ARC
  5
3A1
100
AcDbEntity
  8
0
100
AcDbCircle
 62
7
  6
BYLAYER
 10
185.5675786496
 20
456.2301156364
 40
9.2171477163
100
AcDbArc
 50
258.2583178365
 51
262.1325406654
  0
ARC
  5
3A2
100
AcDbEntity
  8
0
100
AcDbCircle
 62
7
  6
BYLAYER
 10
185.5507418901
 20
458.5821947864
 40
9.1183326338
100
AcDbArc
 50
258.2373172884
 51
262.1535412132
  0
ARC
  5
3A3
100
AcDbEntity
  8
0
100
AcDbCircle
 62
7
  6
BYLAYER
 10
185.2945243847
 20
455.8000318098
 40
8.7416221332
100
AcDbArc
 50
253.0677629623
 51
256.6922427591
  0
ARC
  5
3A4
100
AcDbEntity
  8
0
100
AcDbCircle
 62
7
  6
BYLAYER
 10
170.764132187
 20
463.4061007205
 40
8.5377239095
100
AcDbArc
 50
232.2865462231
 51
232.7630302254
  0
ARC
  5
3A5
100
AcDbEntity
  8
0
100
AcDbCircle
 62
7
  6
BYLAYER
 10
170.6921089778
 20
463.31297129
 40
8.4199935676
100
AcDbArc
 50
231.7877142329
 51
232.2865982691
  0
ARC
  5
3A6
100
AcDbEntity
  8
0
100
AcDbCircle
 62
7
  6
BYLAYER
 10
170.5455976624
 20
463.1279584378
 40
8.1839959928
100
AcDbArc
 50
230.2998931798
 51
231.7924246281
  0
ARC
  5
3A7
100
AcDbEntity
  8
0
100
AcDbCircle
 62
7
  6
BYLAYER
 10
185.0882803875
 20
455.1198784457
 40
8.0308869402
100
AcDbArc
 50
249.9007267079
 51
253.0621631026
  0
ARC
  5
3A8
100
AcDbEntity
  8
0
100
AcDbCircle
 62
7
  6
BYLAYER
 10
170.2529201469
 20
462.7775425482
 40
7.727433301
100
AcDbArc
 50
227.7213226131
 51
230.3099081159
  0
ARC
  5
3A9
100
AcDbEntity
  8
0
100
AcDbCircle
 62
7
  6
BYLAYER
 10
184.9478677526
 20
454.7281613291
 40
7.6147739465
100
AcDbArc
 50
249.1807268778
 51
249.8800243069
  0
ARC
  5
3AA
100
AcDbEntity
  8
0
100
AcDbCircle
 62
7
  6
BYLAYER
 10
185.3186593899
 20
452.3289029171
 40
5.3070489972
100
AcDbArc
 50
272.903892742
 51
276.0067932959
  0
ARC
  5
3AB
100
AcDbEntity
  8
0
100
AcDbCircle
 62
7
  6
BYLAYER
 10
185.3301328185
 20
452.2165728088
 40
5.1941349966
100
AcDbArc
 50
276.0105934857
 51
277.2767572195
  0
ARC
  5
3AC
100
AcDbEntity
  8
0
100
AcDbCircle
 62
7
  6
BYLAYER
 10
185.3007028607
 20
452.1056139621
 40
5.0850371384
100
AcDbArc
 50
265.8934099525
 51
273.2346131221
  0
ARC
  5
3AD
100
AcDbEntity
  8
0
100
AcDbCircle
 62
7
  6
BYLAYER
 10
185.3007028607
 20
454.5551212133
 40
5.0850371382
100
AcDbArc
 50
265.8934099525
 51
273.2346131222
  0
ARC
  5
3AE
100
AcDbEntity
  8
0
100
AcDbCircle
 62
7
  6
BYLAYER
 10
185.3593941649
 20
452.0046561516
 40
4.9802193076
100
AcDbArc
 50
277.251632885
 51
281.7913686228
  0
ARC
  5
3AF
100
AcDbEntity
  8
0
100
AcDbCircle
 62
7
  6
BYLAYER
 10
185.4476101011
 20
451.5874405646
 40
4.5537810573
100
AcDbArc
 50
281.7775660921
 51
286.595222866
  0
ARC
  5
3B0
100
AcDbEntity
  8
0
100
AcDbCircle
 62
7
  6
BYLAYER
 10
185.5586679675
 20
451.2071313954
 40
4.1575946464
100
AcDbArc
 50
286.6253703385
 51
289.3361534815
  0
ARC
  5
3B1
100
AcDbEntity
  8
0
100
AcDbCircle
 62
7
  6
BYLAYER
 10
185.6508581063
 20
450.9444472071
 40
3.8792028285
100
AcDbArc
 50
289.3359678026
 51
291.8583021035
  0
ARC
  5
3B2
100
AcDbEntity
  8
0
100
AcDbCircle
 62
7
  6
BYLAYER
 10
182.6938522532
 20
454.8598246888
 40
3.6134855727
100
AcDbArc
 50
255.1338532774
 51
255.7007518068
  0
ARC
  5
3B3
100
AcDbEntity
  8
0
100
AcDbCircle
 62
7
  6
BYLAYER
 10
181.6758054009
 20
447.2972735804
 40
0.7759623327
100
AcDbArc
 50
84.6629284054
 51
89.7393902823
  0
ARC
  5
3B4
100
AcDbEntity
  8
0
100
AcDbCircle
 62
7
  6
BYLAYER
 10
182.2611589675
 20
447.776608416
 40
0.1335492839
100
AcDbArc
 50
183.8581026504
 51
188.4518600636
  0
ARC
  5
3B5
100
AcDbEntity
  8
0
100
AcDbCircle
 62
7
  6
BYLAYER
 10
182.2600197207
 20
447.7765195591
 40
0.1324066407
100
AcDbArc
 50
180.0050898866
 51
183.8529097098
  0
ARC
  5
3B6
100
AcDbEntity
  8
0
100
AcDbCircle
 62
7
  6
BYLAYER
 10
182.1356698299
 20
468.2219615067
 40
3.4478991875
100
AcDbArc
 50
119.4411822506
 51
121.3823732568
  0
ARC
  5
3B7
100
AcDbEntity
  8
0
100
AcDbCircle
 62
7
  6
BYLAYER
 10
182.4554426514
 20
472.0679033764
 40
1.6468931864
100
AcDbArc
 50
240.0214320941
 51
243.8759279707
  0
ARC
  5
3B8
100
AcDbEntity
  8
0
100
AcDbCircle
 62
7
  6
BYLAYER
 10
186.2498996528
 20
459.2461763728
 40
12.3090691869
100
AcDbArc
 50
254.5301289395
 51
258.0056740375
  0
ARC
  5
3B9
100
AcDbEntity
  8
0
100
AcDbCircle
 62
7
  6
BYLAYER
 10
186.213160939
 20
461.5453414517
 40
12.1543753135
100
AcDbArc
 50
254.508004659
 51
258.0277983179
  0
ARC
  5
3BA
100
AcDbEntity
  8
0
100
AcDbCircle
 62
7
  6
BYLAYER
 10
200.1990661579
 20
458.3980631853
 40
3.0557463603
100
AcDbArc
 50
296.0613548594
 51
299.178586339
  0
ARC
  5
3BB
100
AcDbEntity
  8
0
100
AcDbCircle
 62
7
  6
BYLAYER
 10
186.0111157549
 20
450.1623708947
 40
3.0174254146
100
AcDbArc
 50
297.6633813603
 51
300.671800189
  0
ARC
  5
3BC
100
AcDbEntity
  8
0
100
AcDbCircle
 62
7
  6
BYLAYER
 10
197.4743859418
 20
459.7986330788
 40
2.8193911166
100
AcDbArc
 50
122.2484353754
 51
123.3310036171
  0
ARC
  5
3BD
100
AcDbEntity
  8
0
100
AcDbCircle
 62
7
  6
BYLAYER
 10
186.1574805308
 20
449.916562196
 40
2.7313410021
100
AcDbArc
 50
300.6613745453
 51
304.2206101489
  0
ARC
  5
3BE
100
AcDbEntity
  8
0
100
AcDbCircle
 62
7
  6
BYLAYER
 10
200.7283397279
 20
457.6181720144
 40
2.1110990182
100
AcDbArc
 50
309.6830287573
 51
313.1535491687
  0
ARC
  5
3BF
100
AcDbEntity
  8
0
100
AcDbCircle
 62
7
  6
BYLAYER
 10
200.8865334692
 20
457.4507187826
 40
1.8807406357
100
AcDbArc
 50
313.1268803858
 51
318.0627619868
  0
ARC
  5
3C0
100
AcDbEntity
  8
0
100
AcDbCircle
 62
7
  6
BYLAYER
 10
200.9811418373
 20
457.1070419723
 40
1.5675610483
100
AcDbArc
 50
271.588081745
 51
276.325959055
  0
ARC
  5
3C1
100
AcDbEntity
  8
0
100
AcDbCircle
 62
7
  6
BYLAYER
 10
200.9814012997
 20
457.0855721624
 40
1.5460923308
100
AcDbArc
 50
268.2257347554
 51
271.6005202375
  0
ARC
  5
3C2
100
AcDbEntity
  8
0
100
AcDbCircle
 62
7
  6
BYLAYER
 10
200.9813026623
 20
457.0767093913
 40
1.5372307647
100
AcDbArc
 50
264.3017217232
 51
268.2191816751
  0
ARC
  5
3C3
100
AcDbEntity
  8
0
100
AcDbCircle
 62
7
  6
BYLAYER
 10
200.9755409047
 20
457.0228184348
 40
1.4830340728
100
AcDbArc
 50
260.4355510616
 51
264.3164977937
  0
ARC
  5
3C4
100
AcDbEntity
  8
0
100
AcDbCircle
 62
7
  6
BYLAYER
 10
200.992012009
 20
457.0145838271
 40
1.4744682712
100
AcDbArc
 50
276.3020020326
 51
279.756281459
  0
ARC
  5
3C5
100
AcDbEntity
  8
0
100
AcDbCircle
 62
7
  6
BYLAYER
 10
200.957552051
 20
456.9177720249
 40
1.3764589359
100
AcDbArc
 50
255.822265732
 51
260.4473980304
  0
ARC
  5
3C6
100
AcDbEntity
  8
0
100
AcDbCircle
 62
7
  6
BYLAYER
 10
201.2891315694
 20
457.1363782973
 40
1.3687877243
100
AcDbArc
 50
327.8527101634
 51
331.9764686728
  0
ARC
  5
3C7
100
AcDbEntity
  8
0
100
AcDbCircle
 62
7
  6
BYLAYER
 10
200.99533152
 20
456.8732150514
 40
1.3368832743
100
AcDbArc
 50
289.563067467
 51
294.1157669486
  0
ARC
  5
3C8
100
AcDbEntity
  8
0
100
AcDbCircle
 62
7
  6
BYLAYER
 10
201.3942126187
 20
457.0812630728
 40
1.2501321246
100
AcDbArc
 50
331.9435870483
 51
338.9713238596
  0
ARC
  5
3C9
100
AcDbEntity
  8
0
100
AcDbCircle
 62
7
  6
BYLAYER
 10
200.9254482613
 20
456.7913102513
 40
1.2459859191
100
AcDbArc
 50
251.4015016007
 51
255.8292353748
  0
ARC
  5
3CA
100
AcDbEntity
  8
0
100
AcDbCircle
 62
7
  6
BYLAYER
 10
201.0488773119
 20
456.7246772931
 40
1.1789908005
100
AcDbArc
 50
285.4967871626
 51
289.5281860173
  0
ARC
  5
3CB
100
AcDbEntity
  8
0
100
AcDbCircle
 62
7
  6
BYLAYER
 10
201.4741820465
 20
457.0493188992
 40
1.1640264321
100
AcDbArc
 50
339.0264958899
 51
342.4590257443
  0
ARC
  5
3CC
100
AcDbEntity
  8
0
100
AcDbCircle
 62
7
  6
BYLAYER
 10
201.5365781167
 20
457.0303639034
 40
1.0988191155
100
AcDbArc
 50
342.4208678812
 51
351.2703254469
  0
ARC
  5
3CD
100
AcDbEntity
  8
0
100
AcDbCircle
 62
7
  6
BYLAYER
 10
201.6374705044
 20
459.4779354113
 40
0.9992750063
100
AcDbArc
 50
0.06163665
 51
12.208006745
  0
ARC
  5
3CE
100
AcDbEntity
  8
0
100
AcDbCircle
 62
7
  6
BYLAYER
 10
201.6439404331
 20
457.0300441942
 40
0.9928046467
100
AcDbArc
 50
350.3631012306
 51
359.9687753312
  0
ARC
  5
3CF
100
AcDbEntity
  8
0
100
AcDbCircle
 62
7
  6
BYLAYER
 10
201.6439404331
 20
459.4795514456
 40
0.9928046467
100
AcDbArc
 50
350.3631012306
 51
359.9687753312
  0
ARC
  5
3D0
100
AcDbEntity
  8
0
100
AcDbCircle
 62
7
  6
BYLAYER
 10
187.3097886906
 20
448.1730256846
 40
0.6422106111
100
AcDbArc
 50
306.693826423
 51
311.9891368475
  0
ARC
  5
3D1
100
AcDbEntity
  8
0
100
AcDbCircle
 62
7
  6
BYLAYER
 10
201.1039458726
 20
461.6697288629
 40
0.3229316841
100
AcDbArc
 50
228.1843911068
 51
233.5385266574
  0
ARC
  5
3D2
100
AcDbEntity
  8
0
100
AcDbCircle
 62
7
  6
BYLAYER
 10
197.9332545604
 20
489.308631331
 40
44.5807581426
100
AcDbArc
 50
244.5499429967
 51
246.8600959478
  0
ARC
  5
3D3
100
AcDbEntity
  8
0
100
AcDbCircle
 62
7
  6
BYLAYER
 10
197.7260590538
 20
491.2991441938
 40
44.0772687259
100
AcDbArc
 50
244.5367468766
 51
246.8732920674
  0
ARC
  5
3D4
100
AcDbEntity
  8
0
100
AcDbCircle
 62
7
  6
BYLAYER
 10
196.6437225835
 20
486.5775562145
 40
41.5605639493
100
AcDbArc
 50
242.1167923645
 51
244.5372419397
  0
ARC
  5
3D5
100
AcDbEntity
  8
0
100
AcDbCircle
 62
7
  6
BYLAYER
 10
196.566358812
 20
488.8765775322
 40
41.3914352312
100
AcDbArc
 50
242.567983077
 51
244.5443728248
  0
ARC
  5
3D6
100
AcDbEntity
  8
0
100
AcDbCircle
 62
7
  6
BYLAYER
 10
195.9715483453
 20
490.1735353663
 40
40.0944540929
100
AcDbArc
 50
242.0949928534
 51
242.563630475
  0
ARC
  5
3D7
100
AcDbEntity
  8
0
100
AcDbCircle
 62
7
  6
BYLAYER
 10
190.8959605001
 20
475.2728727837
 40
26.656199334
100
AcDbArc
 50
248.1565663157
 51
248.3190715858
  0
ARC
  5
3D8
100
AcDbEntity
  8
0
100
AcDbCircle
 62
7
  6
BYLAYER
 10
190.895960468
 20
472.8233654518
 40
26.6561992474
100
AcDbArc
 50
248.1565663154
 51
248.319071586
  0
ARC
  5
3D9
100
AcDbEntity
  8
0
100
AcDbCircle
 62
7
  6
BYLAYER
 10
190.850343568
 20
472.7095659305
 40
26.5335973198
100
AcDbArc
 50
247.9935613293
 51
248.1565667981
  0
ARC
  5
3DA
100
AcDbEntity
  8
0
100
AcDbCircle
 62
7
  6
BYLAYER
 10
190.8503435613
 20
475.1590731653
 40
26.533597302
100
AcDbArc
 50
247.9935613293
 51
248.1565667981
  0
ARC
  5
3DB
100
AcDbEntity
  8
0
100
AcDbCircle
 62
7
  6
BYLAYER
 10
197.608393846
 20
465.8090869945
 40
0.7365192186
100
AcDbArc
 50
59.1144307694
 51
60.0022232277
  0
ARC
  5
3DC
100
AcDbEntity
  8
0
100
AcDbCircle
 62
7
  6
BYLAYER
 10
248.4082128954
 20
587.5281102005
 40
155.0066204315
100
AcDbArc
 50
240.5838250067
 51
242.6553020412
  0
ARC
  5
3DD
100
AcDbEntity
  8
0
100
AcDbCircle
 62
7
  6
BYLAYER
 10
247.6409137695
 20
591.0068757685
 40
153.392620872
100
AcDbArc
 50
240.572925741
 51
242.6662013176
  0
ARC
  5
3DE
100
AcDbEntity
  8
0
100
AcDbCircle
 62
7
  6
BYLAYER
 10
242.9060205778
 20
582.6754561968
 40
143.8097839469
100
AcDbArc
 50
238.399685319
 51
240.585137509
  0
ARC
  5
3DF
100
AcDbEntity
  8
0
100
AcDbCircle
 62
7
  6
BYLAYER
 10
232.1945378289
 20
560.3513220616
 40
123.3929532627
100
AcDbArc
 50
244.3595033402
 51
245.1932283274
  0
ARC
  5
3E0
100
AcDbEntity
  8
0
100
AcDbCircle
 62
7
  6
BYLAYER
 10
231.489239866
 20
558.8745502566
 40
121.7564051027
100
AcDbArc
 50
244.2038351813
 51
244.3580030836
  0
ARC
  5
3E1
100
AcDbEntity
  8
0
100
AcDbCircle
 62
7
  6
BYLAYER
 10
230.8346981188
 20
557.5257121543
 40
120.2571440915
100
AcDbArc
 50
243.5238691841
 51
244.2049501967
  0
ARC
  5
3E2
100
AcDbEntity
  8
0
100
AcDbCircle
 62
7
  6
BYLAYER
 10
228.4685873319
 20
552.8343545848
 40
115.0029471326
100
AcDbArc
 50
241.569091465
 51
243.5370365322
  0
ARC
  5
3E3
100
AcDbEntity
  8
0
100
AcDbCircle
 62
7
  6
BYLAYER
 10
227.0168572528
 20
550.1331328142
 40
111.9363483111
100
AcDbArc
 50
241.4179036964
 51
241.5642756414
  0
ARC
  5
3E4
100
AcDbEntity
  8
0
100
AcDbCircle
 62
7
  6
BYLAYER
 10
226.3310675477
 20
548.8791792891
 40
110.5071171891
100
AcDbArc
 50
240.7100159304
 51
241.4190966925
  0
ARC
  5
3E5
100
AcDbEntity
  8
0
100
AcDbCircle
 62
7
  6
BYLAYER
 10
224.2824956119
 20
545.2579789728
 40
106.3466481467
100
AcDbArc
 50
239.1363002215
 51
240.7181362102
  0
ARC
  5
3E6
100
AcDbEntity
  8
0
100
AcDbCircle
 62
7
  6
BYLAYER
 10
222.6851235477
 20
542.5777343293
 40
103.2265048713
100
AcDbArc
 50
238.4858334652
 51
239.1341963144
  0
ARC
  5
3E7
100
AcDbEntity
  8
0
100
AcDbCircle
 62
7
  6
BYLAYER
 10
221.5119113192
 20
540.6666214159
 40
100.9840097522
100
AcDbArc
 50
237.702740743
 51
238.4573438109
  0
ARC
  5
3E8
100
AcDbEntity
  8
0
100
AcDbCircle
 62
7
  6
BYLAYER
 10
220.6095671329
 20
539.2355768515
 40
99.2922325901
100
AcDbArc
 50
237.3351914428
 51
237.7016535973
  0
ARC
  5
3E9
100
AcDbEntity
  8
0
100
AcDbCircle
 62
7
  6
BYLAYER
 10
220.0133932192
 20
538.3057108802
 40
98.1876629636
100
AcDbArc
 50
236.9649914113
 51
237.3351996821
  0
SPLINE
  5
3EA
100
AcDbEntity
  8
0
100
AcDbSpline
 62
7
  6
BYLAYER
 70
0
 71
3
 72
9
 73
5
 74
0
 42
0.0000001
 43
0.0000001
 44
0.0000000001
 40
0.0
 40
0.0
 40
0.0
 40
0.0
 40
0.2411856886
 40
1.0
 40
1.0
 40
1.0
 40
1.0
 10
166.0762452015
 20
57.4975705967
 30
0.0
 10
166.0970943275
 20
57.4855825598
 30
0.0
 10
166.184641367
 20
57.4378079628
 30
0.0
 10
166.276232013
 20
57.3975533687
 30
0.0
 10
166.3470700127
 20
57.370959342
 30
0.0
  0
SPLINE
  5
3EB
100
AcDbEntity
  8
0
100
AcDbSpline
 62
7
  6
BYLAYER
 70
0
 71
3
 72
9
 73
5
 74
0
 42
0.0000001
 43
0.0000001
 44
0.0000000001
 40
0.0
 40
0.0
 40
0.0
 40
0.0
 40
0.2408001262
 40
1.0
 40
1.0
 40
1.0
 40
1.0
 10
165.8760208185
 20
57.6373705126
 30
0.0
 10
165.8909771596
 20
57.6246779505
 30
0.0
 10
165.9544318857
 20
57.573557294
 30
0.0
 10
166.0227351785
 20
57.5285807919
 30
0.0
 10
166.0762452015
 20
57.4975705967
 30
0.0
  0
SPLINE
  5
3EC
100
AcDbEntity
  8
0
100
AcDbSpline
 62
7
  6
BYLAYER
 70
0
 71
3
 72
9
 73
5
 74
0
 42
0.0000001
 43
0.0000001
 44
0.0000000001
 40
0.0
 40
0.0
 40
0.0
 40
0.0
 40
0.2324918756
 40
1.0
 40
1.0
 40
1.0
 40
1.0
 10
164.9951168374
 20
58.2408651365
 30
0.0
 10
165.0264627115
 20
58.2026335638
 30
0.0
 10
165.1704692681
 20
58.04571385
 30
0.0
 10
165.345646017
 20
57.9193881159
 30
0.0
 10
165.4869902739
 20
57.8377848173
 30
0.0
  0
SPLINE
  5
3ED
100
AcDbEntity
  8
0
100
AcDbSpline
 62
7
  6
BYLAYER
 70
0
 71
3
 72
9
 73
5
 74
0
 42
0.0000001
 43
0.0000001
 44
0.0000000001
 40
0.0
 40
0.0
 40
0.0
 40
0.0
 40
0.2449366897
 40
1.0
 40
1.0
 40
1.0
 40
1.0
 10
165.8867728528
 20
57.6502941949
 30
0.0
 10
165.915453958
 20
57.6394686372
 30
0.0
 10
166.0332029674
 20
57.5970131775
 30
0.0
 10
166.1533816298
 20
57.5613623455
 30
0.0
 10
166.2449568764
 20
57.5380204353
 30
0.0
  0
SPLINE
  5
3EE
100
AcDbEntity
  8
0
100
AcDbSpline
 62
7
  6
BYLAYER
 70
0
 71
3
 72
11
 73
7
 74
0
 42
0.0000001
 43
0.0000001
 44
0.0000000001
 40
0.0
 40
0.0
 40
0.0
 40
0.0
 40
0.2304168006
 40
0.4846814931
 40
0.7470378423
 40
1.0
 40
1.0
 40
1.0
 40
1.0
 10
181.6326591547
 20
48.5162739972
 30
0.0
 10
181.7670123411
 20
48.4390222721
 30
0.0
 10
182.0729616385
 20
48.3162376761
 30
0.0
 10
182.5705588914
 20
48.2287179334
 30
0.0
 10
183.0908092053
 20
48.2321035548
 30
0.0
 10
183.4338642952
 20
48.2978025863
 30
0.0
 10
183.596449252
 20
48.3479517441
 30
0.0
  0
SPLINE
  5
3EF
100
AcDbEntity
  8
0
100
AcDbSpline
 62
7
  6
BYLAYER
 70
0
 71
3
 72
9
 73
5
 74
0
 42
0.0000001
 43
0.0000001
 44
0.0000000001
 40
0.0
 40
0.0
 40
0.0
 40
0.0
 40
0.236593015
 40
1.0
 40
1.0
 40
1.0
 40
1.0
 10
181.364551383
 20
48.7187830329
 30
0.0
 10
181.3832378839
 20
48.6999324451
 30
0.0
 10
181.4653816209
 20
48.6233956879
 30
0.0
 10
181.5585578366
 20
48.5592172855
 30
0.0
 10
181.6326591547
 20
48.5162739972
 30
0.0
  0
SPLINE
  5
3F0
100
AcDbEntity
  8
0
100
AcDbSpline
 62
7
  6
BYLAYER
 70
0
 71
3
 72
9
 73
5
 74
0
 42
0.0000001
 43
0.0000001
 44
0.0000000001
 40
0.0
 40
0.0
 40
0.0
 40
0.0
 40
0.2436059661
 40
1.0
 40
1.0
 40
1.0
 40
1.0
 10
180.4402893156
 20
49.4192480915
 30
0.0
 10
180.4489757817
 20
49.4042552271
 30
0.0
 10
180.4860850283
 20
49.3435558531
 30
0.0
 10
180.5287902152
 20
49.2863291702
 30
0.0
 10
180.5634778578
 20
49.2452028252
 30
0.0
  0
SPLINE
  5
3F1
100
AcDbEntity
  8
0
100
AcDbSpline
 62
7
  6
BYLAYER
 70
0
 71
3
 72
9
 73
5
 74
0
 42
0.0000001
 43
0.0000001
 44
0.0000000001
 40
0.0
 40
0.0
 40
0.0
 40
0.0
 40
0.2330500097
 40
1.0
 40
1.0
 40
1.0
 40
1.0
 10
180.5634778578
 20
49.2452028252
 30
0.0
 10
180.5945005806
 20
49.2084216806
 30
0.0
 10
180.7360265816
 20
49.0576890934
 30
0.0
 10
180.9062683547
 20
48.9356618596
 30
0.0
 10
181.0434042271
 20
48.8564882178
 30
0.0
  0
SPLINE
  5
3F2
100
AcDbEntity
  8
0
100
AcDbSpline
 62
7
  6
BYLAYER
 70
0
 71
3
 72
11
 73
7
 74
0
 42
0.0000001
 43
0.0000001
 44
0.0000000001
 40
0.0
 40
0.0
 40
0.0
 40
0.0
 40
0.2279169331
 40
0.4748368042
 40
0.7346763546
 40
1.0
 40
1.0
 40
1.0
 40
1.0
 10
181.0434042271
 20
48.8564882178
 30
0.0
 10
181.1749037736
 20
48.7805686368
 30
0.0
 10
181.4642544696
 20
48.6484211852
 30
0.0
 10
181.9362903025
 20
48.5136154853
 30
0.0
 10
182.4464940686
 20
48.4383567694
 30
0.0
 10
182.797291725
 20
48.4301592726
 30
0.0
 10
182.9739292194
 20
48.4368101294
 30
0.0
  0
SPLINE
  5
3F3
100
AcDbEntity
  8
0
100
AcDbSpline
 62
7
  6
BYLAYER
 70
0
 71
3
 72
23
 73
19
 74
0
 42
0.0000001
 43
0.0000001
 44
0.0000000001
 40
0.0
 40
0.0
 40
0.0
 40
0.0
 40
0.0623938458
 40
0.1287425261
 40
0.1983467436
 40
0.2703346862
 40
0.3437240273
 40
0.4174678696
 40
0.490504246
 40
0.561802426
 40
0.6304109535
 40
0.6955093297
 40
0.756467034
 40
0.8129136381
 40
0.864822629
 40
0.9126050298
 40
0.95718634
 40
1.0
 40
1.0
 40
1.0
 40
1.0
 10
189.8821963044
 20
40.4144659418
 30
0.0
 10
189.6666255355
 20
40.2900068433
 30
0.0
 10
189.2046626948
 20
40.0622310763
 30
0.0
 10
188.4594502352
 20
39.7922206626
 30
0.0
 10
187.6541456792
 20
39.5877776982
 30
0.0
 10
186.805960204
 20
39.4532866114
 30
0.0
 10
185.9328933065
 20
39.3915652271
 30
0.0
 10
185.0535695069
 20
39.4039383386
 30
0.0
 10
184.1867460535
 20
39.4901385139
 30
0.0
 10
183.3508939736
 20
39.6483336286
 30
0.0
 10
182.5637698629
 20
39.8751809639
 30
0.0
 10
181.842013613
 20
40.1659500254
 30
0.0
 10
181.2007892116
 20
40.5147054757
 30
0.0
 10
180.653526409
 20
40.91459656
 30
0.0
 10
180.2118767976
 20
41.3581004652
 30
0.0
 10
179.8860263826
 20
41.83738205
 30
0.0
 10
179.6852130482
 20
42.342960231
 30
0.0
 10
179.6395467571
 20
42.6931060157
 30
0.0
 10
179.639546324
 20
42.8639104696
 30
0.0
  0
SPLINE
  5
3F4
100
AcDbEntity
  8
0
100
AcDbSpline
 62
7
  6
BYLAYER
 70
0
 71
3
 72
14
 73
10
 74
0
 42
0.0000001
 43
0.0000001
 44
0.0000000001
 40
0.0
 40
0.0
 40
0.0
 40
0.0
 40
0.1080465594
 40
0.2181303306
 40
0.3321036619
 40
0.4515009317
 40
0.577460918
 40
0.7107191066
 40
1.0
 40
1.0
 40
1.0
 40
1.0
 10
191.6395295829
 20
42.8639104682
 30
0.0
 10
191.6395298709
 20
42.7503237628
 30
0.0
 10
191.6198068152
 20
42.5205474244
 30
0.0
 10
191.5317664601
 20
42.1811599711
 30
0.0
 10
191.3864304967
 20
41.8490828512
 30
0.0
 10
191.1856595379
 20
41.5276890583
 30
0.0
 10
190.9316841663
 20
41.2198439766
 30
0.0
 10
190.5144000327
 20
40.8204630626
 30
0.0
 10
190.145567085
 20
40.5665222252
 30
0.0
 10
189.8821963044
 20
40.4144659418
 30
0.0
  0
SPLINE
  5
3F5
100
AcDbEntity
  8
0
100
AcDbSpline
 62
7
  6
BYLAYER
 70
0
 71
3
 72
9
 73
5
 74
0
 42
0.0000001
 43
0.0000001
 44
0.0000000001
 40
0.0
 40
0.0
 40
0.0
 40
0.0
 40
0.5255657768
 40
1.0
 40
1.0
 40
1.0
 40
1.0
 10
181.9968137516
 20
470.6779974322
 30
0.0
 10
181.9647136476
 20
470.677997355
 30
0.0
 10
181.9034720701
 20
470.6846359915
 30
0.0
 10
181.8451318243
 20
470.7057835783
 30
0.0
 10
181.8200367515
 20
470.7202718976
 30
0.0
  0
SPLINE
  5
3F6
100
AcDbEntity
  8
0
100
AcDbSpline
 62
7
  6
BYLAYER
 70
0
 71
3
 72
9
 73
5
 74
0
 42
0.0000001
 43
0.0000001
 44
0.0000000001
 40
0.0
 40
0.0
 40
0.0
 40
0.0
 40
0.4744336899
 40
1.0
 40
1.0
 40
1.0
 40
1.0
 10
182.1735901421
 20
470.7202727474
 30
0.0
 10
182.1484952548
 20
470.705784294
 30
0.0
 10
182.0901552385
 20
470.6846364172
 30
0.0
 10
182.0289138207
 20
470.6779975094
 30
0.0
 10
181.9968137516
 20
470.6779974322
 30
0.0
  0
SPLINE
  5
3F7
100
AcDbEntity
  8
0
100
AcDbSpline
 62
7
  6
BYLAYER
 70
0
 71
3
 72
9
 73
5
 74
0
 42
0.0000001
 43
0.0000001
 44
0.0000000001
 40
0.0
 40
0.0
 40
0.0
 40
0.0
 40
0.5255663101
 40
1.0
 40
1.0
 40
1.0
 40
1.0
 10
182.8110366877
 20
470.9886571984
 30
0.0
 10
182.7575365726
 20
470.9886570698
 30
0.0
 10
182.6554675432
 20
470.9775922235
 30
0.0
 10
182.5582341828
 20
470.9423457623
 30
0.0
 10
182.5164093707
 20
470.9181983399
 30
0.0
  0
SPLINE
  5
3F8
100
AcDbEntity
  8
0
100
AcDbSpline
 62
7
  6
BYLAYER
 70
0
 71
3
 72
9
 73
5
 74
0
 42
0.0000001
 43
0.0000001
 44
0.0000000001
 40
0.0
 40
0.0
 40
0.0
 40
0.0
 40
0.4744342232
 40
1.0
 40
1.0
 40
1.0
 40
1.0
 10
183.1056650213
 20
470.9181997561
 30
0.0
 10
183.0638398999
 20
470.9423469549
 30
0.0
 10
182.9666061569
 20
470.977592933
 30
0.0
 10
182.8645368611
 20
470.988657327
 30
0.0
 10
182.8110366877
 20
470.9886571984
 30
0.0
  0
SPLINE
  5
3F9
100
AcDbEntity
  8
0
100
AcDbSpline
 62
7
  6
BYLAYER
 70
0
 71
3
 72
9
 73
5
 74
0
 42
0.0000001
 43
0.0000001
 44
0.0000000001
 40
0.0
 40
0.0
 40
0.0
 40
0.0
 40
0.5255657768
 40
1.0
 40
1.0
 40
1.0
 40
1.0
 10
183.6039255585
 20
470.690320883
 30
0.0
 10
183.5718254544
 20
470.6903208058
 30
0.0
 10
183.5105838769
 20
470.6969594423
 30
0.0
 10
183.4522436311
 20
470.7181070291
 30
0.0
 10
183.4271485583
 20
470.7325953484
 30
0.0
  0
SPLINE
  5
3FA
100
AcDbEntity
  8
0
100
AcDbSpline
 62
7
  6
BYLAYER
 70
0
 71
3
 72
9
 73
5
 74
0
 42
0.0000001
 43
0.0000001
 44
0.0000000001
 40
0.0
 40
0.0
 40
0.0
 40
0.0
 40
0.4744336899
 40
1.0
 40
1.0
 40
1.0
 40
1.0
 10
183.7807019489
 20
470.7325961982
 30
0.0
 10
183.7556070616
 20
470.7181077448
 30
0.0
 10
183.6972670453
 20
470.696959868
 30
0.0
 10
183.6360256275
 20
470.6903209602
 30
0.0
 10
183.6039255585
 20
470.690320883
 30
0.0
  0
SPLINE
  5
3FB
100
AcDbEntity
  8
0
100
AcDbSpline
 62
7
  6
BYLAYER
 70
0
 71
3
 72
10
 73
6
 74
0
 42
0.0000001
 43
0.0000001
 44
0.0000000001
 40
0.0
 40
0.0
 40
0.0
 40
0.0
 40
0.2183779533
 40
0.452310998
 40
1.0
 40
1.0
 40
1.0
 40
1.0
 10
183.9047239127
 20
470.8639858572
 30
0.0
 10
183.9047239814
 20
470.8544666944
 30
0.0
 10
183.901198288
 20
470.8346135086
 30
0.0
 10
183.8801005073
 20
470.7958384201
 30
0.0
 10
183.8521768078
 20
470.773861981
 30
0.0
 10
183.831501344
 20
470.7619250676
 30
0.0
  0
SPLINE
  5
3FC
100
AcDbEntity
  8
0
100
AcDbSpline
 62
7
  6
BYLAYER
 70
0
 71
3
 72
11
 73
7
 74
0
 42
0.0000001
 43
0.0000001
 44
0.0000000001
 40
0.0
 40
0.0
 40
0.0
 40
0.0
 40
0.2897060281
 40
0.5490591642
 40
0.7822835676
 40
1.0
 40
1.0
 40
1.0
 40
1.0
 10
183.5100138814
 20
471.4918527474
 30
0.0
 10
183.4917309805
 20
471.4812971726
 30
0.0
 10
183.4585676282
 20
471.4584481875
 30
0.0
 10
183.4189087138
 20
471.4167927299
 30
0.0
 10
183.3938511759
 20
471.3706939383
 30
0.0
 10
183.3879761527
 20
471.3376167029
 30
0.0
 10
183.3879762672
 20
471.3217514317
 30
0.0
  0
SPLINE
  5
3FD
100
AcDbEntity
  8
0
100
AcDbSpline
 62
7
  6
BYLAYER
 70
0
 71
3
 72
10
 73
6
 74
0
 42
0.0000001
 43
0.0000001
 44
0.0000000001
 40
0.0
 40
0.0
 40
0.0
 40
0.0
 40
0.2183779533
 40
0.452310998
 40
1.0
 40
1.0
 40
1.0
 40
1.0
 10
183.9260556787
 20
471.7918391294
 30
0.0
 10
183.9260557473
 20
471.7823199666
 30
0.0
 10
183.9225300539
 20
471.7624667808
 30
0.0
 10
183.9014322733
 20
471.7236916923
 30
0.0
 10
183.8735085738
 20
471.7017152532
 30
0.0
 10
183.85283311
 20
471.6897783398
 30
0.0
  0
SPLINE
  5
3FE
100
AcDbEntity
  8
0
100
AcDbSpline
 62
7
  6
BYLAYER
 70
0
 71
3
 72
10
 73
6
 74
0
 42
0.0000001
 43
0.0000001
 44
0.0000000001
 40
0.0
 40
0.0
 40
0.0
 40
0.0
 40
0.5476894825
 40
0.7816225454
 40
1.0
 40
1.0
 40
1.0
 40
1.0
 10
181.7478916077
 20
471.7020928679
 30
0.0
 10
181.7272159594
 20
471.714029689
 30
0.0
 10
181.69929197
 20
471.7360059743
 30
0.0
 10
181.6781936287
 20
471.7747809402
 30
0.0
 10
181.6746676356
 20
471.7946341275
 30
0.0
 10
181.674667567
 20
471.8041533055
 30
0.0
  0
SPLINE
  5
3FF
100
AcDbEntity
  8
0
100
AcDbSpline
 62
7
  6
BYLAYER
 70
0
 71
3
 72
11
 73
7
 74
0
 42
0.0000001
 43
0.0000001
 44
0.0000000001
 40
0.0
 40
0.0
 40
0.0
 40
0.0
 40
0.2177159471
 40
0.4509403815
 40
0.7102937689
 40
1.0
 40
1.0
 40
1.0
 40
1.0
 10
182.2340923042
 20
471.321748658
 30
0.0
 10
182.2340921898
 20
471.3376139546
 30
0.0
 10
182.228216667
 20
471.3706911925
 30
0.0
 10
182.2031584721
 20
471.4167898231
 30
0.0
 10
182.163498978
 20
471.4584450678
 30
0.0
 10
182.1303352961
 20
471.4812938966
 30
0.0
 10
182.1120522363
 20
471.4918493873
 30
0.0
  0
SPLINE
  5
400
100
AcDbEntity
  8
0
100
AcDbSpline
 62
7
  6
BYLAYER
 70
0
 71
3
 72
10
 73
6
 74
0
 42
0.0000001
 43
0.0000001
 44
0.0000000001
 40
0.0
 40
0.0
 40
0.0
 40
0.0
 40
0.5476894825
 40
0.7816225454
 40
1.0
 40
1.0
 40
1.0
 40
1.0
 10
181.7692369333
 20
470.7496005228
 30
0.0
 10
181.7485612851
 20
470.7615373438
 30
0.0
 10
181.7206372957
 20
470.7835136292
 30
0.0
 10
181.6995389544
 20
470.8222885951
 30
0.0
 10
181.6960129613
 20
470.8421417824
 30
0.0
 10
181.6960128926
 20
470.8516609603
 30
0.0
  0
SPLINE
  5
401
100
AcDbEntity
  8
0
100
AcDbSpline
 62
7
  6
BYLAYER
 70
0
 71
3
 72
10
 73
6
 74
0
 42
0.0000001
 43
0.0000001
 44
0.0000000001
 40
0.0
 40
0.0
 40
0.0
 40
0.0
 40
0.2472503589
 40
0.495188827
 40
1.0
 40
1.0
 40
1.0
 40
1.0
 10
180.4076234871
 20
471.1526417775
 30
0.0
 10
180.4440313538
 20
471.2466352888
 30
0.0
 10
180.5367652958
 20
471.4278022162
 30
0.0
 10
180.7887058154
 20
471.7505128115
 30
0.0
 10
181.0375952755
 20
471.9405012883
 30
0.0
 10
181.2158221114
 20
472.043403542
 30
0.0
  0
SPLINE
  5
402
100
AcDbEntity
  8
0
100
AcDbSpline
 62
7
  6
BYLAYER
 70
0
 71
3
 72
10
 73
6
 74
0
 42
0.0000001
 43
0.0000001
 44
0.0000000001
 40
0.0
 40
0.0
 40
0.0
 40
0.0
 40
0.5045873123
 40
0.7525330691
 40
1.0
 40
1.0
 40
1.0
 40
1.0
 10
184.4062464598
 20
472.043403542
 30
0.0
 10
184.5943378787
 20
471.9348058058
 30
0.0
 10
184.8562815583
 20
471.7318341811
 30
0.0
 10
185.1137201422
 20
471.3842046563
 30
0.0
 10
185.2040512315
 20
471.1888402368
 30
0.0
 10
185.2378251901
 20
471.0878186185
 30
0.0
  0
SPLINE
  5
403
100
AcDbEntity
  8
0
100
AcDbSpline
 62
7
  6
BYLAYER
 70
0
 71
3
 72
13
 73
9
 74
0
 42
0.0000001
 43
0.0000001
 44
0.0000000001
 40
0.0
 40
0.0
 40
0.0
 40
0.0
 40
0.2431353558
 40
0.3705688964
 40
0.500006671
 40
0.6294430846
 40
0.7568756268
 40
1.0
 40
1.0
 40
1.0
 40
1.0
 10
181.2158221114
 20
472.043403542
 30
0.0
 10
181.4485776699
 20
472.1777888685
 30
0.0
 10
181.8388183015
 20
472.3243588647
 30
0.0
 10
182.3836313849
 20
472.420501986
 30
0.0
 10
182.8110283301
 20
472.4451666181
 30
0.0
 10
183.2384245636
 20
472.4205052479
 30
0.0
 10
183.7832225723
 20
472.3243616954
 30
0.0
 10
184.1734522534
 20
472.1778042999
 30
0.0
 10
184.406200278
 20
472.0434302051
 30
0.0
  0
SPLINE
  5
404
100
AcDbEntity
  8
0
100
AcDbSpline
 62
7
  6
BYLAYER
 70
0
 71
3
 72
9
 73
5
 74
0
 42
0.0000001
 43
0.0000001
 44
0.0000000001
 40
0.0
 40
0.0
 40
0.0
 40
0.0
 40
0.4744336899
 40
1.0
 40
1.0
 40
1.0
 40
1.0
 10
181.7986895308
 20
471.9355429644
 30
0.0
 10
181.8237844181
 20
471.9500314178
 30
0.0
 10
181.8821244344
 20
471.9711792946
 30
0.0
 10
181.9433658522
 20
471.9778182025
 30
0.0
 10
181.9754659212
 20
471.9778182796
 30
0.0
  0
SPLINE
  5
405
100
AcDbEntity
  8
0
100
AcDbSpline
 62
7
  6
BYLAYER
 70
0
 71
3
 72
10
 73
6
 74
0
 42
0.0000001
 43
0.0000001
 44
0.0000000001
 40
0.0
 40
0.0
 40
0.0
 40
0.0
 40
0.2183779533
 40
0.452310998
 40
1.0
 40
1.0
 40
1.0
 40
1.0
 10
181.674667567
 20
471.8041533055
 30
0.0
 10
181.6746674983
 20
471.8136724682
 30
0.0
 10
181.6781931917
 20
471.8335256541
 30
0.0
 10
181.6992909723
 20
471.8723007425
 30
0.0
 10
181.7272146719
 20
471.8942771817
 30
0.0
 10
181.7478901357
 20
471.906214095
 30
0.0
  0
SPLINE
  5
406
100
AcDbEntity
  8
0
100
AcDbSpline
 62
7
  6
BYLAYER
 70
0
 71
3
 72
10
 73
6
 74
0
 42
0.0000001
 43
0.0000001
 44
0.0000000001
 40
0.0
 40
0.0
 40
0.0
 40
0.0
 40
0.5476894825
 40
0.7816225454
 40
1.0
 40
1.0
 40
1.0
 40
1.0
 10
183.831499872
 20
470.9660462947
 30
0.0
 10
183.8521755203
 20
470.9541094737
 30
0.0
 10
183.8800995096
 20
470.9321331883
 30
0.0
 10
183.901197851
 20
470.8933582224
 30
0.0
 10
183.9047238441
 20
470.8735050351
 30
0.0
 10
183.9047239127
 20
470.8639858572
 30
0.0
  0
SPLINE
  5
407
100
AcDbEntity
  8
0
100
AcDbSpline
 62
7
  6
BYLAYER
 70
0
 71
3
 72
11
 73
7
 74
0
 42
0.0000001
 43
0.0000001
 44
0.0000000001
 40
0.0
 40
0.0
 40
0.0
 40
0.0
 40
0.2177159471
 40
0.4509403815
 40
0.7102937689
 40
1.0
 40
1.0
 40
1.0
 40
1.0
 10
183.3879762672
 20
471.3217514317
 30
0.0
 10
183.3879763816
 20
471.3058861351
 30
0.0
 10
183.3938519043
 20
471.2728088972
 30
0.0
 10
183.4189100992
 20
471.2267102666
 30
0.0
 10
183.4585695933
 20
471.1850550218
 30
0.0
 10
183.4917332752
 20
471.1622061931
 30
0.0
 10
183.510016335
 20
471.1516507024
 30
0.0
  0
SPLINE
  5
408
100
AcDbEntity
  8
0
100
AcDbSpline
 62
7
  6
BYLAYER
 70
0
 71
3
 72
11
 73
7
 74
0
 42
0.0000001
 43
0.0000001
 44
0.0000000001
 40
0.0
 40
0.0
 40
0.0
 40
0.0
 40
0.2897060281
 40
0.5490591642
 40
0.7822835676
 40
1.0
 40
1.0
 40
1.0
 40
1.0
 10
182.11205469
 20
471.1516473423
 30
0.0
 10
182.1303375908
 20
471.1622029171
 30
0.0
 10
182.1635009431
 20
471.1850519022
 30
0.0
 10
182.2031598576
 20
471.2267073598
 30
0.0
 10
182.2282173954
 20
471.2728061514
 30
0.0
 10
182.2340924186
 20
471.3058833868
 30
0.0
 10
182.2340923042
 20
471.321748658
 30
0.0
  0
SPLINE
  5
409
100
AcDbEntity
  8
0
100
AcDbSpline
 62
7
  6
BYLAYER
 70
0
 71
3
 72
10
 73
6
 74
0
 42
0.0000001
 43
0.0000001
 44
0.0000000001
 40
0.0
 40
0.0
 40
0.0
 40
0.0
 40
0.2183779533
 40
0.452310998
 40
1.0
 40
1.0
 40
1.0
 40
1.0
 10
181.6960128926
 20
470.8516609603
 30
0.0
 10
181.696012824
 20
470.8611801231
 30
0.0
 10
181.6995385174
 20
470.8810333089
 30
0.0
 10
181.720636298
 20
470.9198083974
 30
0.0
 10
181.7485599975
 20
470.9417848365
 30
0.0
 10
181.7692354614
 20
470.9537217499
 30
0.0
  0
SPLINE
  5
40A
100
AcDbEntity
  8
0
100
AcDbSpline
 62
7
  6
BYLAYER
 70
0
 71
3
 72
15
 73
11
 74
0
 42
0.0000001
 43
0.0000001
 44
0.0000000001
 40
0.0
 40
0.0
 40
0.0
 40
0.0
 40
0.1487761035
 40
0.2815960386
 40
0.3999294873
 40
0.5086801157
 40
0.6158070911
 40
0.7298709951
 40
0.8570482552
 40
1.0
 40
1.0
 40
1.0
 40
1.0
 10
183.8974184132
 20
470.5920301817
 30
0.0
 10
183.9797248061
 20
470.6328796147
 30
0.0
 10
184.1300159184
 20
470.7225522491
 30
0.0
 10
184.3140437912
 20
470.89033518
 30
0.0
 10
184.4366371001
 20
471.0794872745
 30
0.0
 10
184.4888801807
 20
471.2835969808
 30
0.0
 10
184.4644312532
 20
471.4904521531
 30
0.0
 10
184.3665484487
 20
471.6860743654
 30
0.0
 10
184.2040999872
 20
471.8622345577
 30
0.0
 10
184.0659996456
 20
471.9580123653
 30
0.0
 10
183.9895389511
 20
472.0021559692
 30
0.0
  0
SPLINE
  5
40B
100
AcDbEntity
  8
0
100
AcDbSpline
 62
7
  6
BYLAYER
 70
0
 71
3
 72
21
 73
17
 74
0
 42
0.0000001
 43
0.0000001
 44
0.0000000001
 40
0.0
 40
0.0
 40
0.0
 40
0.0
 40
0.0666194727
 40
0.1385075533
 40
0.2915443341
 40
0.4445827792
 40
0.5164663573
 40
0.5830868673
 40
0.6434966658
 40
0.6975383278
 40
0.7461457154
 40
0.7915410784
 40
0.8369367866
 40
0.8855433178
 40
0.9395905074
 40
1.0
 40
1.0
 40
1.0
 40
1.0
 10
183.9895389511
 20
472.0021559692
 30
0.0
 10
183.9088632678
 20
472.048733043
 30
0.0
 10
183.732434295
 20
472.1308997437
 30
0.0
 10
183.3414171807
 20
472.2496453256
 30
0.0
 10
182.811016641
 20
472.3073416718
 30
0.0
 10
182.2806839954
 20
472.2496539238
 30
0.0
 10
181.8895796043
 20
472.1308644895
 30
0.0
 10
181.6364406145
 20
472.012988261
 30
0.0
 10
181.4267185335
 20
471.8685786832
 30
0.0
 10
181.2681491764
 20
471.7019052166
 30
0.0
 10
181.1678157185
 20
471.5174456184
 30
0.0
 10
181.1330594764
 20
471.321755865
 30
0.0
 10
181.167807819
 20
471.1260694274
 30
0.0
 10
181.2681413912
 20
470.9415884446
 30
0.0
 10
181.4266715088
 20
470.7749433383
 30
0.0
 10
181.5593741762
 20
470.6835794803
 30
0.0
 10
181.6325296202
 20
470.6413441205
 30
0.0
  0
SPLINE
  5
40C
100
AcDbEntity
  8
0
100
AcDbSpline
 62
7
  6
BYLAYER
 70
0
 71
3
 72
10
 73
6
 74
0
 42
0.0000001
 43
0.0000001
 44
0.0000000001
 40
0.0
 40
0.0
 40
0.0
 40
0.0
 40
0.5476894825
 40
0.7816225454
 40
1.0
 40
1.0
 40
1.0
 40
1.0
 10
183.852831638
 20
471.8938995669
 30
0.0
 10
183.8735072862
 20
471.8819627459
 30
0.0
 10
183.9014312756
 20
471.8599864605
 30
0.0
 10
183.9225296169
 20
471.8212114946
 30
0.0
 10
183.92605561
 20
471.8013583073
 30
0.0
 10
183.9260556787
 20
471.7918391294
 30
0.0
  0
SPLINE
  5
40D
100
AcDbEntity
  8
0
100
AcDbSpline
 62
7
  6
BYLAYER
 70
0
 71
3
 72
9
 73
5
 74
0
 42
0.0000001
 43
0.0000001
 44
0.0000000001
 40
0.0
 40
0.0
 40
0.0
 40
0.0
 40
0.5255657768
 40
1.0
 40
1.0
 40
1.0
 40
1.0
 10
183.6252548197
 20
471.9655026575
 30
0.0
 10
183.6573549237
 20
471.9655027347
 30
0.0
 10
183.7185965012
 20
471.9588640982
 30
0.0
 10
183.776936747
 20
471.9377165114
 30
0.0
 10
183.8020318198
 20
471.9232281921
 30
0.0
  0
SPLINE
  5
40E
100
AcDbEntity
  8
0
100
AcDbSpline
 62
7
  6
BYLAYER
 70
0
 71
3
 72
9
 73
5
 74
0
 42
0.0000001
 43
0.0000001
 44
0.0000000001
 40
0.0
 40
0.0
 40
0.0
 40
0.0
 40
0.4744336899
 40
1.0
 40
1.0
 40
1.0
 40
1.0
 10
183.4484784292
 20
471.9232273423
 30
0.0
 10
183.4735733165
 20
471.9377157957
 30
0.0
 10
183.5319133328
 20
471.9588636725
 30
0.0
 10
183.5931547506
 20
471.9655025803
 30
0.0
 10
183.6252548197
 20
471.9655026575
 30
0.0
  0
SPLINE
  5
40F
100
AcDbEntity
  8
0
100
AcDbSpline
 62
7
  6
BYLAYER
 70
0
 71
3
 72
9
 73
5
 74
0
 42
0.0000001
 43
0.0000001
 44
0.0000000001
 40
0.0
 40
0.0
 40
0.0
 40
0.0
 40
0.5255663101
 40
1.0
 40
1.0
 40
1.0
 40
1.0
 10
182.8110318836
 20
471.6548428913
 30
0.0
 10
182.8645319987
 20
471.6548430199
 30
0.0
 10
182.9666010281
 20
471.6659078662
 30
0.0
 10
183.0638343885
 20
471.7011543274
 30
0.0
 10
183.1056592006
 20
471.7253017498
 30
0.0
  0
SPLINE
  5
410
100
AcDbEntity
  8
0
100
AcDbSpline
 62
7
  6
BYLAYER
 70
0
 71
3
 72
9
 73
5
 74
0
 42
0.0000001
 43
0.0000001
 44
0.0000000001
 40
0.0
 40
0.0
 40
0.0
 40
0.0
 40
0.4744342232
 40
1.0
 40
1.0
 40
1.0
 40
1.0
 10
182.51640355
 20
471.7253003336
 30
0.0
 10
182.5582286714
 20
471.7011531348
 30
0.0
 10
182.6554624144
 20
471.6659071567
 30
0.0
 10
182.7575317102
 20
471.6548427627
 30
0.0
 10
182.8110318836
 20
471.6548428913
 30
0.0
  0
SPLINE
  5
411
100
AcDbEntity
  8
0
100
AcDbSpline
 62
7
  6
BYLAYER
 70
0
 71
3
 72
9
 73
5
 74
0
 42
0.0000001
 43
0.0000001
 44
0.0000000001
 40
0.0
 40
0.0
 40
0.0
 40
0.0
 40
0.5255657768
 40
1.0
 40
1.0
 40
1.0
 40
1.0
 10
181.9754659212
 20
471.9778182796
 30
0.0
 10
182.0075660253
 20
471.9778183568
 30
0.0
 10
182.0688076028
 20
471.9711797203
 30
0.0
 10
182.1271478486
 20
471.9500321335
 30
0.0
 10
182.1522429214
 20
471.9355438142
 30
0.0
  0
SPLINE
  5
412
100
AcDbEntity
  8
0
100
AcDbSpline
 62
7
  6
BYLAYER
 70
0
 71
3
 72
9
 73
5
 74
0
 42
0.0000001
 43
0.0000001
 44
0.0000000001
 40
0.0
 40
0.0
 40
0.0
 40
0.0
 40
0.5255657768
 40
1.0
 40
1.0
 40
1.0
 40
1.0
 10
197.5532277049
 20
461.6753903405
 30
0.0
 10
197.5211276008
 20
461.6753902634
 30
0.0
 10
197.4598860233
 20
461.6820288998
 30
0.0
 10
197.4015457775
 20
461.7031764867
 30
0.0
 10
197.3764507047
 20
461.7176648059
 30
0.0
  0
SPLINE
  5
413
100
AcDbEntity
  8
0
100
AcDbSpline
 62
7
  6
BYLAYER
 70
0
 71
3
 72
9
 73
5
 74
0
 42
0.0000001
 43
0.0000001
 44
0.0000000001
 40
0.0
 40
0.0
 40
0.0
 40
0.0
 40
0.4744336899
 40
1.0
 40
1.0
 40
1.0
 40
1.0
 10
197.7300040953
 20
461.7176656558
 30
0.0
 10
197.704909208
 20
461.7031772023
 30
0.0
 10
197.6465691917
 20
461.6820293255
 30
0.0
 10
197.5853277739
 20
461.6753904177
 30
0.0
 10
197.5532277049
 20
461.6753903405
 30
0.0
  0
SPLINE
  5
414
100
AcDbEntity
  8
0
100
AcDbSpline
 62
7
  6
BYLAYER
 70
0
 71
3
 72
9
 73
5
 74
0
 42
0.0000001
 43
0.0000001
 44
0.0000000001
 40
0.0
 40
0.0
 40
0.0
 40
0.0
 40
0.5255663101
 40
1.0
 40
1.0
 40
1.0
 40
1.0
 10
198.3674506409
 20
461.9860501068
 30
0.0
 10
198.3139505259
 20
461.9860499782
 30
0.0
 10
198.2118814964
 20
461.9749851318
 30
0.0
 10
198.114648136
 20
461.9397386706
 30
0.0
 10
198.0728233239
 20
461.9155912482
 30
0.0
  0
SPLINE
  5
415
100
AcDbEntity
  8
0
100
AcDbSpline
 62
7
  6
BYLAYER
 70
0
 71
3
 72
9
 73
5
 74
0
 42
0.0000001
 43
0.0000001
 44
0.0000000001
 40
0.0
 40
0.0
 40
0.0
 40
0.0
 40
0.4744342232
 40
1.0
 40
1.0
 40
1.0
 40
1.0
 10
198.6620789745
 20
461.9155926644
 30
0.0
 10
198.6202538532
 20
461.9397398632
 30
0.0
 10
198.5230201102
 20
461.9749858413
 30
0.0
 10
198.4209508143
 20
461.9860502354
 30
0.0
 10
198.3674506409
 20
461.9860501068
 30
0.0
  0
SPLINE
  5
416
100
AcDbEntity
  8
0
100
AcDbSpline
 62
7
  6
BYLAYER
 70
0
 71
3
 72
9
 73
5
 74
0
 42
0.0000001
 43
0.0000001
 44
0.0000000001
 40
0.0
 40
0.0
 40
0.0
 40
0.0
 40
0.5255657768
 40
1.0
 40
1.0
 40
1.0
 40
1.0
 10
199.1603395117
 20
461.6877137913
 30
0.0
 10
199.1282394076
 20
461.6877137142
 30
0.0
 10
199.0669978301
 20
461.6943523506
 30
0.0
 10
199.0086575843
 20
461.7154999375
 30
0.0
 10
198.9835625115
 20
461.7299882567
 30
0.0
  0
SPLINE
  5
417
100
AcDbEntity
  8
0
100
AcDbSpline
 62
7
  6
BYLAYER
 70
0
 71
3
 72
9
 73
5
 74
0
 42
0.0000001
 43
0.0000001
 44
0.0000000001
 40
0.0
 40
0.0
 40
0.0
 40
0.0
 40
0.4744336899
 40
1.0
 40
1.0
 40
1.0
 40
1.0
 10
199.3371159021
 20
461.7299891066
 30
0.0
 10
199.3120210148
 20
461.7155006531
 30
0.0
 10
199.2536809985
 20
461.6943527763
 30
0.0
 10
199.1924395808
 20
461.6877138685
 30
0.0
 10
199.1603395117
 20
461.6877137913
 30
0.0
  0
SPLINE
  5
418
100
AcDbEntity
  8
0
100
AcDbSpline
 62
7
  6
BYLAYER
 70
0
 71
3
 72
10
 73
6
 74
0
 42
0.0000001
 43
0.0000001
 44
0.0000000001
 40
0.0
 40
0.0
 40
0.0
 40
0.0
 40
0.2183779533
 40
0.452310998
 40
1.0
 40
1.0
 40
1.0
 40
1.0
 10
199.4611378659
 20
461.8613787655
 30
0.0
 10
199.4611379346
 20
461.8518596027
 30
0.0
 10
199.4576122412
 20
461.8320064169
 30
0.0
 10
199.4365144606
 20
461.7932313284
 30
0.0
 10
199.4085907611
 20
461.7712548893
 30
0.0
 10
199.3879152972
 20
461.7593179759
 30
0.0
  0
SPLINE
  5
419
100
AcDbEntity
  8
0
100
AcDbSpline
 62
7
  6
BYLAYER
 70
0
 71
3
 72
11
 73
7
 74
0
 42
0.0000001
 43
0.0000001
 44
0.0000000001
 40
0.0
 40
0.0
 40
0.0
 40
0.0
 40
0.2897060281
 40
0.5490591642
 40
0.7822835676
 40
1.0
 40
1.0
 40
1.0
 40
1.0
 10
199.0664278346
 20
462.4892456557
 30
0.0
 10
199.0481449337
 20
462.478690081
 30
0.0
 10
199.0149815814
 20
462.4558410958
 30
0.0
 10
198.975322667
 20
462.4141856382
 30
0.0
 10
198.9502651291
 20
462.3680868467
 30
0.0
 10
198.944390106
 20
462.3350096112
 30
0.0
 10
198.9443902204
 20
462.31914434
 30
0.0
  0
SPLINE
  5
41A
100
AcDbEntity
  8
0
100
AcDbSpline
 62
7
  6
BYLAYER
 70
0
 71
3
 72
10
 73
6
 74
0
 42
0.0000001
 43
0.0000001
 44
0.0000000001
 40
0.0
 40
0.0
 40
0.0
 40
0.0
 40
0.2183779533
 40
0.452310998
 40
1.0
 40
1.0
 40
1.0
 40
1.0
 10
199.4824696319
 20
462.7892320377
 30
0.0
 10
199.4824697006
 20
462.7797128749
 30
0.0
 10
199.4789440072
 20
462.7598596891
 30
0.0
 10
199.4578462265
 20
462.7210846006
 30
0.0
 10
199.429922527
 20
462.6991081615
 30
0.0
 10
199.4092470632
 20
462.6871712481
 30
0.0
  0
SPLINE
  5
41B
100
AcDbEntity
  8
0
100
AcDbSpline
 62
7
  6
BYLAYER
 70
0
 71
3
 72
10
 73
6
 74
0
 42
0.0000001
 43
0.0000001
 44
0.0000000001
 40
0.0
 40
0.0
 40
0.0
 40
0.0
 40
0.5476894825
 40
0.7816225454
 40
1.0
 40
1.0
 40
1.0
 40
1.0
 10
197.3043055609
 20
462.6994857763
 30
0.0
 10
197.2836299126
 20
462.7114225973
 30
0.0
 10
197.2557059233
 20
462.7333988826
 30
0.0
 10
197.2346075819
 20
462.7721738485
 30
0.0
 10
197.2310815889
 20
462.7920270358
 30
0.0
 10
197.2310815202
 20
462.8015462138
 30
0.0
  0
SPLINE
  5
41C
100
AcDbEntity
  8
0
100
AcDbSpline
 62
7
  6
BYLAYER
 70
0
 71
3
 72
11
 73
7
 74
0
 42
0.0000001
 43
0.0000001
 44
0.0000000001
 40
0.0
 40
0.0
 40
0.0
 40
0.0
 40
0.2177159471
 40
0.4509403815
 40
0.7102937689
 40
1.0
 40
1.0
 40
1.0
 40
1.0
 10
197.7905062574
 20
462.3191415664
 30
0.0
 10
197.790506143
 20
462.335006863
 30
0.0
 10
197.7846306202
 20
462.3680841009
 30
0.0
 10
197.7595724253
 20
462.4141827314
 30
0.0
 10
197.7199129312
 20
462.4558379762
 30
0.0
 10
197.6867492493
 20
462.4786868049
 30
0.0
 10
197.6684661896
 20
462.4892422956
 30
0.0
  0
SPLINE
  5
41D
100
AcDbEntity
  8
0
100
AcDbSpline
 62
7
  6
BYLAYER
 70
0
 71
3
 72
10
 73
6
 74
0
 42
0.0000001
 43
0.0000001
 44
0.0000000001
 40
0.0
 40
0.0
 40
0.0
 40
0.0
 40
0.5476894825
 40
0.7816225454
 40
1.0
 40
1.0
 40
1.0
 40
1.0
 10
197.3256508866
 20
461.7469934311
 30
0.0
 10
197.3049752383
 20
461.7589302522
 30
0.0
 10
197.2770512489
 20
461.7809065375
 30
0.0
 10
197.2559529076
 20
461.8196815034
 30
0.0
 10
197.2524269145
 20
461.8395346907
 30
0.0
 10
197.2524268459
 20
461.8490538687
 30
0.0
  0
SPLINE
  5
41E
100
AcDbEntity
  8
0
100
AcDbSpline
 62
7
  6
BYLAYER
 70
0
 71
3
 72
14
 73
10
 74
0
 42
0.0000001
 43
0.0000001
 44
0.0000000001
 40
0.0
 40
0.0
 40
0.0
 40
0.0
 40
0.0973327373
 40
0.1988068215
 40
0.3077575286
 40
0.4263048634
 40
0.5553506723
 40
0.694769512
 40
1.0
 40
1.0
 40
1.0
 40
1.0
 10
200.8674411998
 20
460.9583056192
 30
0.0
 10
200.8674345212
 20
460.8859989569
 30
0.0
 10
200.8477833456
 20
460.7376616903
 30
0.0
 10
200.7613748429
 20
460.5237771675
 30
0.0
 10
200.6213208931
 20
460.321402048
 30
0.0
 10
200.4317101207
 20
460.1346338371
 30
0.0
 10
200.1969955711
 20
459.9668228634
 30
0.0
 10
199.8196069378
 20
459.766868136
 30
0.0
 10
199.5020167531
 20
459.6648667369
 30
0.0
 10
199.280875405
 20
459.6147462278
 30
0.0
  0
SPLINE
  5
41F
100
AcDbEntity
  8
0
100
AcDbSpline
 62
7
  6
BYLAYER
 70
0
 71
3
 72
10
 73
6
 74
0
 42
0.0000001
 43
0.0000001
 44
0.0000000001
 40
0.0
 40
0.0
 40
0.0
 40
0.0
 40
0.2473292689
 40
0.4952676752
 40
1.0
 40
1.0
 40
1.0
 40
1.0
 10
195.9552359805
 20
462.126729926
 30
0.0
 10
195.9907647968
 20
462.2232652096
 30
0.0
 10
196.0827552744
 20
462.4095395405
 30
0.0
 10
196.3368231065
 20
462.7411848645
 30
0.0
 10
196.5904402701
 20
462.9358335984
 30
0.0
 10
196.7722360647
 20
463.0407964503
 30
0.0
  0
SPLINE
  5
420
100
AcDbEntity
  8
0
100
AcDbSpline
 62
7
  6
BYLAYER
 70
0
 71
3
 72
11
 73
7
 74
0
 42
0.0000001
 43
0.0000001
 44
0.0000000001
 40
0.0
 40
0.0
 40
0.0
 40
0.0
 40
0.2550648906
 40
0.5043400343
 40
0.7520505207
 40
1.0
 40
1.0
 40
1.0
 40
1.0
 10
199.962660413
 20
463.0407964503
 30
0.0
 10
200.0911081881
 20
462.9666349724
 30
0.0
 10
200.3324856015
 20
462.7959164012
 30
0.0
 10
200.6265852399
 20
462.4663288276
 30
0.0
 10
200.8214552414
 20
462.073035023
 30
0.0
 10
200.8674482389
 20
461.7829064485
 30
0.0
 10
200.8674482389
 20
461.6387242722
 30
0.0
  0
SPLINE
  5
421
100
AcDbEntity
  8
0
100
AcDbSpline
 62
7
  6
BYLAYER
 70
0
 71
3
 72
13
 73
9
 74
0
 42
0.0000001
 43
0.0000001
 44
0.0000000001
 40
0.0
 40
0.0
 40
0.0
 40
0.0
 40
0.2431353558
 40
0.3705688964
 40
0.500006671
 40
0.6294430846
 40
0.7568756268
 40
1.0
 40
1.0
 40
1.0
 40
1.0
 10
196.7722360647
 20
463.0407964503
 30
0.0
 10
197.0049916231
 20
463.1751817767
 30
0.0
 10
197.3952322547
 20
463.3217517729
 30
0.0
 10
197.9400453381
 20
463.4178948943
 30
0.0
 10
198.3674422833
 20
463.4425595263
 30
0.0
 10
198.7948385169
 20
463.4178981561
 30
0.0
 10
199.3396365255
 20
463.3217546037
 30
0.0
 10
199.7298662066
 20
463.1751972081
 30
0.0
 10
199.9626142313
 20
463.0408231134
 30
0.0
  0
SPLINE
  5
422
100
AcDbEntity
  8
0
100
AcDbSpline
 62
7
  6
BYLAYER
 70
0
 71
3
 72
9
 73
5
 74
0
 42
0.0000001
 43
0.0000001
 44
0.0000000001
 40
0.0
 40
0.0
 40
0.0
 40
0.0
 40
0.4744336899
 40
1.0
 40
1.0
 40
1.0
 40
1.0
 10
197.355103484
 20
462.9329358727
 30
0.0
 10
197.3801983713
 20
462.9474243262
 30
0.0
 10
197.4385383876
 20
462.968572203
 30
0.0
 10
197.4997798054
 20
462.9752111108
 30
0.0
 10
197.5318798745
 20
462.975211188
 30
0.0
  0
SPLINE
  5
423
100
AcDbEntity
  8
0
100
AcDbSpline
 62
7
  6
BYLAYER
 70
0
 71
3
 72
10
 73
6
 74
0
 42
0.0000001
 43
0.0000001
 44
0.0000000001
 40
0.0
 40
0.0
 40
0.0
 40
0.0
 40
0.2183779533
 40
0.452310998
 40
1.0
 40
1.0
 40
1.0
 40
1.0
 10
197.2310815202
 20
462.8015462138
 30
0.0
 10
197.2310814516
 20
462.8110653766
 30
0.0
 10
197.2346071449
 20
462.8309185624
 30
0.0
 10
197.2557049256
 20
462.8696936509
 30
0.0
 10
197.2836286251
 20
462.89167009
 30
0.0
 10
197.3043040889
 20
462.9036070033
 30
0.0
  0
SPLINE
  5
424
100
AcDbEntity
  8
0
100
AcDbSpline
 62
7
  6
BYLAYER
 70
0
 71
3
 72
10
 73
6
 74
0
 42
0.0000001
 43
0.0000001
 44
0.0000000001
 40
0.0
 40
0.0
 40
0.0
 40
0.0
 40
0.5476894825
 40
0.7816225454
 40
1.0
 40
1.0
 40
1.0
 40
1.0
 10
199.3879138252
 20
461.963439203
 30
0.0
 10
199.4085894735
 20
461.951502382
 30
0.0
 10
199.4365134629
 20
461.9295260967
 30
0.0
 10
199.4576118042
 20
461.8907511307
 30
0.0
 10
199.4611377973
 20
461.8708979434
 30
0.0
 10
199.4611378659
 20
461.8613787655
 30
0.0
  0
SPLINE
  5
425
100
AcDbEntity
  8
0
100
AcDbSpline
 62
7
  6
BYLAYER
 70
0
 71
3
 72
11
 73
7
 74
0
 42
0.0000001
 43
0.0000001
 44
0.0000000001
 40
0.0
 40
0.0
 40
0.0
 40
0.0
 40
0.2177159471
 40
0.4509403815
 40
0.7102937689
 40
1.0
 40
1.0
 40
1.0
 40
1.0
 10
198.9443902204
 20
462.31914434
 30
0.0
 10
198.9443903348
 20
462.3032790434
 30
0.0
 10
198.9502658575
 20
462.2702018055
 30
0.0
 10
198.9753240525
 20
462.2241031749
 30
0.0
 10
199.0149835466
 20
462.1824479302
 30
0.0
 10
199.0481472285
 20
462.1595991014
 30
0.0
 10
199.0664302882
 20
462.1490436108
 30
0.0
  0
SPLINE
  5
426
100
AcDbEntity
  8
0
100
AcDbSpline
 62
7
  6
BYLAYER
 70
0
 71
3
 72
11
 73
7
 74
0
 42
0.0000001
 43
0.0000001
 44
0.0000000001
 40
0.0
 40
0.0
 40
0.0
 40
0.0
 40
0.2897060281
 40
0.5490591642
 40
0.7822835676
 40
1.0
 40
1.0
 40
1.0
 40
1.0
 10
197.6684686432
 20
462.1490402507
 30
0.0
 10
197.686751544
 20
462.1595958254
 30
0.0
 10
197.7199148963
 20
462.1824448105
 30
0.0
 10
197.7595738108
 20
462.2241002682
 30
0.0
 10
197.7846313486
 20
462.2701990597
 30
0.0
 10
197.7905063718
 20
462.3032762951
 30
0.0
 10
197.7905062574
 20
462.3191415664
 30
0.0
  0
SPLINE
  5
427
100
AcDbEntity
  8
0
100
AcDbSpline
 62
7
  6
BYLAYER
 70
0
 71
3
 72
10
 73
6
 74
0
 42
0.0000001
 43
0.0000001
 44
0.0000000001
 40
0.0
 40
0.0
 40
0.0
 40
0.0
 40
0.2183779533
 40
0.452310998
 40
1.0
 40
1.0
 40
1.0
 40
1.0
 10
197.2524268459
 20
461.8490538687
 30
0.0
 10
197.2524267772
 20
461.8585730314
 30
0.0
 10
197.2559524706
 20
461.8784262173
 30
0.0
 10
197.2770502512
 20
461.9172013057
 30
0.0
 10
197.3049739508
 20
461.9391777449
 30
0.0
 10
197.3256494146
 20
461.9511146582
 30
0.0
  0
SPLINE
  5
428
100
AcDbEntity
  8
0
100
AcDbSpline
 62
7
  6
BYLAYER
 70
0
 71
3
 72
21
 73
17
 74
0
 42
0.0000001
 43
0.0000001
 44
0.0000000001
 40
0.0
 40
0.0
 40
0.0
 40
0.0
 40
0.0666194727
 40
0.1385075533
 40
0.2915443341
 40
0.4445827792
 40
0.5164663573
 40
0.5830868673
 40
0.6434966658
 40
0.6975383278
 40
0.7461457154
 40
0.7915410784
 40
0.8369367866
 40
0.8855433178
 40
0.9395905074
 40
1.0
 40
1.0
 40
1.0
 40
1.0
 10
197.1889435734
 20
461.6387370288
 30
0.0
 10
197.2696192567
 20
461.5921599551
 30
0.0
 10
197.4460482295
 20
461.5099932544
 30
0.0
 10
197.8370653438
 20
461.3912476725
 30
0.0
 10
198.3674658835
 20
461.3335513263
 30
0.0
 10
198.897798529
 20
461.3912390743
 30
0.0
 10
199.2889029202
 20
461.5100285086
 30
0.0
 10
199.54204191
 20
461.6279047371
 30
0.0
 10
199.751763991
 20
461.7723143149
 30
0.0
 10
199.9103333481
 20
461.9389877815
 30
0.0
 10
200.010666806
 20
462.1234473796
 30
0.0
 10
200.0454230481
 20
462.3191371331
 30
0.0
 10
200.0106747055
 20
462.5148235707
 30
0.0
 10
199.9103411333
 20
462.6993045535
 30
0.0
 10
199.7518110157
 20
462.8659496598
 30
0.0
 10
199.6191083482
 20
462.9573135178
 30
0.0
 10
199.5459529043
 20
462.9995488776
 30
0.0
  0
SPLINE
  5
429
100
AcDbEntity
  8
0
100
AcDbSpline
 62
7
  6
BYLAYER
 70
0
 71
3
 72
14
 73
10
 74
0
 42
0.0000001
 43
0.0000001
 44
0.0000000001
 40
0.0
 40
0.0
 40
0.0
 40
0.0
 40
0.3063681254
 40
0.4466953873
 40
0.5764293433
 40
0.6951814061
 40
0.8036988856
 40
0.9041170767
 40
1.0
 40
1.0
 40
1.0
 40
1.0
 10
199.1185939958
 20
460.2620600947
 30
0.0
 10
199.359110902
 20
460.30579737
 30
0.0
 10
199.70607974
 20
460.4019689543
 30
0.0
 10
200.1214254454
 20
460.6018431572
 30
0.0
 10
200.3812945352
 20
460.7733960448
 30
0.0
 10
200.5921174317
 20
460.9670899029
 30
0.0
 10
200.7484663515
 20
461.1791119233
 30
0.0
 10
200.8453209985
 20
461.4048253494
 30
0.0
 10
200.8674367718
 20
461.5622161017
 30
0.0
 10
200.8674435685
 20
461.6387242723
 30
0.0
  0
SPLINE
  5
42A
100
AcDbEntity
  8
0
100
AcDbSpline
 62
7
  6
BYLAYER
 70
0
 71
3
 72
21
 73
17
 74
0
 42
0.0000001
 43
0.0000001
 44
0.0000000001
 40
0.0
 40
0.0
 40
0.0
 40
0.0
 40
0.0666194727
 40
0.1385075533
 40
0.2915443341
 40
0.4445827792
 40
0.5164663573
 40
0.5830868673
 40
0.6434966658
 40
0.6975383278
 40
0.7461457154
 40
0.7915410784
 40
0.8369367866
 40
0.8855433178
 40
0.9395905074
 40
1.0
 40
1.0
 40
1.0
 40
1.0
 10
199.5459529043
 20
462.9995488776
 30
0.0
 10
199.465277221
 20
463.0461259513
 30
0.0
 10
199.2888482482
 20
463.128292652
 30
0.0
 10
198.8978311339
 20
463.2470382339
 30
0.0
 10
198.3674305943
 20
463.3047345801
 30
0.0
 10
197.8370979487
 20
463.2470468321
 30
0.0
 10
197.4459935575
 20
463.1282573978
 30
0.0
 10
197.1928545677
 20
463.0103811693
 30
0.0
 10
196.9831324867
 20
462.8659715915
 30
0.0
 10
196.8245631296
 20
462.6992981249
 30
0.0
 10
196.7242296717
 20
462.5148385268
 30
0.0
 10
196.6894734296
 20
462.3191487733
 30
0.0
 10
196.7242217722
 20
462.1234623357
 30
0.0
 10
196.8245553445
 20
461.9389813529
 30
0.0
 10
196.983085462
 20
461.7723362466
 30
0.0
 10
197.1157881295
 20
461.6809723886
 30
0.0
 10
197.1889435734
 20
461.6387370288
 30
0.0
  0
SPLINE
  5
42B
100
AcDbEntity
  8
0
100
AcDbSpline
 62
7
  6
BYLAYER
 70
0
 71
3
 72
10
 73
6
 74
0
 42
0.0000001
 43
0.0000001
 44
0.0000000001
 40
0.0
 40
0.0
 40
0.0
 40
0.0
 40
0.5476894825
 40
0.7816225454
 40
1.0
 40
1.0
 40
1.0
 40
1.0
 10
199.4092455912
 20
462.8912924752
 30
0.0
 10
199.4299212395
 20
462.8793556542
 30
0.0
 10
199.4578452288
 20
462.8573793689
 30
0.0
 10
199.4789435702
 20
462.8186044029
 30
0.0
 10
199.4824695633
 20
462.7987512157
 30
0.0
 10
199.4824696319
 20
462.7892320377
 30
0.0
  0
SPLINE
  5
42C
100
AcDbEntity
  8
0
100
AcDbSpline
 62
7
  6
BYLAYER
 70
0
 71
3
 72
9
 73
5
 74
0
 42
0.0000001
 43
0.0000001
 44
0.0000000001
 40
0.0
 40
0.0
 40
0.0
 40
0.0
 40
0.5255657768
 40
1.0
 40
1.0
 40
1.0
 40
1.0
 10
199.1816687729
 20
462.9628955658
 30
0.0
 10
199.213768877
 20
462.962895643
 30
0.0
 10
199.2750104544
 20
462.9562570065
 30
0.0
 10
199.3333507003
 20
462.9351094197
 30
0.0
 10
199.3584457731
 20
462.9206211004
 30
0.0
  0
SPLINE
  5
42D
100
AcDbEntity
  8
0
100
AcDbSpline
 62
7
  6
BYLAYER
 70
0
 71
3
 72
9
 73
5
 74
0
 42
0.0000001
 43
0.0000001
 44
0.0000000001
 40
0.0
 40
0.0
 40
0.0
 40
0.0
 40
0.4744336899
 40
1.0
 40
1.0
 40
1.0
 40
1.0
 10
199.0048923825
 20
462.9206202506
 30
0.0
 10
199.0299872698
 20
462.935108704
 30
0.0
 10
199.0883272861
 20
462.9562565808
 30
0.0
 10
199.1495687038
 20
462.9628954887
 30
0.0
 10
199.1816687729
 20
462.9628955658
 30
0.0
  0
SPLINE
  5
42E
100
AcDbEntity
  8
0
100
AcDbSpline
 62
7
  6
BYLAYER
 70
0
 71
3
 72
9
 73
5
 74
0
 42
0.0000001
 43
0.0000001
 44
0.0000000001
 40
0.0
 40
0.0
 40
0.0
 40
0.0
 40
0.5255663101
 40
1.0
 40
1.0
 40
1.0
 40
1.0
 10
198.3674458369
 20
462.6522357996
 30
0.0
 10
198.4209459519
 20
462.6522359282
 30
0.0
 10
198.5230149814
 20
462.6633007745
 30
0.0
 10
198.6202483418
 20
462.6985472358
 30
0.0
 10
198.6620731539
 20
462.7226946581
 30
0.0
  0
SPLINE
  5
42F
100
AcDbEntity
  8
0
100
AcDbSpline
 62
7
  6
BYLAYER
 70
0
 71
3
 72
9
 73
5
 74
0
 42
0.0000001
 43
0.0000001
 44
0.0000000001
 40
0.0
 40
0.0
 40
0.0
 40
0.0
 40
0.4744342232
 40
1.0
 40
1.0
 40
1.0
 40
1.0
 10
198.0728175033
 20
462.7226932419
 30
0.0
 10
198.1146426246
 20
462.6985460431
 30
0.0
 10
198.2118763676
 20
462.663300065
 30
0.0
 10
198.3139456635
 20
462.652235671
 30
0.0
 10
198.3674458369
 20
462.6522357996
 30
0.0
  0
SPLINE
  5
430
100
AcDbEntity
  8
0
100
AcDbSpline
 62
7
  6
BYLAYER
 70
0
 71
3
 72
9
 73
5
 74
0
 42
0.0000001
 43
0.0000001
 44
0.0000000001
 40
0.0
 40
0.0
 40
0.0
 40
0.0
 40
0.5255657768
 40
1.0
 40
1.0
 40
1.0
 40
1.0
 10
197.5318798745
 20
462.975211188
 30
0.0
 10
197.5639799785
 20
462.9752112651
 30
0.0
 10
197.625221556
 20
462.9685726287
 30
0.0
 10
197.6835618018
 20
462.9474250418
 30
0.0
 10
197.7086568746
 20
462.9329367226
 30
0.0
  0
SPLINE
  5
431
100
AcDbEntity
  8
0
100
AcDbSpline
 62
7
  6
BYLAYER
 70
0
 71
3
 72
9
 73
5
 74
0
 42
0.0000001
 43
0.0000001
 44
0.0000000001
 40
0.0
 40
0.0
 40
0.0
 40
0.0
 40
0.5255657768
 40
1.0
 40
1.0
 40
1.0
 40
1.0
 10
166.4405293329
 20
461.696626047
 30
0.0
 10
166.4084292289
 20
461.6966259699
 30
0.0
 10
166.3471876514
 20
461.7032646063
 30
0.0
 10
166.2888474056
 20
461.7244121932
 30
0.0
 10
166.2637523328
 20
461.7389005124
 30
0.0
  0
SPLINE
  5
432
100
AcDbEntity
  8
0
100
AcDbSpline
 62
7
  6
BYLAYER
 70
0
 71
3
 72
9
 73
5
 74
0
 42
0.0000001
 43
0.0000001
 44
0.0000000001
 40
0.0
 40
0.0
 40
0.0
 40
0.0
 40
0.4744336899
 40
1.0
 40
1.0
 40
1.0
 40
1.0
 10
166.6173057234
 20
461.7389013623
 30
0.0
 10
166.5922108361
 20
461.7244129088
 30
0.0
 10
166.5338708198
 20
461.703265032
 30
0.0
 10
166.472629402
 20
461.6966261242
 30
0.0
 10
166.4405293329
 20
461.696626047
 30
0.0
  0
SPLINE
  5
433
100
AcDbEntity
  8
0
100
AcDbSpline
 62
7
  6
BYLAYER
 70
0
 71
3
 72
9
 73
5
 74
0
 42
0.0000001
 43
0.0000001
 44
0.0000000001
 40
0.0
 40
0.0
 40
0.0
 40
0.0
 40
0.5255663101
 40
1.0
 40
1.0
 40
1.0
 40
1.0
 10
167.254752269
 20
462.0072858133
 30
0.0
 10
167.2012521539
 20
462.0072856847
 30
0.0
 10
167.0991831245
 20
461.9962208383
 30
0.0
 10
167.0019497641
 20
461.9609743771
 30
0.0
 10
166.960124952
 20
461.9368269547
 30
0.0
  0
SPLINE
  5
434
100
AcDbEntity
  8
0
100
AcDbSpline
 62
7
  6
BYLAYER
 70
0
 71
3
 72
9
 73
5
 74
0
 42
0.0000001
 43
0.0000001
 44
0.0000000001
 40
0.0
 40
0.0
 40
0.0
 40
0.0
 40
0.4744342232
 40
1.0
 40
1.0
 40
1.0
 40
1.0
 10
167.5493806025
 20
461.936828371
 30
0.0
 10
167.5075554812
 20
461.9609755697
 30
0.0
 10
167.4103217382
 20
461.9962215478
 30
0.0
 10
167.3082524424
 20
462.0072859419
 30
0.0
 10
167.254752269
 20
462.0072858133
 30
0.0
  0
SPLINE
  5
435
100
AcDbEntity
  8
0
100
AcDbSpline
 62
7
  6
BYLAYER
 70
0
 71
3
 72
9
 73
5
 74
0
 42
0.0000001
 43
0.0000001
 44
0.0000000001
 40
0.0
 40
0.0
 40
0.0
 40
0.0
 40
0.5255657768
 40
1.0
 40
1.0
 40
1.0
 40
1.0
 10
168.0476411397
 20
461.7089494978
 30
0.0
 10
168.0155410357
 20
461.7089494207
 30
0.0
 10
167.9542994582
 20
461.7155880571
 30
0.0
 10
167.8959592124
 20
461.736735644
 30
0.0
 10
167.8708641396
 20
461.7512239632
 30
0.0
  0
SPLINE
  5
436
100
AcDbEntity
  8
0
100
AcDbSpline
 62
7
  6
BYLAYER
 70
0
 71
3
 72
9
 73
5
 74
0
 42
0.0000001
 43
0.0000001
 44
0.0000000001
 40
0.0
 40
0.0
 40
0.0
 40
0.0
 40
0.4744336899
 40
1.0
 40
1.0
 40
1.0
 40
1.0
 10
168.2244175302
 20
461.7512248131
 30
0.0
 10
168.1993226429
 20
461.7367363596
 30
0.0
 10
168.1409826266
 20
461.7155884828
 30
0.0
 10
168.0797412088
 20
461.708949575
 30
0.0
 10
168.0476411397
 20
461.7089494978
 30
0.0
  0
SPLINE
  5
437
100
AcDbEntity
  8
0
100
AcDbSpline
 62
7
  6
BYLAYER
 70
0
 71
3
 72
10
 73
6
 74
0
 42
0.0000001
 43
0.0000001
 44
0.0000000001
 40
0.0
 40
0.0
 40
0.0
 40
0.0
 40
0.2183779533
 40
0.452310998
 40
1.0
 40
1.0
 40
1.0
 40
1.0
 10
168.348439494
 20
461.882614472
 30
0.0
 10
168.3484395627
 20
461.8730953092
 30
0.0
 10
168.3449138693
 20
461.8532421234
 30
0.0
 10
168.3238160886
 20
461.8144670349
 30
0.0
 10
168.2958923891
 20
461.7924905958
 30
0.0
 10
168.2752169253
 20
461.7805536824
 30
0.0
  0
SPLINE
  5
438
100
AcDbEntity
  8
0
100
AcDbSpline
 62
7
  6
BYLAYER
 70
0
 71
3
 72
11
 73
7
 74
0
 42
0.0000001
 43
0.0000001
 44
0.0000000001
 40
0.0
 40
0.0
 40
0.0
 40
0.0
 40
0.2897060281
 40
0.5490591642
 40
0.7822835676
 40
1.0
 40
1.0
 40
1.0
 40
1.0
 10
167.9537294627
 20
462.5104813622
 30
0.0
 10
167.9354465618
 20
462.4999257875
 30
0.0
 10
167.9022832095
 20
462.4770768023
 30
0.0
 10
167.862624295
 20
462.4354213447
 30
0.0
 10
167.8375667572
 20
462.3893225532
 30
0.0
 10
167.831691734
 20
462.3562453177
 30
0.0
 10
167.8316918484
 20
462.3403800465
 30
0.0
  0
SPLINE
  5
439
100
AcDbEntity
  8
0
100
AcDbSpline
 62
7
  6
BYLAYER
 70
0
 71
3
 72
10
 73
6
 74
0
 42
0.0000001
 43
0.0000001
 44
0.0000000001
 40
0.0
 40
0.0
 40
0.0
 40
0.0
 40
0.2183779533
 40
0.452310998
 40
1.0
 40
1.0
 40
1.0
 40
1.0
 10
168.36977126
 20
462.8104677442
 30
0.0
 10
168.3697713286
 20
462.8009485814
 30
0.0
 10
168.3662456352
 20
462.7810953956
 30
0.0
 10
168.3451478546
 20
462.7423203071
 30
0.0
 10
168.3172241551
 20
462.720343868
 30
0.0
 10
168.2965486913
 20
462.7084069546
 30
0.0
  0
SPLINE
  5
43A
100
AcDbEntity
  8
0
100
AcDbSpline
 62
7
  6
BYLAYER
 70
0
 71
3
 72
10
 73
6
 74
0
 42
0.0000001
 43
0.0000001
 44
0.0000000001
 40
0.0
 40
0.0
 40
0.0
 40
0.0
 40
0.5476894825
 40
0.7816225454
 40
1.0
 40
1.0
 40
1.0
 40
1.0
 10
166.191607189
 20
462.7207214827
 30
0.0
 10
166.1709315407
 20
462.7326583038
 30
0.0
 10
166.1430075513
 20
462.7546345891
 30
0.0
 10
166.12190921
 20
462.793409555
 30
0.0
 10
166.1183832169
 20
462.8132627423
 30
0.0
 10
166.1183831483
 20
462.8227819203
 30
0.0
  0
SPLINE
  5
43B
100
AcDbEntity
  8
0
100
AcDbSpline
 62
7
  6
BYLAYER
 70
0
 71
3
 72
11
 73
7
 74
0
 42
0.0000001
 43
0.0000001
 44
0.0000000001
 40
0.0
 40
0.0
 40
0.0
 40
0.0
 40
0.2177159471
 40
0.4509403815
 40
0.7102937689
 40
1.0
 40
1.0
 40
1.0
 40
1.0
 10
166.6778078855
 20
462.3403772729
 30
0.0
 10
166.677807771
 20
462.3562425695
 30
0.0
 10
166.6719322483
 20
462.3893198073
 30
0.0
 10
166.6468740534
 20
462.4354184379
 30
0.0
 10
166.6072145593
 20
462.4770736827
 30
0.0
 10
166.5740508774
 20
462.4999225114
 30
0.0
 10
166.5557678177
 20
462.5104780021
 30
0.0
  0
SPLINE
  5
43C
100
AcDbEntity
  8
0
100
AcDbSpline
 62
7
  6
BYLAYER
 70
0
 71
3
 72
10
 73
6
 74
0
 42
0.0000001
 43
0.0000001
 44
0.0000000001
 40
0.0
 40
0.0
 40
0.0
 40
0.0
 40
0.5476894825
 40
0.7816225454
 40
1.0
 40
1.0
 40
1.0
 40
1.0
 10
166.2129525146
 20
461.7682291376
 30
0.0
 10
166.1922768664
 20
461.7801659587
 30
0.0
 10
166.164352877
 20
461.802142244
 30
0.0
 10
166.1432545357
 20
461.8409172099
 30
0.0
 10
166.1397285426
 20
461.8607703972
 30
0.0
 10
166.1397284739
 20
461.8702895752
 30
0.0
  0
SPLINE
  5
43D
100
AcDbEntity
  8
0
100
AcDbSpline
 62
7
  6
BYLAYER
 70
0
 71
3
 72
11
 73
7
 74
0
 42
0.0000001
 43
0.0000001
 44
0.0000000001
 40
0.0
 40
0.0
 40
0.0
 40
0.0
 40
0.2898080169
 40
0.5490504853
 40
0.7822322469
 40
1.0
 40
1.0
 40
1.0
 40
1.0
 10
165.4869902739
 20
459.9589309132
 30
0.0
 10
165.3772510228
 20
460.022287466
 30
0.0
 10
165.178193866
 20
460.1593027885
 30
0.0
 10
164.9404180513
 20
460.4093616942
 30
0.0
 10
164.7898998426
 20
460.6858184452
 30
0.0
 10
164.7547481114
 20
460.8843247998
 30
0.0
 10
164.754756906
 20
460.97954127
 30
0.0
  0
SPLINE
  5
43E
100
AcDbEntity
  8
0
100
AcDbSpline
 62
7
  6
BYLAYER
 70
0
 71
3
 72
10
 73
6
 74
0
 42
0.0000001
 43
0.0000001
 44
0.0000000001
 40
0.0
 40
0.0
 40
0.0
 40
0.0
 40
0.5249016821
 40
0.7715664297
 40
1.0
 40
1.0
 40
1.0
 40
1.0
 10
167.2855461324
 20
459.5363006843
 30
0.0
 10
166.9592060205
 20
459.5339710101
 30
0.0
 10
166.4759683037
 20
459.5837915487
 30
0.0
 10
165.8793192292
 20
459.7629574152
 30
0.0
 10
165.6099878563
 20
459.8879198324
 30
0.0
 10
165.4869902739
 20
459.9589309132
 30
0.0
  0
SPLINE
  5
43F
100
AcDbEntity
  8
0
100
AcDbSpline
 62
7
  6
BYLAYER
 70
0
 71
3
 72
11
 73
7
 74
0
 42
0.0000001
 43
0.0000001
 44
0.0000000001
 40
0.0
 40
0.0
 40
0.0
 40
0.0
 40
0.247942443
 40
0.4956576428
 40
0.744934943
 40
1.0
 40
1.0
 40
1.0
 40
1.0
 10
164.7547498669
 20
461.6599599788
 30
0.0
 10
164.7547498669
 20
461.8041380282
 30
0.0
 10
164.8007434888
 20
462.0942646252
 30
0.0
 10
164.9956094456
 20
462.4875601814
 30
0.0
 10
165.2897110837
 20
462.8171518116
 30
0.0
 10
165.5310898653
 20
462.9878706488
 30
0.0
 10
165.6595376927
 20
463.0620321568
 30
0.0
  0
SPLINE
  5
440
100
AcDbEntity
  8
0
100
AcDbSpline
 62
7
  6
BYLAYER
 70
0
 71
3
 72
10
 73
6
 74
0
 42
0.0000001
 43
0.0000001
 44
0.0000000001
 40
0.0
 40
0.0
 40
0.0
 40
0.0
 40
0.5046719114
 40
0.7526128409
 40
1.0
 40
1.0
 40
1.0
 40
1.0
 10
168.8499620411
 20
463.0620321568
 30
0.0
 10
169.0344554495
 20
462.9555117924
 30
0.0
 10
169.2916410337
 20
462.7573117237
 30
0.0
 10
169.547215853
 20
462.4188542659
 30
0.0
 10
169.6385475493
 20
462.2286966554
 30
0.0
 10
169.6733578468
 20
462.1302402152
 30
0.0
  0
SPLINE
  5
441
100
AcDbEntity
  8
0
100
AcDbSpline
 62
7
  6
BYLAYER
 70
0
 71
3
 72
13
 73
9
 74
0
 42
0.0000001
 43
0.0000001
 44
0.0000000001
 40
0.0
 40
0.0
 40
0.0
 40
0.0
 40
0.2431353558
 40
0.3705688964
 40
0.500006671
 40
0.6294430846
 40
0.7568756268
 40
1.0
 40
1.0
 40
1.0
 40
1.0
 10
165.6595376927
 20
463.0620321568
 30
0.0
 10
165.8922932512
 20
463.1964174833
 30
0.0
 10
166.2825338828
 20
463.3429874795
 30
0.0
 10
166.8273469662
 20
463.4391306009
 30
0.0
 10
167.2547439114
 20
463.4637952329
 30
0.0
 10
167.6821401449
 20
463.4391338627
 30
0.0
 10
168.2269381536
 20
463.3429903103
 30
0.0
 10
168.6171678347
 20
463.1964329147
 30
0.0
 10
168.8499158593
 20
463.06205882
 30
0.0
  0
SPLINE
  5
442
100
AcDbEntity
  8
0
100
AcDbSpline
 62
7
  6
BYLAYER
 70
0
 71
3
 72
9
 73
5
 74
0
 42
0.0000001
 43
0.0000001
 44
0.0000000001
 40
0.0
 40
0.0
 40
0.0
 40
0.0
 40
0.4744336899
 40
1.0
 40
1.0
 40
1.0
 40
1.0
 10
166.2424051121
 20
462.9541715792
 30
0.0
 10
166.2674999994
 20
462.9686600327
 30
0.0
 10
166.3258400157
 20
462.9898079095
 30
0.0
 10
166.3870814335
 20
462.9964468173
 30
0.0
 10
166.4191815025
 20
462.9964468945
 30
0.0
  0
SPLINE
  5
443
100
AcDbEntity
  8
0
100
AcDbSpline
 62
7
  6
BYLAYER
 70
0
 71
3
 72
10
 73
6
 74
0
 42
0.0000001
 43
0.0000001
 44
0.0000000001
 40
0.0
 40
0.0
 40
0.0
 40
0.0
 40
0.2183779533
 40
0.452310998
 40
1.0
 40
1.0
 40
1.0
 40
1.0
 10
166.1183831483
 20
462.8227819203
 30
0.0
 10
166.1183830796
 20
462.8323010831
 30
0.0
 10
166.121908773
 20
462.8521542689
 30
0.0
 10
166.1430065536
 20
462.8909293574
 30
0.0
 10
166.1709302532
 20
462.9129057965
 30
0.0
 10
166.191605717
 20
462.9248427098
 30
0.0
  0
SPLINE
  5
444
100
AcDbEntity
  8
0
100
AcDbSpline
 62
7
  6
BYLAYER
 70
0
 71
3
 72
10
 73
6
 74
0
 42
0.0000001
 43
0.0000001
 44
0.0000000001
 40
0.0
 40
0.0
 40
0.0
 40
0.0
 40
0.5476894825
 40
0.7816225454
 40
1.0
 40
1.0
 40
1.0
 40
1.0
 10
168.2752154533
 20
461.9846749095
 30
0.0
 10
168.2958911016
 20
461.9727380885
 30
0.0
 10
168.3238150909
 20
461.9507618031
 30
0.0
 10
168.3449134323
 20
461.9119868372
 30
0.0
 10
168.3484394254
 20
461.8921336499
 30
0.0
 10
168.348439494
 20
461.882614472
 30
0.0
  0
SPLINE
  5
445
100
AcDbEntity
  8
0
100
AcDbSpline
 62
7
  6
BYLAYER
 70
0
 71
3
 72
11
 73
7
 74
0
 42
0.0000001
 43
0.0000001
 44
0.0000000001
 40
0.0
 40
0.0
 40
0.0
 40
0.0
 40
0.2177159471
 40
0.4509403815
 40
0.7102937689
 40
1.0
 40
1.0
 40
1.0
 40
1.0
 10
167.8316918484
 20
462.3403800465
 30
0.0
 10
167.8316919629
 20
462.3245147499
 30
0.0
 10
167.8375674856
 20
462.291437512
 30
0.0
 10
167.8626256805
 20
462.2453388814
 30
0.0
 10
167.9022851747
 20
462.2036836367
 30
0.0
 10
167.9354488565
 20
462.1808348079
 30
0.0
 10
167.9537319163
 20
462.1702793172
 30
0.0
  0
SPLINE
  5
446
100
AcDbEntity
  8
0
100
AcDbSpline
 62
7
  6
BYLAYER
 70
0
 71
3
 72
11
 73
7
 74
0
 42
0.0000001
 43
0.0000001
 44
0.0000000001
 40
0.0
 40
0.0
 40
0.0
 40
0.0
 40
0.2897060281
 40
0.5490591642
 40
0.7822835676
 40
1.0
 40
1.0
 40
1.0
 40
1.0
 10
166.5557702713
 20
462.1702759572
 30
0.0
 10
166.5740531721
 20
462.1808315319
 30
0.0
 10
166.6072165244
 20
462.203680517
 30
0.0
 10
166.6468754389
 20
462.2453359747
 30
0.0
 10
166.6719329767
 20
462.2914347662
 30
0.0
 10
166.6778079999
 20
462.3245120016
 30
0.0
 10
166.6778078855
 20
462.3403772729
 30
0.0
  0
SPLINE
  5
447
100
AcDbEntity
  8
0
100
AcDbSpline
 62
7
  6
BYLAYER
 70
0
 71
3
 72
10
 73
6
 74
0
 42
0.0000001
 43
0.0000001
 44
0.0000000001
 40
0.0
 40
0.0
 40
0.0
 40
0.0
 40
0.2183779533
 40
0.452310998
 40
1.0
 40
1.0
 40
1.0
 40
1.0
 10
166.1397284739
 20
461.8702895752
 30
0.0
 10
166.1397284053
 20
461.8798087379
 30
0.0
 10
166.1432540987
 20
461.8996619238
 30
0.0
 10
166.1643518793
 20
461.9384370122
 30
0.0
 10
166.1922755788
 20
461.9604134514
 30
0.0
 10
166.2129510426
 20
461.9723503647
 30
0.0
  0
SPLINE
  5
448
100
AcDbEntity
  8
0
100
AcDbSpline
 62
7
  6
BYLAYER
 70
0
 71
3
 72
21
 73
17
 74
0
 42
0.0000001
 43
0.0000001
 44
0.0000000001
 40
0.0
 40
0.0
 40
0.0
 40
0.0
 40
0.0666194727
 40
0.1385075533
 40
0.2915443341
 40
0.4445827792
 40
0.5164663573
 40
0.5830868673
 40
0.6434966658
 40
0.6975383278
 40
0.7461457154
 40
0.7915410784
 40
0.8369367866
 40
0.8855433178
 40
0.9395905074
 40
1.0
 40
1.0
 40
1.0
 40
1.0
 10
166.0762452015
 20
461.6599727353
 30
0.0
 10
166.1569208848
 20
461.6133956616
 30
0.0
 10
166.3333498576
 20
461.5312289609
 30
0.0
 10
166.7243669719
 20
461.412483379
 30
0.0
 10
167.2547675115
 20
461.3547870328
 30
0.0
 10
167.7851001571
 20
461.4124747808
 30
0.0
 10
168.1762045483
 20
461.5312642151
 30
0.0
 10
168.4293435381
 20
461.6491404436
 30
0.0
 10
168.6390656191
 20
461.7935500214
 30
0.0
 10
168.7976349762
 20
461.960223488
 30
0.0
 10
168.897968434
 20
462.1446830861
 30
0.0
 10
168.9327246761
 20
462.3403728396
 30
0.0
 10
168.8979763336
 20
462.5360592772
 30
0.0
 10
168.7976427613
 20
462.72054026
 30
0.0
 10
168.6391126437
 20
462.8871853663
 30
0.0
 10
168.5064099763
 20
462.9785492243
 30
0.0
 10
168.4332545324
 20
463.0207845841
 30
0.0
  0
SPLINE
  5
449
100
AcDbEntity
  8
0
100
AcDbSpline
 62
7
  6
BYLAYER
 70
0
 71
3
 72
9
 73
5
 74
0
 42
0.0000001
 43
0.0000001
 44
0.0000000001
 40
0.0
 40
0.0
 40
0.0
 40
0.0
 40
0.2364858112
 40
1.0
 40
1.0
 40
1.0
 40
1.0
 10
165.4869902739
 20
460.6393495941
 30
0.0
 10
165.5403019028
 20
460.6085708071
 30
0.0
 10
165.7708343022
 20
460.487297465
 30
0.0
 10
166.0182619251
 20
460.3995796947
 30
0.0
 10
166.2103560677
 20
460.3485868906
 30
0.0
  0
SPLINE
  5
44A
100
AcDbEntity
  8
0
100
AcDbSpline
 62
7
  6
BYLAYER
 70
0
 71
3
 72
9
 73
5
 74
0
 42
0.0000001
 43
0.0000001
 44
0.0000000001
 40
0.0
 40
0.0
 40
0.0
 40
0.0
 40
0.2439379628
 40
1.0
 40
1.0
 40
1.0
 40
1.0
 10
166.2449568764
 20
460.3395852121
 30
0.0
 10
166.3276458437
 20
460.3185083543
 30
0.0
 10
166.6695892552
 20
460.2440364371
 30
0.0
 10
167.0210761011
 20
460.2148301315
 30
0.0
 10
167.2855503203
 20
460.2167180282
 30
0.0
  0
SPLINE
  5
44B
100
AcDbEntity
  8
0
100
AcDbSpline
 62
7
  6
BYLAYER
 70
0
 71
3
 72
21
 73
17
 74
0
 42
0.0000001
 43
0.0000001
 44
0.0000000001
 40
0.0
 40
0.0
 40
0.0
 40
0.0
 40
0.0666194727
 40
0.1385075533
 40
0.2915443341
 40
0.4445827792
 40
0.5164663573
 40
0.5830868673
 40
0.6434966658
 40
0.6975383278
 40
0.7461457154
 40
0.7915410784
 40
0.8369367866
 40
0.8855433178
 40
0.9395905074
 40
1.0
 40
1.0
 40
1.0
 40
1.0
 10
168.4332545324
 20
463.0207845841
 30
0.0
 10
168.352578849
 20
463.0673616578
 30
0.0
 10
168.1761498763
 20
463.1495283585
 30
0.0
 10
167.785132762
 20
463.2682739404
 30
0.0
 10
167.2547322223
 20
463.3259702866
 30
0.0
 10
166.7243995767
 20
463.2682825386
 30
0.0
 10
166.3332951856
 20
463.1494931043
 30
0.0
 10
166.0801561958
 20
463.0316168758
 30
0.0
 10
165.8704341148
 20
462.887207298
 30
0.0
 10
165.7118647577
 20
462.7205338314
 30
0.0
 10
165.6115312998
 20
462.5360742333
 30
0.0
 10
165.5767750577
 20
462.3403844798
 30
0.0
 10
165.6115234003
 20
462.1446980422
 30
0.0
 10
165.7118569725
 20
461.9602170594
 30
0.0
 10
165.8703870901
 20
461.7935719531
 30
0.0
 10
166.0030897575
 20
461.7022080951
 30
0.0
 10
166.0762452015
 20
461.6599727353
 30
0.0
  0
SPLINE
  5
44C
100
AcDbEntity
  8
0
100
AcDbSpline
 62
7
  6
BYLAYER
 70
0
 71
3
 72
10
 73
6
 74
0
 42
0.0000001
 43
0.0000001
 44
0.0000000001
 40
0.0
 40
0.0
 40
0.0
 40
0.0
 40
0.5476894825
 40
0.7816225454
 40
1.0
 40
1.0
 40
1.0
 40
1.0
 10
168.2965472193
 20
462.9125281817
 30
0.0
 10
168.3172228675
 20
462.9005913607
 30
0.0
 10
168.3451468569
 20
462.8786150754
 30
0.0
 10
168.3662451982
 20
462.8398401094
 30
0.0
 10
168.3697711913
 20
462.8199869221
 30
0.0
 10
168.36977126
 20
462.8104677442
 30
0.0
  0
SPLINE
  5
44D
100
AcDbEntity
  8
0
100
AcDbSpline
 62
7
  6
BYLAYER
 70
0
 71
3
 72
9
 73
5
 74
0
 42
0.0000001
 43
0.0000001
 44
0.0000000001
 40
0.0
 40
0.0
 40
0.0
 40
0.0
 40
0.5255657768
 40
1.0
 40
1.0
 40
1.0
 40
1.0
 10
168.068970401
 20
462.9841312723
 30
0.0
 10
168.101070505
 20
462.9841313495
 30
0.0
 10
168.1623120825
 20
462.977492713
 30
0.0
 10
168.2206523283
 20
462.9563451262
 30
0.0
 10
168.2457474011
 20
462.9418568069
 30
0.0
  0
SPLINE
  5
44E
100
AcDbEntity
  8
0
100
AcDbSpline
 62
7
  6
BYLAYER
 70
0
 71
3
 72
9
 73
5
 74
0
 42
0.0000001
 43
0.0000001
 44
0.0000000001
 40
0.0
 40
0.0
 40
0.0
 40
0.0
 40
0.4744336899
 40
1.0
 40
1.0
 40
1.0
 40
1.0
 10
167.8921940105
 20
462.9418559571
 30
0.0
 10
167.9172888978
 20
462.9563444105
 30
0.0
 10
167.9756289141
 20
462.9774922873
 30
0.0
 10
168.0368703319
 20
462.9841311952
 30
0.0
 10
168.068970401
 20
462.9841312723
 30
0.0
  0
SPLINE
  5
44F
100
AcDbEntity
  8
0
100
AcDbSpline
 62
7
  6
BYLAYER
 70
0
 71
3
 72
11
 73
7
 74
0
 42
0.0000001
 43
0.0000001
 44
0.0000000001
 40
0.0
 40
0.0
 40
0.0
 40
0.0
 40
0.2177699877
 40
0.4509516571
 40
0.7101928879
 40
1.0
 40
1.0
 40
1.0
 40
1.0
 10
164.7547545373
 20
461.6599599786
 30
0.0
 10
164.7547460785
 20
461.5647424607
 30
0.0
 10
164.7898995846
 20
461.3662352722
 30
0.0
 10
164.9404185865
 20
461.08977839
 30
0.0
 10
165.1781947967
 20
460.83972083
 30
0.0
 10
165.3772512839
 20
460.7027059962
 30
0.0
 10
165.4869902739
 20
460.6393495941
 30
0.0
  0
SPLINE
  5
450
100
AcDbEntity
  8
0
100
AcDbSpline
 62
7
  6
BYLAYER
 70
0
 71
3
 72
9
 73
5
 74
0
 42
0.0000001
 43
0.0000001
 44
0.0000000001
 40
0.0
 40
0.0
 40
0.0
 40
0.0
 40
0.5255663101
 40
1.0
 40
1.0
 40
1.0
 40
1.0
 10
167.2547474649
 20
462.6734715061
 30
0.0
 10
167.30824758
 20
462.6734716347
 30
0.0
 10
167.4103166094
 20
462.684536481
 30
0.0
 10
167.5075499698
 20
462.7197829423
 30
0.0
 10
167.5493747819
 20
462.7439303646
 30
0.0
  0
SPLINE
  5
451
100
AcDbEntity
  8
0
100
AcDbSpline
 62
7
  6
BYLAYER
 70
0
 71
3
 72
9
 73
5
 74
0
 42
0.0000001
 43
0.0000001
 44
0.0000000001
 40
0.0
 40
0.0
 40
0.0
 40
0.0
 40
0.4744342232
 40
1.0
 40
1.0
 40
1.0
 40
1.0
 10
166.9601191313
 20
462.7439289484
 30
0.0
 10
167.0019442526
 20
462.7197817496
 30
0.0
 10
167.0991779957
 20
462.6845357715
 30
0.0
 10
167.2012472915
 20
462.6734713775
 30
0.0
 10
167.2547474649
 20
462.6734715061
 30
0.0
  0
SPLINE
  5
452
100
AcDbEntity
  8
0
100
AcDbSpline
 62
7
  6
BYLAYER
 70
0
 71
3
 72
9
 73
5
 74
0
 42
0.0000001
 43
0.0000001
 44
0.0000000001
 40
0.0
 40
0.0
 40
0.0
 40
0.0
 40
0.5255657768
 40
1.0
 40
1.0
 40
1.0
 40
1.0
 10
166.4191815025
 20
462.9964468945
 30
0.0
 10
166.4512816066
 20
462.9964469716
 30
0.0
 10
166.5125231841
 20
462.9898083352
 30
0.0
 10
166.5708634299
 20
462.9686607483
 30
0.0
 10
166.5959585027
 20
462.9541724291
 30
0.0
  0
SPLINE
  5
453
100
AcDbEntity
  8
0
100
AcDbSpline
 62
7
  6
BYLAYER
 70
0
 71
3
 72
9
 73
5
 74
0
 42
0.0000001
 43
0.0000001
 44
0.0000000001
 40
0.0
 40
0.0
 40
0.0
 40
0.0
 40
0.5255657768
 40
1.0
 40
1.0
 40
1.0
 40
1.0
 10
181.9969432862
 20
452.7153294476
 30
0.0
 10
181.9648431821
 20
452.7153293704
 30
0.0
 10
181.9036016046
 20
452.7219680069
 30
0.0
 10
181.8452613588
 20
452.7431155937
 30
0.0
 10
181.820166286
 20
452.757603913
 30
0.0
  0
SPLINE
  5
454
100
AcDbEntity
  8
0
100
AcDbSpline
 62
7
  6
BYLAYER
 70
0
 71
3
 72
9
 73
5
 74
0
 42
0.0000001
 43
0.0000001
 44
0.0000000001
 40
0.0
 40
0.0
 40
0.0
 40
0.0
 40
0.4744336899
 40
1.0
 40
1.0
 40
1.0
 40
1.0
 10
182.1737196766
 20
452.7576047628
 30
0.0
 10
182.1486247893
 20
452.7431163094
 30
0.0
 10
182.090284773
 20
452.7219684326
 30
0.0
 10
182.0290433552
 20
452.7153295247
 30
0.0
 10
181.9969432862
 20
452.7153294476
 30
0.0
  0
SPLINE
  5
455
100
AcDbEntity
  8
0
100
AcDbSpline
 62
7
  6
BYLAYER
 70
0
 71
3
 72
9
 73
5
 74
0
 42
0.0000001
 43
0.0000001
 44
0.0000000001
 40
0.0
 40
0.0
 40
0.0
 40
0.0
 40
0.5255663101
 40
1.0
 40
1.0
 40
1.0
 40
1.0
 10
182.8111662222
 20
453.0259892138
 30
0.0
 10
182.7576661072
 20
453.0259890852
 30
0.0
 10
182.6555970777
 20
453.0149242389
 30
0.0
 10
182.5583637173
 20
452.9796777777
 30
0.0
 10
182.5165389052
 20
452.9555303553
 30
0.0
  0
SPLINE
  5
456
100
AcDbEntity
  8
0
100
AcDbSpline
 62
7
  6
BYLAYER
 70
0
 71
3
 72
9
 73
5
 74
0
 42
0.0000001
 43
0.0000001
 44
0.0000000001
 40
0.0
 40
0.0
 40
0.0
 40
0.0
 40
0.4744342232
 40
1.0
 40
1.0
 40
1.0
 40
1.0
 10
183.1057945558
 20
452.9555317715
 30
0.0
 10
183.0639694344
 20
452.9796789703
 30
0.0
 10
182.9667356914
 20
453.0149249484
 30
0.0
 10
182.8646663956
 20
453.0259893424
 30
0.0
 10
182.8111662222
 20
453.0259892138
 30
0.0
  0
SPLINE
  5
457
100
AcDbEntity
  8
0
100
AcDbSpline
 62
7
  6
BYLAYER
 70
0
 71
3
 72
9
 73
5
 74
0
 42
0.0000001
 43
0.0000001
 44
0.0000000001
 40
0.0
 40
0.0
 40
0.0
 40
0.0
 40
0.5255657768
 40
1.0
 40
1.0
 40
1.0
 40
1.0
 10
183.604055093
 20
452.7276528984
 30
0.0
 10
183.5719549889
 20
452.7276528212
 30
0.0
 10
183.5107134114
 20
452.7342914577
 30
0.0
 10
183.4523731656
 20
452.7554390445
 30
0.0
 10
183.4272780928
 20
452.7699273638
 30
0.0
  0
SPLINE
  5
458
100
AcDbEntity
  8
0
100
AcDbSpline
 62
7
  6
BYLAYER
 70
0
 71
3
 72
9
 73
5
 74
0
 42
0.0000001
 43
0.0000001
 44
0.0000000001
 40
0.0
 40
0.0
 40
0.0
 40
0.0
 40
0.4744336899
 40
1.0
 40
1.0
 40
1.0
 40
1.0
 10
183.7808314834
 20
452.7699282136
 30
0.0
 10
183.7557365961
 20
452.7554397602
 30
0.0
 10
183.6973965798
 20
452.7342918834
 30
0.0
 10
183.6361551621
 20
452.7276529755
 30
0.0
 10
183.604055093
 20
452.7276528984
 30
0.0
  0
SPLINE
  5
459
100
AcDbEntity
  8
0
100
AcDbSpline
 62
7
  6
BYLAYER
 70
0
 71
3
 72
10
 73
6
 74
0
 42
0.0000001
 43
0.0000001
 44
0.0000000001
 40
0.0
 40
0.0
 40
0.0
 40
0.0
 40
0.2183779533
 40
0.452310998
 40
1.0
 40
1.0
 40
1.0
 40
1.0
 10
183.9048534472
 20
452.9013178725
 30
0.0
 10
183.9048535159
 20
452.8917987098
 30
0.0
 10
183.9013278225
 20
452.8719455239
 30
0.0
 10
183.8802300419
 20
452.8331704355
 30
0.0
 10
183.8523063424
 20
452.8111939963
 30
0.0
 10
183.8316308785
 20
452.799257083
 30
0.0
  0
SPLINE
  5
45A
100
AcDbEntity
  8
0
100
AcDbSpline
 62
7
  6
BYLAYER
 70
0
 71
3
 72
11
 73
7
 74
0
 42
0.0000001
 43
0.0000001
 44
0.0000000001
 40
0.0
 40
0.0
 40
0.0
 40
0.0
 40
0.2897060281
 40
0.5490591642
 40
0.7822835676
 40
1.0
 40
1.0
 40
1.0
 40
1.0
 10
183.5101434159
 20
453.5291847627
 30
0.0
 10
183.491860515
 20
453.518629188
 30
0.0
 10
183.4586971627
 20
453.4957802029
 30
0.0
 10
183.4190382483
 20
453.4541247452
 30
0.0
 10
183.3939807104
 20
453.4080259537
 30
0.0
 10
183.3881056873
 20
453.3749487183
 30
0.0
 10
183.3881058017
 20
453.359083447
 30
0.0
  0
SPLINE
  5
45B
100
AcDbEntity
  8
0
100
AcDbSpline
 62
7
  6
BYLAYER
 70
0
 71
3
 72
10
 73
6
 74
0
 42
0.0000001
 43
0.0000001
 44
0.0000000001
 40
0.0
 40
0.0
 40
0.0
 40
0.0
 40
0.2183779533
 40
0.452310998
 40
1.0
 40
1.0
 40
1.0
 40
1.0
 10
183.9261852132
 20
453.8291711447
 30
0.0
 10
183.9261852818
 20
453.819651982
 30
0.0
 10
183.9226595885
 20
453.7997987962
 30
0.0
 10
183.9015618078
 20
453.7610237077
 30
0.0
 10
183.8736381083
 20
453.7390472685
 30
0.0
 10
183.8529626445
 20
453.7271103552
 30
0.0
  0
SPLINE
  5
45C
100
AcDbEntity
  8
0
100
AcDbSpline
 62
7
  6
BYLAYER
 70
0
 71
3
 72
10
 73
6
 74
0
 42
0.0000001
 43
0.0000001
 44
0.0000000001
 40
0.0
 40
0.0
 40
0.0
 40
0.0
 40
0.5476894825
 40
0.7816225454
 40
1.0
 40
1.0
 40
1.0
 40
1.0
 10
181.7480211422
 20
453.7394248833
 30
0.0
 10
181.7273454939
 20
453.7513617043
 30
0.0
 10
181.6994215046
 20
453.7733379897
 30
0.0
 10
181.6783231632
 20
453.8121129556
 30
0.0
 10
181.6747971701
 20
453.8319661429
 30
0.0
 10
181.6747971015
 20
453.8414853208
 30
0.0
  0
SPLINE
  5
45D
100
AcDbEntity
  8
0
100
AcDbSpline
 62
7
  6
BYLAYER
 70
0
 71
3
 72
11
 73
7
 74
0
 42
0.0000001
 43
0.0000001
 44
0.0000000001
 40
0.0
 40
0.0
 40
0.0
 40
0.0
 40
0.2177159471
 40
0.4509403815
 40
0.7102937689
 40
1.0
 40
1.0
 40
1.0
 40
1.0
 10
182.2342218387
 20
453.3590806734
 30
0.0
 10
182.2342217243
 20
453.37494597
 30
0.0
 10
182.2283462015
 20
453.4080232079
 30
0.0
 10
182.2032880066
 20
453.4541218385
 30
0.0
 10
182.1636285125
 20
453.4957770832
 30
0.0
 10
182.1304648306
 20
453.518625912
 30
0.0
 10
182.1121817709
 20
453.5291814026
 30
0.0
  0
SPLINE
  5
45E
100
AcDbEntity
  8
0
100
AcDbSpline
 62
7
  6
BYLAYER
 70
0
 71
3
 72
10
 73
6
 74
0
 42
0.0000001
 43
0.0000001
 44
0.0000000001
 40
0.0
 40
0.0
 40
0.0
 40
0.0
 40
0.5476894825
 40
0.7816225454
 40
1.0
 40
1.0
 40
1.0
 40
1.0
 10
181.7693664679
 20
452.7869325382
 30
0.0
 10
181.7486908196
 20
452.7988693592
 30
0.0
 10
181.7207668302
 20
452.8208456446
 30
0.0
 10
181.6996684889
 20
452.8596206105
 30
0.0
 10
181.6961424958
 20
452.8794737978
 30
0.0
 10
181.6961424272
 20
452.8889929757
 30
0.0
  0
SPLINE
  5
45F
100
AcDbEntity
  8
0
100
AcDbSpline
 62
7
  6
BYLAYER
 70
0
 71
3
 72
11
 73
7
 74
0
 42
0.0000001
 43
0.0000001
 44
0.0000000001
 40
0.0
 40
0.0
 40
0.0
 40
0.0
 40
0.2898080169
 40
0.5490504853
 40
0.7822322469
 40
1.0
 40
1.0
 40
1.0
 40
1.0
 10
181.0434042271
 20
450.9776343137
 30
0.0
 10
180.9336649761
 20
451.0409908666
 30
0.0
 10
180.7346078193
 20
451.1780061891
 30
0.0
 10
180.4968320045
 20
451.4280650948
 30
0.0
 10
180.3463137959
 20
451.7045218458
 30
0.0
 10
180.3111620646
 20
451.9030282004
 30
0.0
 10
180.3111708592
 20
451.9982446705
 30
0.0
  0
SPLINE
  5
460
100
AcDbEntity
  8
0
100
AcDbSpline
 62
7
  6
BYLAYER
 70
0
 71
3
 72
17
 73
13
 74
0
 42
0.0000001
 43
0.0000001
 44
0.0000000001
 40
0.0
 40
0.0
 40
0.0
 40
0.0
 40
0.0428597516
 40
0.0874894245
 40
0.1353236802
 40
0.187288364
 40
0.3045526165
 40
0.4382233478
 40
0.5825693394
 40
0.729723565
 40
0.871313695
 40
1.0
 40
1.0
 40
1.0
 40
1.0
 10
185.3111567811
 20
451.9982447263
 30
0.0
 10
185.3111502076
 20
451.9270759997
 30
0.0
 10
185.2921392556
 20
451.7811788724
 30
0.0
 10
185.2084547275
 20
451.5705256329
 30
0.0
 10
185.072688259
 20
451.3708061974
 30
0.0
 10
184.8170823704
 20
451.1143072239
 30
0.0
 10
184.3815757577
 20
450.8491876825
 30
0.0
 10
183.755366443
 20
450.6400351659
 30
0.0
 10
183.0526398359
 20
450.5412937556
 30
0.0
 10
182.3303492834
 20
450.5612770689
 30
0.0
 10
181.6474653793
 20
450.6979223668
 30
0.0
 10
181.2284609921
 20
450.8707941577
 30
0.0
 10
181.0434042271
 20
450.9776343137
 30
0.0
  0
SPLINE
  5
461
100
AcDbEntity
  8
0
100
AcDbSpline
 62
7
  6
BYLAYER
 70
0
 71
3
 72
11
 73
7
 74
0
 42
0.0000001
 43
0.0000001
 44
0.0000000001
 40
0.0
 40
0.0
 40
0.0
 40
0.0
 40
0.247942443
 40
0.4956576428
 40
0.744934943
 40
1.0
 40
1.0
 40
1.0
 40
1.0
 10
180.3111638202
 20
452.6786633793
 30
0.0
 10
180.3111638202
 20
452.8228414288
 30
0.0
 10
180.357157442
 20
453.1129680258
 30
0.0
 10
180.5520233988
 20
453.5062635819
 30
0.0
 10
180.8461250369
 20
453.8358552121
 30
0.0
 10
181.0875038185
 20
454.0065740494
 30
0.0
 10
181.215951646
 20
454.0807355574
 30
0.0
  0
SPLINE
  5
462
100
AcDbEntity
  8
0
100
AcDbSpline
 62
7
  6
BYLAYER
 70
0
 71
3
 72
11
 73
7
 74
0
 42
0.0000001
 43
0.0000001
 44
0.0000000001
 40
0.0
 40
0.0
 40
0.0
 40
0.0
 40
0.2550648906
 40
0.5043400343
 40
0.7520505207
 40
1.0
 40
1.0
 40
1.0
 40
1.0
 10
184.4063759943
 20
454.0807355574
 30
0.0
 10
184.5348237694
 20
454.0065740796
 30
0.0
 10
184.7762011828
 20
453.8358555083
 30
0.0
 10
185.0703008212
 20
453.5062679347
 30
0.0
 10
185.2651708227
 20
453.1129741302
 30
0.0
 10
185.3111638202
 20
452.8228455557
 30
0.0
 10
185.3111638202
 20
452.6786633793
 30
0.0
  0
SPLINE
  5
463
100
AcDbEntity
  8
0
100
AcDbSpline
 62
7
  6
BYLAYER
 70
0
 71
3
 72
13
 73
9
 74
0
 42
0.0000001
 43
0.0000001
 44
0.0000000001
 40
0.0
 40
0.0
 40
0.0
 40
0.0
 40
0.2431353558
 40
0.3705688964
 40
0.500006671
 40
0.6294430846
 40
0.7568756268
 40
1.0
 40
1.0
 40
1.0
 40
1.0
 10
181.215951646
 20
454.0807355574
 30
0.0
 10
181.4487072044
 20
454.2151208838
 30
0.0
 10
181.838947836
 20
454.36169088
 30
0.0
 10
182.3837609194
 20
454.4578340014
 30
0.0
 10
182.8111578646
 20
454.4824986335
 30
0.0
 10
183.2385540982
 20
454.4578372633
 30
0.0
 10
183.7833521068
 20
454.3616937108
 30
0.0
 10
184.1735817879
 20
454.2151363153
 30
0.0
 10
184.4063298126
 20
454.0807622205
 30
0.0
  0
SPLINE
  5
464
100
AcDbEntity
  8
0
100
AcDbSpline
 62
7
  6
BYLAYER
 70
0
 71
3
 72
9
 73
5
 74
0
 42
0.0000001
 43
0.0000001
 44
0.0000000001
 40
0.0
 40
0.0
 40
0.0
 40
0.0
 40
0.4744336899
 40
1.0
 40
1.0
 40
1.0
 40
1.0
 10
181.7988190653
 20
453.9728749798
 30
0.0
 10
181.8239139526
 20
453.9873634332
 30
0.0
 10
181.8822539689
 20
454.00851131
 30
0.0
 10
181.9434953867
 20
454.0151502178
 30
0.0
 10
181.9755954558
 20
454.015150295
 30
0.0
  0
SPLINE
  5
465
100
AcDbEntity
  8
0
100
AcDbSpline
 62
7
  6
BYLAYER
 70
0
 71
3
 72
10
 73
6
 74
0
 42
0.0000001
 43
0.0000001
 44
0.0000000001
 40
0.0
 40
0.0
 40
0.0
 40
0.0
 40
0.2183779533
 40
0.452310998
 40
1.0
 40
1.0
 40
1.0
 40
1.0
 10
181.6747971015
 20
453.8414853208
 30
0.0
 10
181.6747970329
 20
453.8510044836
 30
0.0
 10
181.6783227262
 20
453.8708576694
 30
0.0
 10
181.6994205069
 20
453.9096327579
 30
0.0
 10
181.7273442064
 20
453.931609197
 30
0.0
 10
181.7480196702
 20
453.9435461104
 30
0.0
  0
SPLINE
  5
466
100
AcDbEntity
  8
0
100
AcDbSpline
 62
7
  6
BYLAYER
 70
0
 71
3
 72
10
 73
6
 74
0
 42
0.0000001
 43
0.0000001
 44
0.0000000001
 40
0.0
 40
0.0
 40
0.0
 40
0.0
 40
0.5476894825
 40
0.7816225454
 40
1.0
 40
1.0
 40
1.0
 40
1.0
 10
183.8316294065
 20
453.0033783101
 30
0.0
 10
183.8523050548
 20
452.991441489
 30
0.0
 10
183.8802290442
 20
452.9694652037
 30
0.0
 10
183.9013273855
 20
452.9306902378
 30
0.0
 10
183.9048533786
 20
452.9108370505
 30
0.0
 10
183.9048534472
 20
452.9013178725
 30
0.0
  0
SPLINE
  5
467
100
AcDbEntity
  8
0
100
AcDbSpline
 62
7
  6
BYLAYER
 70
0
 71
3
 72
11
 73
7
 74
0
 42
0.0000001
 43
0.0000001
 44
0.0000000001
 40
0.0
 40
0.0
 40
0.0
 40
0.0
 40
0.2177159471
 40
0.4509403815
 40
0.7102937689
 40
1.0
 40
1.0
 40
1.0
 40
1.0
 10
183.3881058017
 20
453.359083447
 30
0.0
 10
183.3881059161
 20
453.3432181505
 30
0.0
 10
183.3939814388
 20
453.3101409126
 30
0.0
 10
183.4190396338
 20
453.264042282
 30
0.0
 10
183.4586991279
 20
453.2223870372
 30
0.0
 10
183.4918628098
 20
453.1995382085
 30
0.0
 10
183.5101458695
 20
453.1889827178
 30
0.0
  0
SPLINE
  5
468
100
AcDbEntity
  8
0
100
AcDbSpline
 62
7
  6
BYLAYER
 70
0
 71
3
 72
11
 73
7
 74
0
 42
0.0000001
 43
0.0000001
 44
0.0000000001
 40
0.0
 40
0.0
 40
0.0
 40
0.0
 40
0.2897060281
 40
0.5490591642
 40
0.7822835676
 40
1.0
 40
1.0
 40
1.0
 40
1.0
 10
182.1121842245
 20
453.1889793577
 30
0.0
 10
182.1304671253
 20
453.1995349325
 30
0.0
 10
182.1636304776
 20
453.2223839176
 30
0.0
 10
182.2032893921
 20
453.2640393752
 30
0.0
 10
182.2283469299
 20
453.3101381667
 30
0.0
 10
182.2342219531
 20
453.3432154022
 30
0.0
 10
182.2342218387
 20
453.3590806734
 30
0.0
  0
SPLINE
  5
469
100
AcDbEntity
  8
0
100
AcDbSpline
 62
7
  6
BYLAYER
 70
0
 71
3
 72
10
 73
6
 74
0
 42
0.0000001
 43
0.0000001
 44
0.0000000001
 40
0.0
 40
0.0
 40
0.0
 40
0.0
 40
0.2183779533
 40
0.452310998
 40
1.0
 40
1.0
 40
1.0
 40
1.0
 10
181.6961424272
 20
452.8889929757
 30
0.0
 10
181.6961423585
 20
452.8985121385
 30
0.0
 10
181.6996680519
 20
452.9183653243
 30
0.0
 10
181.7207658325
 20
452.9571404128
 30
0.0
 10
181.748689532
 20
452.9791168519
 30
0.0
 10
181.7693649959
 20
452.9910537653
 30
0.0
  0
SPLINE
  5
46A
100
AcDbEntity
  8
0
100
AcDbSpline
 62
7
  6
BYLAYER
 70
0
 71
3
 72
21
 73
17
 74
0
 42
0.0000001
 43
0.0000001
 44
0.0000000001
 40
0.0
 40
0.0
 40
0.0
 40
0.0
 40
0.0666194727
 40
0.1385075533
 40
0.2915443341
 40
0.4445827792
 40
0.5164663573
 40
0.5830868673
 40
0.6434966658
 40
0.6975383278
 40
0.7461457154
 40
0.7915410784
 40
0.8369367866
 40
0.8855433178
 40
0.9395905074
 40
1.0
 40
1.0
 40
1.0
 40
1.0
 10
181.6326591547
 20
452.6786761359
 30
0.0
 10
181.713334838
 20
452.6320990621
 30
0.0
 10
181.8897638108
 20
452.5499323614
 30
0.0
 10
182.2807809251
 20
452.4311867795
 30
0.0
 10
182.8111814648
 20
452.3734904333
 30
0.0
 10
183.3415141103
 20
452.4311781813
 30
0.0
 10
183.7326185015
 20
452.5499676156
 30
0.0
 10
183.9857574913
 20
452.6678438441
 30
0.0
 10
184.1954795723
 20
452.8122534219
 30
0.0
 10
184.3540489294
 20
452.9789268886
 30
0.0
 10
184.4543823873
 20
453.1633864867
 30
0.0
 10
184.4891386294
 20
453.3590762402
 30
0.0
 10
184.4543902868
 20
453.5547626778
 30
0.0
 10
184.3540567146
 20
453.7392436606
 30
0.0
 10
184.195526597
 20
453.9058887669
 30
0.0
 10
184.0628239295
 20
453.9972526249
 30
0.0
 10
183.9896684856
 20
454.0394879846
 30
0.0
  0
SPLINE
  5
46B
100
AcDbEntity
  8
0
100
AcDbSpline
 62
7
  6
BYLAYER
 70
0
 71
3
 72
9
 73
5
 74
0
 42
0.0000001
 43
0.0000001
 44
0.0000000001
 40
0.0
 40
0.0
 40
0.0
 40
0.0
 40
0.2364858112
 40
1.0
 40
1.0
 40
1.0
 40
1.0
 10
181.0434042271
 20
451.6580529947
 30
0.0
 10
181.096715856
 20
451.6272742077
 30
0.0
 10
181.3272482554
 20
451.5060008655
 30
0.0
 10
181.5746758783
 20
451.4182830952
 30
0.0
 10
181.7667700209
 20
451.3672902912
 30
0.0
  0
SPLINE
  5
46C
100
AcDbEntity
  8
0
100
AcDbSpline
 62
7
  6
BYLAYER
 70
0
 71
3
 72
17
 73
13
 74
0
 42
0.0000001
 43
0.0000001
 44
0.0000000001
 40
0.0
 40
0.0
 40
0.0
 40
0.0
 40
0.1444576412
 40
0.2929744697
 40
0.4395172518
 40
0.5782998466
 40
0.7045946616
 40
0.7622041477
 40
0.8159249489
 40
0.9124206261
 40
0.9568525518
 40
1.0
 40
1.0
 40
1.0
 40
1.0
 10
181.8013708296
 20
451.3582886127
 30
0.0
 10
181.9957919823
 20
451.3087319774
 30
0.0
 10
182.3988023809
 20
451.2403630801
 30
0.0
 10
183.0109483524
 20
451.2253817941
 30
0.0
 10
183.6115789988
 20
451.2959775317
 30
0.0
 10
184.1650444386
 20
451.4480744199
 30
0.0
 10
184.5729642954
 20
451.6414392375
 30
0.0
 10
184.8435896891
 20
451.8318972713
 30
0.0
 10
185.0569825859
 20
452.0267772031
 30
0.0
 10
185.2169568642
 20
452.2525115903
 30
0.0
 10
185.2978260369
 20
452.4967033684
 30
0.0
 10
185.311153826
 20
452.6187357762
 30
0.0
 10
185.3111591498
 20
452.6786633795
 30
0.0
  0
SPLINE
  5
46D
100
AcDbEntity
  8
0
100
AcDbSpline
 62
7
  6
BYLAYER
 70
0
 71
3
 72
21
 73
17
 74
0
 42
0.0000001
 43
0.0000001
 44
0.0000000001
 40
0.0
 40
0.0
 40
0.0
 40
0.0
 40
0.0666194727
 40
0.1385075533
 40
0.2915443341
 40
0.4445827792
 40
0.5164663573
 40
0.5830868673
 40
0.6434966658
 40
0.6975383278
 40
0.7461457154
 40
0.7915410784
 40
0.8369367866
 40
0.8855433178
 40
0.9395905074
 40
1.0
 40
1.0
 40
1.0
 40
1.0
 10
183.9896684856
 20
454.0394879846
 30
0.0
 10
183.9089928023
 20
454.0860650584
 30
0.0
 10
183.7325638295
 20
454.1682317591
 30
0.0
 10
183.3415467152
 20
454.286977341
 30
0.0
 10
182.8111461756
 20
454.3446736872
 30
0.0
 10
182.28081353
 20
454.2869859392
 30
0.0
 10
181.8897091388
 20
454.1681965049
 30
0.0
 10
181.636570149
 20
454.0503202764
 30
0.0
 10
181.426848068
 20
453.9059106986
 30
0.0
 10
181.2682787109
 20
453.7392372319
 30
0.0
 10
181.167945253
 20
453.5547776338
 30
0.0
 10
181.1331890109
 20
453.3590878804
 30
0.0
 10
181.1679373535
 20
453.1634014427
 30
0.0
 10
181.2682709258
 20
452.9789204599
 30
0.0
 10
181.4268010433
 20
452.8122753536
 30
0.0
 10
181.5595037108
 20
452.7209114956
 30
0.0
 10
181.6326591547
 20
452.6786761359
 30
0.0
  0
SPLINE
  5
46E
100
AcDbEntity
  8
0
100
AcDbSpline
 62
7
  6
BYLAYER
 70
0
 71
3
 72
10
 73
6
 74
0
 42
0.0000001
 43
0.0000001
 44
0.0000000001
 40
0.0
 40
0.0
 40
0.0
 40
0.0
 40
0.5476894825
 40
0.7816225454
 40
1.0
 40
1.0
 40
1.0
 40
1.0
 10
183.8529611725
 20
453.9312315823
 30
0.0
 10
183.8736368208
 20
453.9192947613
 30
0.0
 10
183.9015608101
 20
453.8973184759
 30
0.0
 10
183.9226591515
 20
453.85854351
 30
0.0
 10
183.9261851446
 20
453.8386903227
 30
0.0
 10
183.9261852132
 20
453.8291711447
 30
0.0
  0
SPLINE
  5
46F
100
AcDbEntity
  8
0
100
AcDbSpline
 62
7
  6
BYLAYER
 70
0
 71
3
 72
9
 73
5
 74
0
 42
0.0000001
 43
0.0000001
 44
0.0000000001
 40
0.0
 40
0.0
 40
0.0
 40
0.0
 40
0.5255657768
 40
1.0
 40
1.0
 40
1.0
 40
1.0
 10
183.6253843542
 20
454.0028346729
 30
0.0
 10
183.6574844582
 20
454.00283475
 30
0.0
 10
183.7187260357
 20
453.9961961136
 30
0.0
 10
183.7770662816
 20
453.9750485267
 30
0.0
 10
183.8021613543
 20
453.9605602075
 30
0.0
  0
SPLINE
  5
470
100
AcDbEntity
  8
0
100
AcDbSpline
 62
7
  6
BYLAYER
 70
0
 71
3
 72
9
 73
5
 74
0
 42
0.0000001
 43
0.0000001
 44
0.0000000001
 40
0.0
 40
0.0
 40
0.0
 40
0.0
 40
0.4744336899
 40
1.0
 40
1.0
 40
1.0
 40
1.0
 10
183.4486079638
 20
453.9605593576
 30
0.0
 10
183.473702851
 20
453.9750478111
 30
0.0
 10
183.5320428674
 20
453.9961956879
 30
0.0
 10
183.5932842851
 20
454.0028345957
 30
0.0
 10
183.6253843542
 20
454.0028346729
 30
0.0
  0
SPLINE
  5
471
100
AcDbEntity
  8
0
100
AcDbSpline
 62
7
  6
BYLAYER
 70
0
 71
3
 72
11
 73
7
 74
0
 42
0.0000001
 43
0.0000001
 44
0.0000000001
 40
0.0
 40
0.0
 40
0.0
 40
0.0
 40
0.2177699877
 40
0.4509516571
 40
0.7101928879
 40
1.0
 40
1.0
 40
1.0
 40
1.0
 10
180.3111684905
 20
452.6786633792
 30
0.0
 10
180.3111600317
 20
452.5834458613
 30
0.0
 10
180.3463135378
 20
452.3849386727
 30
0.0
 10
180.4968325397
 20
452.1084817906
 30
0.0
 10
180.7346087499
 20
451.8584242305
 30
0.0
 10
180.9336652372
 20
451.7214093967
 30
0.0
 10
181.0434042271
 20
451.6580529947
 30
0.0
  0
SPLINE
  5
472
100
AcDbEntity
  8
0
100
AcDbSpline
 62
7
  6
BYLAYER
 70
0
 71
3
 72
9
 73
5
 74
0
 42
0.0000001
 43
0.0000001
 44
0.0000000001
 40
0.0
 40
0.0
 40
0.0
 40
0.0
 40
0.5255663101
 40
1.0
 40
1.0
 40
1.0
 40
1.0
 10
182.8111614182
 20
453.6921749066
 30
0.0
 10
182.8646615332
 20
453.6921750352
 30
0.0
 10
182.9667305627
 20
453.7032398816
 30
0.0
 10
183.0639639231
 20
453.7384863428
 30
0.0
 10
183.1057887352
 20
453.7626337652
 30
0.0
  0
SPLINE
  5
473
100
AcDbEntity
  8
0
100
AcDbSpline
 62
7
  6
BYLAYER
 70
0
 71
3
 72
9
 73
5
 74
0
 42
0.0000001
 43
0.0000001
 44
0.0000000001
 40
0.0
 40
0.0
 40
0.0
 40
0.0
 40
0.4744342232
 40
1.0
 40
1.0
 40
1.0
 40
1.0
 10
182.5165330846
 20
453.762632349
 30
0.0
 10
182.5583582059
 20
453.7384851502
 30
0.0
 10
182.6555919489
 20
453.7032391721
 30
0.0
 10
182.7576612447
 20
453.692174778
 30
0.0
 10
182.8111614182
 20
453.6921749066
 30
0.0
  0
SPLINE
  5
474
100
AcDbEntity
  8
0
100
AcDbSpline
 62
7
  6
BYLAYER
 70
0
 71
3
 72
9
 73
5
 74
0
 42
0.0000001
 43
0.0000001
 44
0.0000000001
 40
0.0
 40
0.0
 40
0.0
 40
0.0
 40
0.5255657768
 40
1.0
 40
1.0
 40
1.0
 40
1.0
 10
181.9755954558
 20
454.015150295
 30
0.0
 10
182.0076955598
 20
454.0151503722
 30
0.0
 10
182.0689371373
 20
454.0085117357
 30
0.0
 10
182.1272773831
 20
453.9873641489
 30
0.0
 10
182.1523724559
 20
453.9728758296
 30
0.0
  0
SPLINE
  5
475
100
AcDbEntity
  8
0
100
AcDbSpline
 62
7
  6
BYLAYER
 70
0
 71
3
 72
9
 73
5
 74
0
 42
0.0000001
 43
0.0000001
 44
0.0000000001
 40
0.0
 40
0.0
 40
0.0
 40
0.0
 40
0.5255657768
 40
1.0
 40
1.0
 40
1.0
 40
1.0
 10
178.0400809808
 20
48.2616595522
 30
0.0
 10
177.9373606479
 20
48.2616593053
 30
0.0
 10
177.7413875999
 20
48.2829029419
 30
0.0
 10
177.5546988133
 20
48.3505752199
 30
0.0
 10
177.4743945803
 20
48.3969378415
 30
0.0
  0
SPLINE
  5
476
100
AcDbEntity
  8
0
100
AcDbSpline
 62
7
  6
BYLAYER
 70
0
 71
3
 72
9
 73
5
 74
0
 42
0.0000001
 43
0.0000001
 44
0.0000000001
 40
0.0
 40
0.0
 40
0.0
 40
0.0
 40
0.4744336899
 40
1.0
 40
1.0
 40
1.0
 40
1.0
 10
178.6057654302
 20
48.396940561
 30
0.0
 10
178.5254617909
 20
48.35057751
 30
0.0
 10
178.3387737387
 20
48.2829043042
 30
0.0
 10
178.1428012019
 20
48.2616597991
 30
0.0
 10
178.0400809808
 20
48.2616595522
 30
0.0
  0
SPLINE
  5
477
100
AcDbEntity
  8
0
100
AcDbSpline
 62
7
  6
BYLAYER
 70
0
 71
3
 72
11
 73
7
 74
0
 42
0.0000001
 43
0.0000001
 44
0.0000000001
 40
0.0
 40
0.0
 40
0.0
 40
0.0
 40
0.2068559305
 40
0.4365751433
 40
0.7006923235
 40
1.0
 40
1.0
 40
1.0
 40
1.0
 10
182.1296420082
 20
48.9518046501
 30
0.0
 10
182.1288741052
 20
48.9733844818
 30
0.0
 10
182.1169093968
 20
49.0189289646
 30
0.0
 10
182.0724985266
 20
49.0786361392
 30
0.0
 10
182.0060054089
 20
49.1292806778
 30
0.0
 10
181.9523498961
 20
49.1543592916
 30
0.0
 10
181.9230621396
 20
49.1652424087
 30
0.0
  0
SPLINE
  5
478
100
AcDbEntity
  8
0
100
AcDbSpline
 62
7
  6
BYLAYER
 70
0
 71
3
 72
15
 73
11
 74
0
 42
0.0000001
 43
0.0000001
 44
0.0000000001
 40
0.0
 40
0.0
 40
0.0
 40
0.0
 40
0.1160876616
 40
0.23944565
 40
0.3682703344
 40
0.5000002978
 40
0.6317302146
 40
0.7605546944
 40
0.8839122652
 40
1.0
 40
1.0
 40
1.0
 40
1.0
 10
179.4825516818
 20
46.8970458264
 30
0.0
 10
179.9114353319
 20
46.649422656
 30
0.0
 10
180.8411080891
 20
46.2145936026
 30
0.0
 10
182.3475410808
 20
45.7542497438
 30
0.0
 10
183.9650557643
 20
45.4730117144
 30
0.0
 10
185.6394776061
 20
45.378445231
 30
0.0
 10
187.3138993614
 20
45.4729978202
 30
0.0
 10
188.9314135751
 20
45.754221384
 30
0.0
 10
190.4378490563
 20
46.214548586
 30
0.0
 10
191.36752589
 20
46.6493649995
 30
0.0
 10
191.7964135162
 20
46.8969819079
 30
0.0
  0
SPLINE
  5
479
100
AcDbEntity
  8
0
100
AcDbSpline
 62
7
  6
BYLAYER
 70
0
 71
3
 72
13
 73
9
 74
0
 42
0.0000001
 43
0.0000001
 44
0.0000000001
 40
0.0
 40
0.0
 40
0.0
 40
0.0
 40
0.2723561333
 40
0.5259639819
 40
0.647495376
 40
0.766467371
 40
0.8836992809
 40
1.0
 40
1.0
 40
1.0
 40
1.0
 10
191.7965242251
 20
46.8970458264
 30
0.0
 10
192.1991909326
 20
47.1295322052
 30
0.0
 10
192.9428093167
 20
47.6426897499
 30
0.0
 10
193.7117963031
 20
48.4516796977
 30
0.0
 10
194.1658642467
 20
49.1653789251
 30
0.0
 10
194.4194338848
 20
49.7234113934
 30
0.0
 10
194.5839161647
 20
50.3046800053
 30
0.0
 10
194.6303950767
 20
50.7027173654
 30
0.0
 10
194.6373111388
 20
50.9011439229
 30
0.0
  0
SPLINE
  5
47A
100
AcDbEntity
  8
0
100
AcDbSpline
 62
7
  6
BYLAYER
 70
0
 71
3
 72
9
 73
5
 74
0
 42
0.0000001
 43
0.0000001
 44
0.0000000001
 40
0.0
 40
0.0
 40
0.0
 40
0.0
 40
0.2396039715
 40
1.0
 40
1.0
 40
1.0
 40
1.0
 10
177.7594497831
 20
48.2729549333
 30
0.0
 10
177.8761973059
 20
48.1404951465
 30
0.0
 10
178.3901717273
 20
47.611250667
 30
0.0
 10
178.9972848363
 20
47.1772227806
 30
0.0
 10
179.4825516818
 20
46.8970458264
 30
0.0
  0
SPLINE
  5
47B
100
AcDbEntity
  8
0
100
AcDbSpline
 62
7
  6
BYLAYER
 70
0
 71
3
 72
11
 73
7
 74
0
 42
0.0000001
 43
0.0000001
 44
0.0000000001
 40
0.0
 40
0.0
 40
0.0
 40
0.0
 40
0.2857492054
 40
0.5435709782
 40
0.7783450801
 40
1.0
 40
1.0
 40
1.0
 40
1.0
 10
167.481786189
 20
54.0221370967
 30
0.0
 10
167.4519502747
 20
54.0418820838
 30
0.0
 10
167.3979240971
 20
54.0839723286
 30
0.0
 10
167.3341866251
 20
54.1587898806
 30
0.0
 10
167.2945079576
 20
54.2401225207
 30
0.0
 10
167.285273297
 20
54.2975903379
 30
0.0
 10
167.2852755974
 20
54.325343034
 30
0.0
  0
LINE
  5
47C
100
AcDbEntity
  8
0
100
AcDbLine
 62
7
  6
BYLAYER
 10
167.551013569
 20
53.9761174452
 11
167.481786189
 21
54.0221370967
  0
SPLINE
  5
47D
100
AcDbEntity
  8
0
100
AcDbSpline
 62
7
  6
BYLAYER
 70
0
 71
3
 72
9
 73
5
 74
0
 42
0.0000001
 43
0.0000001
 44
0.0000000001
 40
0.0
 40
0.0
 40
0.0
 40
0.0
 40
0.5255657768
 40
1.0
 40
1.0
 40
1.0
 40
1.0
 10
188.6448004918
 20
47.6482298735
 30
0.0
 10
188.5420801588
 20
47.6482296266
 30
0.0
 10
188.3461071108
 20
47.6694732632
 30
0.0
 10
188.1594183242
 20
47.7371455412
 30
0.0
 10
188.0791140913
 20
47.7835081628
 30
0.0
  0
SPLINE
  5
47E
100
AcDbEntity
  8
0
100
AcDbSpline
 62
7
  6
BYLAYER
 70
0
 71
3
 72
9
 73
5
 74
0
 42
0.0000001
 43
0.0000001
 44
0.0000000001
 40
0.0
 40
0.0
 40
0.0
 40
0.0
 40
0.4744336898
 40
1.0
 40
1.0
 40
1.0
 40
1.0
 10
189.2104849419
 20
47.7835108826
 30
0.0
 10
189.1301813025
 20
47.7371478315
 30
0.0
 10
188.9434932501
 20
47.6694746256
 30
0.0
 10
188.747520713
 20
47.6482301204
 30
0.0
 10
188.6448004918
 20
47.6482298735
 30
0.0
  0
SPLINE
  5
47F
100
AcDbEntity
  8
0
100
AcDbSpline
 62
7
  6
BYLAYER
 70
0
 71
3
 72
11
 73
7
 74
0
 42
0.0000001
 43
0.0000001
 44
0.0000000001
 40
0.0
 40
0.0
 40
0.0
 40
0.0
 40
0.2177164324
 40
0.4509408358
 40
0.7102939719
 40
1.0
 40
1.0
 40
1.0
 40
1.0
 10
199.1906977859
 20
53.7846989485
 30
0.0
 10
199.1906980605
 20
53.7466222974
 30
0.0
 10
199.1765980049
 20
53.6672369323
 30
0.0
 10
199.1164599138
 20
53.5565998325
 30
0.0
 10
199.0212785189
 20
53.456626734
 30
0.0
 10
198.9416864732
 20
53.4017891696
 30
0.0
 10
198.897807511
 20
53.3764557902
 30
0.0
  0
SPLINE
  5
480
100
AcDbEntity
  8
0
100
AcDbSpline
 62
7
  6
BYLAYER
 70
0
 71
3
 72
9
 73
5
 74
0
 42
0.0000001
 43
0.0000001
 44
0.0000000001
 40
0.0
 40
0.0
 40
0.0
 40
0.0
 40
0.2372066285
 40
1.0
 40
1.0
 40
1.0
 40
1.0
 10
166.3904733015
 20
57.547375064
 30
0.0
 10
166.3863418604
 20
57.552530441
 30
0.0
 10
166.3680189817
 20
57.5735354578
 30
0.0
 10
166.346472442
 20
57.591616257
 30
0.0
 10
166.3290652713
 20
57.6037956931
 30
0.0
  0
SPLINE
  5
481
100
AcDbEntity
  8
0
100
AcDbSpline
 62
7
  6
BYLAYER
 70
0
 71
3
 72
9
 73
5
 74
0
 42
0.0000001
 43
0.0000001
 44
0.0000000001
 40
0.0
 40
0.0
 40
0.0
 40
0.0
 40
0.2601874101
 40
1.0
 40
1.0
 40
1.0
 40
1.0
 10
181.253692846
 20
49.1479515019
 30
0.0
 10
181.2354861116
 20
49.1485128001
 30
0.0
 10
181.1656651799
 20
49.1534437029
 30
0.0
 10
181.096291036
 20
49.1692224141
 30
0.0
 10
181.0481618209
 20
49.1883568606
 30
0.0
  0
SPLINE
  5
482
100
AcDbEntity
  8
0
100
AcDbSpline
 62
7
  6
BYLAYER
 70
0
 71
3
 72
9
 73
5
 74
0
 42
0.0000001
 43
0.0000001
 44
0.0000000001
 40
0.0
 40
0.0
 40
0.0
 40
0.0
 40
0.2412953819
 40
1.0
 40
1.0
 40
1.0
 40
1.0
 10
181.4655080463
 20
49.1754904311
 30
0.0
 10
181.4490680846
 20
49.1703501562
 30
0.0
 10
181.379941628
 20
49.1523058828
 30
0.0
 10
181.3078271273
 20
49.146282588
 30
0.0
 10
181.253692846
 20
49.1479515019
 30
0.0
  0
SPLINE
  5
483
100
AcDbEntity
  8
0
100
AcDbSpline
 62
7
  6
BYLAYER
 70
0
 71
3
 72
9
 73
5
 74
0
 42
0.0000001
 43
0.0000001
 44
0.0000000001
 40
0.0
 40
0.0
 40
0.0
 40
0.0
 40
0.4965566634
 40
1.0
 40
1.0
 40
1.0
 40
1.0
 10
181.9230621396
 20
49.1652424087
 30
0.0
 10
181.8511746592
 20
49.191955273
 30
0.0
 10
181.695809493
 20
49.2176340596
 30
0.0
 10
181.5397505979
 20
49.1985923352
 30
0.0
 10
181.4655080463
 20
49.1754904311
 30
0.0
  0
SPLINE
  5
484
100
AcDbEntity
  8
0
100
AcDbSpline
 62
7
  6
BYLAYER
 70
0
 71
3
 72
9
 73
5
 74
0
 42
0.0000001
 43
0.0000001
 44
0.0000000001
 40
0.0
 40
0.0
 40
0.0
 40
0.0
 40
0.2671050725
 40
1.0
 40
1.0
 40
1.0
 40
1.0
 10
182.1595131721
 20
48.8214294266
 30
0.0
 10
182.1543955732
 20
48.8282856328
 30
0.0
 10
182.1368730967
 20
48.8550826343
 30
0.0
 10
182.1274886948
 20
48.8875850314
 30
0.0
 10
182.1274876972
 20
48.9110601262
 30
0.0
  0
SPLINE
  5
485
100
AcDbEntity
  8
0
100
AcDbSpline
 62
7
  6
BYLAYER
 70
0
 71
3
 72
9
 73
5
 74
0
 42
0.0000001
 43
0.0000001
 44
0.0000000001
 40
0.0
 40
0.0
 40
0.0
 40
0.0
 40
0.2759147208
 40
1.0
 40
1.0
 40
1.0
 40
1.0
 10
182.2738584085
 20
48.7346036231
 30
0.0
 10
182.2618199359
 20
48.7401956982
 30
0.0
 10
182.2192462047
 20
48.7623967527
 30
0.0
 10
182.1803499946
 20
48.7935136882
 30
0.0
 10
182.1595131721
 20
48.8214294266
 30
0.0
  0
SPLINE
  5
486
100
AcDbEntity
  8
0
100
AcDbSpline
 62
7
  6
BYLAYER
 70
0
 71
3
 72
9
 73
5
 74
0
 42
0.0000001
 43
0.0000001
 44
0.0000000001
 40
0.0
 40
0.0
 40
0.0
 40
0.0
 40
0.2469319429
 40
1.0
 40
1.0
 40
1.0
 40
1.0
 10
186.2246720611
 20
48.2418481394
 30
0.0
 10
186.1727614254
 20
48.2319460221
 30
0.0
 10
185.9618608754
 20
48.1954654613
 30
0.0
 10
185.7485338879
 20
48.1731859919
 30
0.0
 10
185.5876243816
 20
48.1640916949
 30
0.0
  0
SPLINE
  5
487
100
AcDbEntity
  8
0
100
AcDbSpline
 62
7
  6
BYLAYER
 70
0
 71
3
 72
9
 73
5
 74
0
 42
0.0000001
 43
0.0000001
 44
0.0000000001
 40
0.0
 40
0.0
 40
0.0
 40
0.0
 40
0.2439727904
 40
1.0
 40
1.0
 40
1.0
 40
1.0
 10
186.9283872124
 20
48.4327419005
 30
0.0
 10
186.8724209659
 20
48.4130614839
 30
0.0
 10
186.6414902167
 20
48.3367980741
 30
0.0
 10
186.4049877421
 20
48.2776704327
 30
0.0
 10
186.2246720611
 20
48.2418481394
 30
0.0
  0
SPLINE
  5
488
100
AcDbEntity
  8
0
100
AcDbSpline
 62
7
  6
BYLAYER
 70
0
 71
3
 72
9
 73
5
 74
0
 42
0.0000001
 43
0.0000001
 44
0.0000000001
 40
0.0
 40
0.0
 40
0.0
 40
0.0
 40
0.2413147141
 40
1.0
 40
1.0
 40
1.0
 40
1.0
 10
187.5450464815
 20
48.7061551142
 30
0.0
 10
187.4975067911
 20
48.6799254491
 30
0.0
 10
187.2979991235
 20
48.5757940587
 30
0.0
 10
187.0894243869
 20
48.4893702948
 30
0.0
 10
186.9283872124
 20
48.4327419005
 30
0.0
  0
SPLINE
  5
489
100
AcDbEntity
  8
0
100
AcDbSpline
 62
7
  6
BYLAYER
 70
0
 71
3
 72
10
 73
6
 74
0
 42
0.0000001
 43
0.0000001
 44
0.0000000001
 40
0.0
 40
0.0
 40
0.0
 40
0.0
 40
0.4483750671
 40
0.7109722496
 40
1.0
 40
1.0
 40
1.0
 40
1.0
 10
187.8688917572
 20
49.0245571401
 30
0.0
 10
187.849321621
 20
48.957854123
 30
0.0
 10
187.7830388909
 20
48.8622154638
 30
0.0
 10
187.6611070668
 20
48.7664756005
 30
0.0
 10
187.5856986178
 20
48.7250054073
 30
0.0
 10
187.5450464815
 20
48.7061551142
 30
0.0
  0
SPLINE
  5
48A
100
AcDbEntity
  8
0
100
AcDbSpline
 62
7
  6
BYLAYER
 70
0
 71
3
 72
9
 73
5
 74
0
 42
0.0000001
 43
0.0000001
 44
0.0000000001
 40
0.0
 40
0.0
 40
0.0
 40
0.0
 40
0.5118166122
 40
1.0
 40
1.0
 40
1.0
 40
1.0
 10
201.1323628703
 20
56.6821800478
 30
0.0
 10
201.0245105467
 20
56.6716321439
 30
0.0
 10
200.8111648915
 20
56.6731952775
 30
0.0
 10
200.6022078877
 20
56.7187798286
 30
0.0
 10
200.5049793076
 20
56.7538585722
 30
0.0
  0
SPLINE
  5
48B
100
AcDbEntity
  8
0
100
AcDbSpline
 62
7
  6
BYLAYER
 70
0
 71
3
 72
9
 73
5
 74
0
 42
0.0000001
 43
0.0000001
 44
0.0000000001
 40
0.0
 40
0.0
 40
0.0
 40
0.0
 40
0.4682831591
 40
1.0
 40
1.0
 40
1.0
 40
1.0
 10
201.6838565443
 20
56.8691521834
 30
0.0
 10
201.6094461986
 20
56.8156622175
 30
0.0
 10
201.4293335265
 20
56.7309640819
 30
0.0
 10
201.2359235016
 20
56.6923082264
 30
0.0
 10
201.1323628703
 20
56.6821800478
 30
0.0
  0
SPLINE
  5
48C
100
AcDbEntity
  8
0
100
AcDbSpline
 62
7
  6
BYLAYER
 70
0
 71
3
 72
9
 73
5
 74
0
 42
0.0000001
 43
0.0000001
 44
0.0000000001
 40
0.0
 40
0.0
 40
0.0
 40
0.0
 40
0.2389907174
 40
1.0
 40
1.0
 40
1.0
 40
1.0
 10
202.1574237569
 20
57.2251777652
 30
0.0
 10
202.123131185
 20
57.192671549
 30
0.0
 10
201.9754633775
 20
57.061081068
 30
0.0
 10
201.8126381678
 20
56.9469542383
 30
0.0
 10
201.6838565443
 20
56.8691521834
 30
0.0
  0
SPLINE
  5
48D
100
AcDbEntity
  8
0
100
AcDbSpline
 62
7
  6
BYLAYER
 70
0
 71
3
 72
9
 73
5
 74
0
 42
0.0000001
 43
0.0000001
 44
0.0000000001
 40
0.0
 40
0.0
 40
0.0
 40
0.0
 40
0.23914411
 40
1.0
 40
1.0
 40
1.0
 40
1.0
 10
202.4880603171
 20
57.6314636785
 30
0.0
 10
202.4666437254
 20
57.5955294314
 30
0.0
 10
202.3712271461
 20
57.4487745882
 30
0.0
 10
202.2540167437
 20
57.3167390667
 30
0.0
 10
202.1574237569
 20
57.2251777652
 30
0.0
  0
SPLINE
  5
48E
100
AcDbEntity
  8
0
100
AcDbSpline
 62
7
  6
BYLAYER
 70
0
 71
3
 72
9
 73
5
 74
0
 42
0.0000001
 43
0.0000001
 44
0.0000000001
 40
0.0
 40
0.0
 40
0.0
 40
0.0
 40
0.2433973571
 40
1.0
 40
1.0
 40
1.0
 40
1.0
 10
202.6227350503
 20
57.9992587171
 30
0.0
 10
202.6174072557
 20
57.9678345579
 30
0.0
 10
202.5894383541
 20
57.8397788155
 30
0.0
 10
202.5372697828
 20
57.7174551538
 30
0.0
 10
202.4880603171
 20
57.6314636785
 30
0.0
  0
LINE
  5
48F
100
AcDbEntity
  8
0
100
AcDbLine
 62
7
  6
BYLAYER
 10
167.48144744
 20
56.4718689609
 11
167.2852939353
 21
56.6019256482
  0
LINE
  5
490
100
AcDbEntity
  8
0
100
AcDbLine
 62
7
  6
BYLAYER
 10
167.2057193003
 20
56.6545463688
 11
167.0204339353
 21
56.7767592481
  0
SPLINE
  5
491
100
AcDbEntity
  8
0
100
AcDbSpline
 62
7
  6
BYLAYER
 70
0
 71
3
 72
9
 73
5
 74
0
 42
0.0000001
 43
0.0000001
 44
0.0000000001
 40
0.0
 40
0.0
 40
0.0
 40
0.0
 40
0.2802757735
 40
1.0
 40
1.0
 40
1.0
 40
1.0
 10
166.4867402267
 20
57.12636348
 30
0.0
 10
166.4755016104
 20
57.1336880301
 30
0.0
 10
166.4370670966
 20
57.1619231366
 30
0.0
 10
166.4052183
 20
57.2016230268
 30
0.0
 10
166.3939340848
 20
57.2341703237
 30
0.0
  0
SPLINE
  5
492
100
AcDbEntity
  8
0
100
AcDbSpline
 62
7
  6
BYLAYER
 70
0
 71
3
 72
8
 73
4
 74
0
 42
0.0000001
 43
0.0000001
 44
0.0000000001
 40
0.0
 40
0.0
 40
0.0
 40
0.0
 40
1.0
 40
1.0
 40
1.0
 40
1.0
 10
166.3939340848
 20
57.2341703237
 30
0.0
 10
166.3889124505
 20
57.2486543282
 30
0.0
 10
166.3861546641
 20
57.2641670152
 30
0.0
 10
166.3861535532
 20
57.2794968292
 30
0.0
  0
SPLINE
  5
493
100
AcDbEntity
  8
0
100
AcDbSpline
 62
7
  6
BYLAYER
 70
0
 71
3
 72
9
 73
5
 74
0
 42
0.0000001
 43
0.0000001
 44
0.0000000001
 40
0.0
 40
0.0
 40
0.0
 40
0.0
 40
0.468676756
 40
1.0
 40
1.0
 40
1.0
 40
1.0
 10
166.3290652713
 20
57.6037956931
 30
0.0
 10
166.274631024
 20
57.6418822067
 30
0.0
 10
166.1380583175
 20
57.6931382501
 30
0.0
 10
165.994775112
 20
57.7018030567
 30
0.0
 10
165.9197033042
 20
57.6957472159
 30
0.0
  0
SPLINE
  5
494
100
AcDbEntity
  8
0
100
AcDbSpline
 62
7
  6
BYLAYER
 70
0
 71
3
 72
9
 73
5
 74
0
 42
0.0000001
 43
0.0000001
 44
0.0000000001
 40
0.0
 40
0.0
 40
0.0
 40
0.0
 40
0.2532145011
 40
1.0
 40
1.0
 40
1.0
 40
1.0
 10
165.9197033042
 20
57.6957472159
 30
0.0
 10
165.9018970162
 20
57.6943108305
 30
0.0
 10
165.8313947456
 20
57.6914190176
 30
0.0
 10
165.7603343972
 20
57.6991762672
 30
0.0
 10
165.7091398249
 20
57.711620245
 30
0.0
  0
SPLINE
  5
495
100
AcDbEntity
  8
0
100
AcDbSpline
 62
7
  6
BYLAYER
 70
0
 71
3
 72
9
 73
5
 74
0
 42
0.0000001
 43
0.0000001
 44
0.0000000001
 40
0.0
 40
0.0
 40
0.0
 40
0.0
 40
0.2714876873
 40
1.0
 40
1.0
 40
1.0
 40
1.0
 10
165.7091398249
 20
57.711620245
 30
0.0
 10
165.6929623325
 20
57.7155525439
 30
0.0
 10
165.6341134261
 20
57.7325281028
 30
0.0
 10
165.5774845859
 20
57.7599234327
 30
0.0
 10
165.5423199152
 20
57.7874786307
 30
0.0
  0
SPLINE
  5
496
100
AcDbEntity
  8
0
100
AcDbSpline
 62
7
  6
BYLAYER
 70
0
 71
3
 72
9
 73
5
 74
0
 42
0.0000001
 43
0.0000001
 44
0.0000000001
 40
0.0
 40
0.0
 40
0.0
 40
0.0
 40
0.2551707188
 40
1.0
 40
1.0
 40
1.0
 40
1.0
 10
165.5423199152
 20
57.7874786307
 30
0.0
 10
165.48118556
 20
57.8353837932
 30
0.0
 10
165.2438822414
 20
58.0260015056
 30
0.0
 10
165.0159259807
 20
58.2283341131
 30
0.0
 10
164.8527497704
 20
58.3857198972
 30
0.0
  0
SPLINE
  5
497
100
AcDbEntity
  8
0
100
AcDbSpline
 62
7
  6
BYLAYER
 70
0
 71
3
 72
9
 73
5
 74
0
 42
0.0000001
 43
0.0000001
 44
0.0000000001
 40
0.0
 40
0.0
 40
0.0
 40
0.0
 40
0.2552371616
 40
1.0
 40
1.0
 40
1.0
 40
1.0
 10
164.8527497704
 20
58.3857198972
 30
0.0
 10
164.7998250684
 20
58.4367665277
 30
0.0
 10
164.5951748644
 20
58.6395382638
 30
0.0
 10
164.4016311828
 20
58.8536017285
 30
0.0
 10
164.2652464989
 20
59.0192341703
 30
0.0
  0
SPLINE
  5
498
100
AcDbEntity
  8
0
100
AcDbSpline
 62
7
  6
BYLAYER
 70
0
 71
3
 72
9
 73
5
 74
0
 42
0.0000001
 43
0.0000001
 44
0.0000000001
 40
0.0
 40
0.0
 40
0.0
 40
0.0
 40
0.5166174518
 40
1.0
 40
1.0
 40
1.0
 40
1.0
 10
164.2652464989
 20
59.0192341703
 30
0.0
 10
164.2064417773
 20
59.095077993
 30
0.0
 10
164.105760049
 20
59.2529399461
 30
0.0
 10
164.0429186911
 20
59.4299379347
 30
0.0
 10
164.0239447072
 20
59.5177067172
 30
0.0
  0
SPLINE
  5
499
100
AcDbEntity
  8
0
100
AcDbSpline
 62
7
  6
BYLAYER
 70
0
 71
3
 72
9
 73
5
 74
0
 42
0.0000001
 43
0.0000001
 44
0.0000000001
 40
0.0
 40
0.0
 40
0.0
 40
0.0
 40
0.2474990407
 40
1.0
 40
1.0
 40
1.0
 40
1.0
 10
194.6371079584
 20
50.9082895457
 30
0.0
 10
194.6341953005
 20
50.8359760747
 30
0.0
 10
194.6119208483
 20
50.54428186
 30
0.0
 10
194.5470580167
 20
50.2561254922
 30
0.0
 10
194.4774911328
 20
50.047370268
 30
0.0
  0
SPLINE
  5
49A
100
AcDbEntity
  8
0
100
AcDbSpline
 62
7
  6
BYLAYER
 70
0
 71
3
 72
11
 73
7
 74
0
 42
0.0000001
 43
0.0000001
 44
0.0000000001
 40
0.0
 40
0.0
 40
0.0
 40
0.0
 40
0.2207680759
 40
0.4589080927
 40
0.7182254242
 40
1.0
 40
1.0
 40
1.0
 40
1.0
 10
194.4774911328
 20
50.047370268
 30
0.0
 10
194.3906794028
 20
49.786866977
 30
0.0
 10
194.1419511336
 20
49.2666054678
 30
0.0
 10
193.5924025173
 20
48.555670943
 30
0.0
 10
192.8701921802
 20
47.9029764949
 30
0.0
 10
192.3070385647
 20
47.5300001648
 30
0.0
 10
192.0035254798
 20
47.3547678495
 30
0.0
  0
SPLINE
  5
49B
100
AcDbEntity
  8
0
100
AcDbSpline
 62
7
  6
BYLAYER
 70
0
 71
3
 72
9
 73
5
 74
0
 42
0.0000001
 43
0.0000001
 44
0.0000000001
 40
0.0
 40
0.0
 40
0.0
 40
0.0
 40
0.2742436935
 40
1.0
 40
1.0
 40
1.0
 40
1.0
 10
181.9230621396
 20
58.1467689971
 30
0.0
 10
181.938492376
 20
58.1410352336
 30
0.0
 10
181.9936908632
 20
58.1177086952
 30
0.0
 10
182.045428299
 20
58.0838014459
 30
0.0
 10
182.0752560613
 20
58.0520524148
 30
0.0
  0
SPLINE
  5
49C
100
AcDbEntity
  8
0
100
AcDbSpline
 62
7
  6
BYLAYER
 70
0
 71
3
 72
9
 73
5
 74
0
 42
0.0000001
 43
0.0000001
 44
0.0000000001
 40
0.0
 40
0.0
 40
0.0
 40
0.0
 40
0.2412038708
 40
1.0
 40
1.0
 40
1.0
 40
1.0
 10
181.4655080463
 20
58.1570170195
 30
0.0
 10
181.4834595534
 20
58.1626029535
 30
0.0
 10
181.5589350958
 20
58.1823014307
 30
0.0
 10
181.6375792426
 20
58.1892814756
 30
0.0
 10
181.6967083897
 20
58.1879571364
 30
0.0
  0
SPLINE
  5
49D
100
AcDbEntity
  8
0
100
AcDbSpline
 62
7
  6
BYLAYER
 70
0
 71
3
 72
9
 73
5
 74
0
 42
0.0000001
 43
0.0000001
 44
0.0000000001
 40
0.0
 40
0.0
 40
0.0
 40
0.0
 40
0.2590867806
 40
1.0
 40
1.0
 40
1.0
 40
1.0
 10
181.6967083897
 20
58.1879571364
 30
0.0
 10
181.7166220121
 20
58.187511123
 30
0.0
 10
181.7933503412
 20
58.1828357922
 30
0.0
 10
181.8696678706
 20
58.1666099187
 30
0.0
 10
181.9230621396
 20
58.1467689971
 30
0.0
  0
SPLINE
  5
49E
100
AcDbEntity
  8
0
100
AcDbSpline
 62
7
  6
BYLAYER
 70
0
 71
3
 72
9
 73
5
 74
0
 42
0.0000001
 43
0.0000001
 44
0.0000000001
 40
0.0
 40
0.0
 40
0.0
 40
0.0
 40
0.2441123428
 40
1.0
 40
1.0
 40
1.0
 40
1.0
 10
181.0481618209
 20
58.169883449
 30
0.0
 10
181.0530255663
 20
58.1679497986
 30
0.0
 10
181.073078815
 20
58.1603554404
 30
0.0
 10
181.0936066077
 20
58.1540285379
 30
0.0
 10
181.109280895
 20
58.1499073206
 30
0.0
  0
SPLINE
  5
49F
100
AcDbEntity
  8
0
100
AcDbSpline
 62
7
  6
BYLAYER
 70
0
 71
3
 72
8
 73
4
 74
0
 42
0.0000001
 43
0.0000001
 44
0.0000000001
 40
0.0
 40
0.0
 40
0.0
 40
0.0
 40
1.0
 40
1.0
 40
1.0
 40
1.0
 10
166.4560097628
 20
66.1306373291
 30
0.0
 10
166.4657497563
 20
66.1224181643
 30
0.0
 10
166.4760631377
 20
66.114848654
 30
0.0
 10
166.4867402267
 20
66.1078900684
 30
0.0
  0
SPLINE
  5
4A0
100
AcDbEntity
  8
0
100
AcDbSpline
 62
7
  6
BYLAYER
 70
0
 71
3
 72
9
 73
5
 74
0
 42
0.0000001
 43
0.0000001
 44
0.0000000001
 40
0.0
 40
0.0
 40
0.0
 40
0.0
 40
0.5303036897
 40
1.0
 40
1.0
 40
1.0
 40
1.0
 10
165.9197033044
 20
66.6772738043
 30
0.0
 10
165.9937892567
 20
66.6832501188
 30
0.0
 10
166.135455371
 20
66.6749234111
 30
0.0
 10
166.2706078577
 20
66.6251029288
 30
0.0
 10
166.3250503283
 20
66.5880912426
 30
0.0
  0
SPLINE
  5
4A1
100
AcDbEntity
  8
0
100
AcDbSpline
 62
7
  6
BYLAYER
 70
0
 71
3
 72
8
 73
4
 74
0
 42
0.0000001
 43
0.0000001
 44
0.0000000001
 40
0.0
 40
0.0
 40
0.0
 40
0.0
 40
1.0
 40
1.0
 40
1.0
 40
1.0
 10
165.5423199152
 20
66.7690052191
 30
0.0
 10
165.5511438637
 20
66.7620907324
 30
0.0
 10
165.5603703123
 20
66.755670083
 30
0.0
 10
165.5698632879
 20
66.7497072306
 30
0.0
  0
SPLINE
  5
4A2
100
AcDbEntity
  8
0
100
AcDbSpline
 62
7
  6
BYLAYER
 70
0
 71
3
 72
9
 73
5
 74
0
 42
0.0000001
 43
0.0000001
 44
0.0000000001
 40
0.0
 40
0.0
 40
0.0
 40
0.0
 40
0.2393997778
 40
1.0
 40
1.0
 40
1.0
 40
1.0
 10
165.5698632879
 20
66.7497072306
 30
0.0
 10
165.5755916602
 20
66.7461090502
 30
0.0
 10
165.5999484653
 20
66.731764591
 30
0.0
 10
165.6258324438
 20
66.7200826954
 30
0.0
 10
165.6459482856
 20
66.712515119
 30
0.0
  0
SPLINE
  5
4A3
100
AcDbEntity
  8
0
100
AcDbSpline
 62
7
  6
BYLAYER
 70
0
 71
3
 72
9
 73
5
 74
0
 42
0.0000001
 43
0.0000001
 44
0.0000000001
 40
0.0
 40
0.0
 40
0.0
 40
0.0
 40
0.2449312445
 40
1.0
 40
1.0
 40
1.0
 40
1.0
 10
164.8527497704
 20
67.3672464856
 30
0.0
 10
164.9064093441
 20
67.3154910608
 30
0.0
 10
165.1283665944
 20
67.1071798182
 30
0.0
 10
165.3614176824
 20
66.9107610425
 30
0.0
 10
165.5423199152
 20
66.7690052191
 30
0.0
  0
SPLINE
  5
4A4
100
AcDbEntity
  8
0
100
AcDbSpline
 62
7
  6
BYLAYER
 70
0
 71
3
 72
9
 73
5
 74
0
 42
0.0000001
 43
0.0000001
 44
0.0000000001
 40
0.0
 40
0.0
 40
0.0
 40
0.0
 40
0.2453022353
 40
1.0
 40
1.0
 40
1.0
 40
1.0
 10
164.2652464989
 20
68.0007607587
 30
0.0
 10
164.3067228101
 20
67.9503898336
 30
0.0
 10
164.478691115
 20
67.7474339554
 30
0.0
 10
164.6618503259
 20
67.55401723
 30
0.0
 10
164.8052009911
 20
67.4134823626
 30
0.0
  0
SPLINE
  5
4A5
100
AcDbEntity
  8
0
100
AcDbSpline
 62
7
  6
BYLAYER
 70
0
 71
3
 72
9
 73
5
 74
0
 42
0.0000001
 43
0.0000001
 44
0.0000000001
 40
0.0
 40
0.0
 40
0.0
 40
0.0
 40
0.2432238808
 40
1.0
 40
1.0
 40
1.0
 40
1.0
 10
164.0239447072
 20
68.4992333056
 30
0.0
 10
164.0304387636
 20
68.4691934666
 30
0.0
 10
164.0625019711
 20
68.3468645118
 30
0.0
 10
164.1157054218
 20
68.2304299211
 30
0.0
 10
164.1645378918
 20
68.1482121201
 30
0.0
  0
SPLINE
  5
4A6
100
AcDbEntity
  8
0
100
AcDbSpline
 62
7
  6
BYLAYER
 70
0
 71
3
 72
9
 73
5
 74
0
 42
0.0000001
 43
0.0000001
 44
0.0000000001
 40
0.0
 40
0.0
 40
0.0
 40
0.0
 40
0.2455919294
 40
1.0
 40
1.0
 40
1.0
 40
1.0
 10
164.1645378918
 20
68.1482121201
 30
0.0
 10
164.1720052841
 20
68.1356394901
 30
0.0
 10
164.2032437906
 20
68.0849437801
 30
0.0
 10
164.2377228925
 20
68.0362595327
 30
0.0
 10
164.2652464989
 20
68.0007607587
 30
0.0
  0
SPLINE
  5
4A7
100
AcDbEntity
  8
0
100
AcDbSpline
 62
7
  6
BYLAYER
 70
0
 71
3
 72
9
 73
5
 74
0
 42
0.0000001
 43
0.0000001
 44
0.0000000001
 40
0.0
 40
0.0
 40
0.0
 40
0.0
 40
0.261772037
 40
1.0
 40
1.0
 40
1.0
 40
1.0
 10
201.1323628703
 20
65.6637066363
 30
0.0
 10
201.168454887
 20
65.6672364176
 30
0.0
 10
201.3057169558
 20
65.6857009335
 30
0.0
 10
201.4409548697
 20
65.7238297873
 30
0.0
 10
201.5342601403
 20
65.7657003674
 30
0.0
  0
SPLINE
  5
4A8
100
AcDbEntity
  8
0
100
AcDbSpline
 62
7
  6
BYLAYER
 70
0
 71
3
 72
9
 73
5
 74
0
 42
0.0000001
 43
0.0000001
 44
0.0000000001
 40
0.0
 40
0.0
 40
0.0
 40
0.0
 40
0.2610522135
 40
1.0
 40
1.0
 40
1.0
 40
1.0
 10
201.5342601403
 20
65.7657003674
 30
0.0
 10
201.5479315321
 20
65.771835381
 30
0.0
 10
201.5997602757
 20
65.7965001585
 30
0.0
 10
201.6494150629
 20
65.8259204718
 30
0.0
 10
201.6838565443
 20
65.8506787718
 30
0.0
  0
SPLINE
  5
4A9
100
AcDbEntity
  8
0
100
AcDbSpline
 62
7
  6
BYLAYER
 70
0
 71
3
 72
15
 73
11
 74
0
 42
0.0000001
 43
0.0000001
 44
0.0000000001
 40
0.0
 40
0.0
 40
0.0
 40
0.0
 40
0.114157724
 40
0.2373244526
 40
0.3669752053
 40
0.4999994786
 40
0.6330238245
 40
0.762674789
 40
0.8858418513
 40
1.0
 40
1.0
 40
1.0
 40
1.0
 10
192.0035254798
 20
47.3547678495
 30
0.0
 10
191.5678505081
 20
47.1032322888
 30
0.0
 10
190.6152044907
 20
46.6596110002
 30
0.0
 10
189.0638532978
 20
46.1881230345
 30
0.0
 10
187.3842984944
 20
45.8978643954
 30
0.0
 10
185.6395751818
 20
45.7999372131
 30
0.0
 10
183.8948504747
 20
45.8978561147
 30
0.0
 10
182.2152915502
 20
46.1881067788
 30
0.0
 10
180.6639336792
 20
46.6595873701
 30
0.0
 10
179.7112818251
 20
47.1032039005
 30
0.0
 10
179.2756034186
 20
47.3547372553
 30
0.0
  0
SPLINE
  5
4AA
100
AcDbEntity
  8
0
100
AcDbSpline
 62
7
  6
BYLAYER
 70
0
 71
3
 72
9
 73
5
 74
0
 42
0.0000001
 43
0.0000001
 44
0.0000000001
 40
0.0
 40
0.0
 40
0.0
 40
0.0
 40
0.261203105
 40
1.0
 40
1.0
 40
1.0
 40
1.0
 10
179.2756034186
 20
47.3547372553
 30
0.0
 10
179.1613313335
 20
47.4207107819
 30
0.0
 10
178.7299073462
 20
47.6834388325
 30
0.0
 10
178.3232338505
 20
47.9883165343
 30
0.0
 10
178.0468172527
 20
48.2390751851
 30
0.0
  0
SPLINE
  5
4AB
100
AcDbEntity
  8
0
100
AcDbSpline
 62
7
  6
BYLAYER
 70
0
 71
3
 72
9
 73
5
 74
0
 42
0.0000001
 43
0.0000001
 44
0.0000000001
 40
0.0
 40
0.0
 40
0.0
 40
0.0
 40
0.2755756012
 40
1.0
 40
1.0
 40
1.0
 40
1.0
 10
187.5450464815
 20
57.6876817026
 30
0.0
 10
187.5725541792
 20
57.7004369527
 30
0.0
 10
187.6699551346
 20
57.7511555703
 30
0.0
 10
187.7590537832
 20
57.8220702675
 30
0.0
 10
187.8069652768
 20
57.8857705261
 30
0.0
  0
SPLINE
  5
4AC
100
AcDbEntity
  8
0
100
AcDbSpline
 62
7
  6
BYLAYER
 70
0
 71
3
 72
9
 73
5
 74
0
 42
0.0000001
 43
0.0000001
 44
0.0000000001
 40
0.0
 40
0.0
 40
0.0
 40
0.0
 40
0.2613555246
 40
1.0
 40
1.0
 40
1.0
 40
1.0
 10
187.8069652768
 20
57.8857705261
 30
0.0
 10
187.8138088241
 20
57.8948692976
 30
0.0
 10
187.8386679878
 20
57.9306372596
 30
0.0
 10
187.8578861194
 20
57.9705019222
 30
0.0
 10
187.8674268084
 20
58.0012317337
 30
0.0
  0
SPLINE
  5
4AD
100
AcDbEntity
  8
0
100
AcDbSpline
 62
7
  6
BYLAYER
 70
0
 71
3
 72
9
 73
5
 74
0
 42
0.0000001
 43
0.0000001
 44
0.0000000001
 40
0.0
 40
0.0
 40
0.0
 40
0.0
 40
0.2617578761
 40
1.0
 40
1.0
 40
1.0
 40
1.0
 10
166.4077159295
 20
458.6683884666
 30
0.0
 10
166.4042284916
 20
458.6625071166
 30
0.0
 10
166.3921883506
 20
458.6393214571
 30
0.0
 10
166.3861521556
 20
458.6128745818
 30
0.0
 10
166.3861535532
 20
458.5935903879
 30
0.0
  0
SPLINE
  5
4AE
100
AcDbEntity
  8
0
100
AcDbSpline
 62
7
  6
BYLAYER
 70
0
 71
3
 72
9
 73
5
 74
0
 42
0.0000001
 43
0.0000001
 44
0.0000000001
 40
0.0
 40
0.0
 40
0.0
 40
0.0
 40
0.2528153945
 40
1.0
 40
1.0
 40
1.0
 40
1.0
 10
164.0456287355
 20
461.3492231682
 30
0.0
 10
164.0393572811
 20
461.32603366
 30
0.0
 10
164.0174633858
 20
461.2335490225
 30
0.0
 10
164.0077171586
 20
461.1381620401
 30
0.0
 10
164.007717872
 20
461.0671643729
 30
0.0
  0
SPLINE
  5
4AF
100
AcDbEntity
  8
0
100
AcDbSpline
 62
7
  6
BYLAYER
 70
0
 71
3
 72
9
 73
5
 74
0
 42
0.0000001
 43
0.0000001
 44
0.0000000001
 40
0.0
 40
0.0
 40
0.0
 40
0.0
 40
0.2533558182
 40
1.0
 40
1.0
 40
1.0
 40
1.0
 10
164.0734752652
 20
461.4279513701
 30
0.0
 10
164.0706412915
 20
461.4214894457
 30
0.0
 10
164.0599125386
 20
461.3957868678
 30
0.0
 10
164.0510574022
 20
461.3692963608
 30
0.0
 10
164.0456287355
 20
461.3492231682
 30
0.0
  0
SPLINE
  5
4B0
100
AcDbEntity
  8
0
100
AcDbSpline
 62
7
  6
BYLAYER
 70
0
 71
3
 72
9
 73
5
 74
0
 42
0.0000001
 43
0.0000001
 44
0.0000000001
 40
0.0
 40
0.0
 40
0.0
 40
0.0
 40
0.254298895
 40
1.0
 40
1.0
 40
1.0
 40
1.0
 10
164.1138785713
 20
461.5048439708
 30
0.0
 10
164.1100205139
 20
461.4985689549
 30
0.0
 10
164.0952541124
 20
461.473647483
 30
0.0
 10
164.0821507944
 20
461.4477329973
 30
0.0
 10
164.0734752652
 20
461.4279513701
 30
0.0
  0
SPLINE
  5
4B1
100
AcDbEntity
  8
0
100
AcDbSpline
 62
7
  6
BYLAYER
 70
0
 71
3
 72
9
 73
5
 74
0
 42
0.0000001
 43
0.0000001
 44
0.0000000001
 40
0.0
 40
0.0
 40
0.0
 40
0.0
 40
0.263116697
 40
1.0
 40
1.0
 40
1.0
 40
1.0
 10
164.5002549088
 20
461.9561220047
 30
0.0
 10
164.4611957643
 20
461.9214822881
 30
0.0
 10
164.3169675229
 20
461.785268923
 30
0.0
 10
164.1904563203
 20
461.6293954067
 30
0.0
 10
164.1138785713
 20
461.5048439708
 30
0.0
  0
SPLINE
  5
4B2
100
AcDbEntity
  8
0
100
AcDbSpline
 62
7
  6
BYLAYER
 70
0
 71
3
 72
9
 73
5
 74
0
 42
0.0000001
 43
0.0000001
 44
0.0000000001
 40
0.0
 40
0.0
 40
0.0
 40
0.0
 40
0.2588666781
 40
1.0
 40
1.0
 40
1.0
 40
1.0
 10
164.8852941452
 20
462.2415046425
 30
0.0
 10
164.8501884561
 20
462.2195942484
 30
0.0
 10
164.7161972149
 20
462.1324118861
 30
0.0
 10
164.5888949163
 20
462.0347326547
 30
0.0
 10
164.5002549088
 20
461.9561220047
 30
0.0
  0
SPLINE
  5
4B3
100
AcDbEntity
  8
0
100
AcDbSpline
 62
7
  6
BYLAYER
 70
0
 71
3
 72
11
 73
7
 74
0
 42
0.0000001
 43
0.0000001
 44
0.0000000001
 40
0.0
 40
0.0
 40
0.0
 40
0.0
 40
0.2186698235
 40
0.4522998897
 40
0.7112411981
 40
1.0
 40
1.0
 40
1.0
 40
1.0
 10
198.2109456352
 20
466.120352237
 30
0.0
 10
198.2109454205
 20
466.1501200915
 30
0.0
 10
198.2002018012
 20
466.2120845906
 30
0.0
 10
198.1542661312
 20
466.2987709238
 30
0.0
 10
198.0813575268
 20
466.3774946345
 30
0.0
 10
198.0202019775
 20
466.4209841592
 30
0.0
 10
197.9864676621
 20
466.4411635317
 30
0.0
  0
SPLINE
  5
4B4
100
AcDbEntity
  8
0
100
AcDbSpline
 62
7
  6
BYLAYER
 70
0
 71
3
 72
11
 73
7
 74
0
 42
0.0000001
 43
0.0000001
 44
0.0000000001
 40
0.0
 40
0.0
 40
0.0
 40
0.0
 40
0.2898001512
 40
0.5490497799
 40
0.7822288614
 40
1.0
 40
1.0
 40
1.0
 40
1.0
 10
196.0693607679
 20
462.0390129068
 30
0.0
 10
195.9267041333
 20
462.1213738899
 30
0.0
 10
195.6679345583
 20
462.2994972244
 30
0.0
 10
195.358821524
 20
462.6245634474
 30
0.0
 10
195.1631426146
 20
462.9839603866
 30
0.0
 10
195.1174491315
 20
463.2420157098
 30
0.0
 10
195.1174482389
 20
463.3657985948
 30
0.0
  0
SPLINE
  5
4B5
100
AcDbEntity
  8
0
100
AcDbSpline
 62
7
  6
BYLAYER
 70
0
 71
3
 72
11
 73
7
 74
0
 42
0.0000001
 43
0.0000001
 44
0.0000000001
 40
0.0
 40
0.0
 40
0.0
 40
0.0
 40
0.2177159471
 40
0.4509403815
 40
0.7102937689
 40
1.0
 40
1.0
 40
1.0
 40
1.0
 10
199.2735404983
 20
459.9978072092
 30
0.0
 10
199.2735402787
 20
460.0282685786
 30
0.0
 10
199.262259275
 20
460.0917768754
 30
0.0
 10
199.2141475408
 20
460.1802862461
 30
0.0
 10
199.1380013121
 20
460.260264316
 30
0.0
 10
199.0743270428
 20
460.3041340673
 30
0.0
 10
199.0392235681
 20
460.3244006093
 30
0.0
  0
SPLINE
  5
4B6
100
AcDbEntity
  8
0
100
AcDbSpline
 62
7
  6
BYLAYER
 70
0
 71
3
 72
11
 73
7
 74
0
 42
0.0000001
 43
0.0000001
 44
0.0000000001
 40
0.0
 40
0.0
 40
0.0
 40
0.0
 40
0.2884644208
 40
0.5479840518
 40
0.7821696105
 40
1.0
 40
1.0
 40
1.0
 40
1.0
 10
167.5191030496
 20
460.864768091
 30
0.0
 10
167.4855125575
 20
460.8453747271
 30
0.0
 10
167.4243807516
 20
460.8034479081
 30
0.0
 10
167.350333951
 20
460.7275967852
 30
0.0
 10
167.3015656593
 20
460.6439820372
 30
0.0
 10
167.2875336203
 20
460.5836110533
 30
0.0
 10
167.2857628264
 20
460.5543751764
 30
0.0
  0
SPLINE
  5
4B7
100
AcDbEntity
  8
0
100
AcDbSpline
 62
7
  6
BYLAYER
 70
0
 71
3
 72
11
 73
7
 74
0
 42
0.0000001
 43
0.0000001
 44
0.0000000001
 40
0.0
 40
0.0
 40
0.0
 40
0.0
 40
0.2176656375
 40
0.4508002441
 40
0.7100903698
 40
1.0
 40
1.0
 40
1.0
 40
1.0
 10
170.5073320564
 20
463.3657394394
 30
0.0
 10
170.5073329496
 20
463.2418870833
 30
0.0
 10
170.4614886823
 20
462.983641013
 30
0.0
 10
170.2652163945
 20
462.624129951
 30
0.0
 10
169.9552537367
 20
462.2991312483
 30
0.0
 10
169.6958523381
 20
462.1211913918
 30
0.0
 10
169.5528564741
 20
462.0389491692
 30
0.0
  0
SPLINE
  5
4B8
100
AcDbEntity
  8
0
100
AcDbSpline
 62
7
  6
BYLAYER
 70
0
 71
3
 72
11
 73
7
 74
0
 42
0.0000001
 43
0.0000001
 44
0.0000000001
 40
0.0
 40
0.0
 40
0.0
 40
0.0
 40
0.2897060281
 40
0.5490591642
 40
0.7822835676
 40
1.0
 40
1.0
 40
1.0
 40
1.0
 10
167.7850583148
 20
466.3663149342
 30
0.0
 10
167.7499551451
 20
466.3460482307
 30
0.0
 10
167.6862815085
 20
466.3021781792
 30
0.0
 10
167.6101363925
 20
466.2221997005
 30
0.0
 10
167.5620259197
 20
466.1336900206
 30
0.0
 10
167.5507458752
 20
466.0701817285
 30
0.0
 10
167.5507460948
 20
466.0397204076
 30
0.0
  0
SPLINE
  5
4B9
100
AcDbEntity
  8
0
100
AcDbSpline
 62
7
  6
BYLAYER
 70
0
 71
3
 72
9
 73
5
 74
0
 42
0.0000001
 43
0.0000001
 44
0.0000000001
 40
0.0
 40
0.0
 40
0.0
 40
0.0
 40
0.5255663101
 40
1.0
 40
1.0
 40
1.0
 40
1.0
 10
170.2245672429
 20
467.6791001079
 30
0.0
 10
170.1732071324
 20
467.6790999845
 30
0.0
 10
170.0752208642
 20
467.668477732
 30
0.0
 10
169.9818768382
 20
467.6346411292
 30
0.0
 10
169.9417250187
 20
467.6114596038
 30
0.0
  0
SPLINE
  5
4BA
100
AcDbEntity
  8
0
100
AcDbSpline
 62
7
  6
BYLAYER
 70
0
 71
3
 72
9
 73
5
 74
0
 42
0.0000001
 43
0.0000001
 44
0.0000000001
 40
0.0
 40
0.0
 40
0.0
 40
0.0
 40
0.4744342232
 40
1.0
 40
1.0
 40
1.0
 40
1.0
 10
170.5074104431
 20
467.6114609633
 30
0.0
 10
170.4672583266
 20
467.6346422741
 30
0.0
 10
170.3739139333
 20
467.6684784131
 30
0.0
 10
170.2759274093
 20
467.6791002314
 30
0.0
 10
170.2245672429
 20
467.6791001079
 30
0.0
  0
SPLINE
  5
4BB
100
AcDbEntity
  8
0
100
AcDbSpline
 62
7
  6
BYLAYER
 70
0
 71
3
 72
10
 73
6
 74
0
 42
0.0000001
 43
0.0000001
 44
0.0000000001
 40
0.0
 40
0.0
 40
0.0
 40
0.0
 40
0.2183774546
 40
0.4523105175
 40
1.0
 40
1.0
 40
1.0
 40
1.0
 10
171.4023896059
 20
466.9990994332
 30
0.0
 10
171.402389496
 20
467.014330118
 30
0.0
 10
171.3967479071
 20
467.0460952176
 30
0.0
 10
171.362990561
 20
467.1081351631
 30
0.0
 10
171.318312178
 20
467.1432972196
 30
0.0
 10
171.2852311408
 20
467.1623961333
 30
0.0
  0
SPLINE
  5
4BC
100
AcDbEntity
  8
0
100
AcDbSpline
 62
7
  6
BYLAYER
 70
0
 71
3
 72
10
 73
6
 74
0
 42
0.0000001
 43
0.0000001
 44
0.0000000001
 40
0.0
 40
0.0
 40
0.0
 40
0.0
 40
0.5476894825
 40
0.7816225454
 40
1.0
 40
1.0
 40
1.0
 40
1.0
 10
170.4367112464
 20
466.0193152219
 30
0.0
 10
170.4036302092
 20
466.0384141356
 30
0.0
 10
170.3589518262
 20
466.0735761922
 30
0.0
 10
170.3251944801
 20
466.1356161376
 30
0.0
 10
170.3195528912
 20
466.1673812373
 30
0.0
 10
170.3195527813
 20
466.182611922
 30
0.0
  0
SPLINE
  5
4BD
100
AcDbEntity
  8
0
100
AcDbSpline
 62
7
  6
BYLAYER
 70
0
 71
3
 72
9
 73
5
 74
0
 42
0.0000001
 43
0.0000001
 44
0.0000000001
 40
0.0
 40
0.0
 40
0.0
 40
0.0
 40
0.5255657768
 40
1.0
 40
1.0
 40
1.0
 40
1.0
 10
171.7095080619
 20
465.380139021
 30
0.0
 10
171.6581478954
 20
465.3801388975
 30
0.0
 10
171.5601613714
 20
465.3907607158
 30
0.0
 10
171.4668169781
 20
465.4245968548
 30
0.0
 10
171.4266648617
 20
465.4477781656
 30
0.0
  0
SPLINE
  5
4BE
100
AcDbEntity
  8
0
100
AcDbSpline
 62
7
  6
BYLAYER
 70
0
 71
3
 72
9
 73
5
 74
0
 42
0.0000001
 43
0.0000001
 44
0.0000000001
 40
0.0
 40
0.0
 40
0.0
 40
0.0
 40
0.4744336899
 40
1.0
 40
1.0
 40
1.0
 40
1.0
 10
171.9923502866
 20
465.4477795254
 30
0.0
 10
171.9521984669
 20
465.4245979998
 30
0.0
 10
171.8588544408
 20
465.390761397
 30
0.0
 10
171.7608681724
 20
465.3801391444
 30
0.0
 10
171.7095080619
 20
465.380139021
 30
0.0
  0
SPLINE
  5
4BF
100
AcDbEntity
  8
0
100
AcDbSpline
 62
7
  6
BYLAYER
 70
0
 71
3
 72
10
 73
6
 74
0
 42
0.0000001
 43
0.0000001
 44
0.0000000001
 40
0.0
 40
0.0
 40
0.0
 40
0.0
 40
0.2183779533
 40
0.452310998
 40
1.0
 40
1.0
 40
1.0
 40
1.0
 10
179.3219655361
 20
469.7751671581
 30
0.0
 10
179.3219656459
 20
469.7599364977
 30
0.0
 10
179.3163245366
 20
469.7281714004
 30
0.0
 10
179.2825680875
 20
469.6661312588
 30
0.0
 10
179.2378901683
 20
469.6309689562
 30
0.0
 10
179.2048094262
 20
469.6118698949
 30
0.0
  0
SPLINE
  5
4C0
100
AcDbEntity
  8
0
100
AcDbSpline
 62
7
  6
BYLAYER
 70
0
 71
3
 72
10
 73
6
 74
0
 42
0.0000001
 43
0.0000001
 44
0.0000000001
 40
0.0
 40
0.0
 40
0.0
 40
0.0
 40
0.547689002
 40
0.7816220467
 40
1.0
 40
1.0
 40
1.0
 40
1.0
 10
175.4571349484
 20
470.7957640037
 30
0.0
 10
175.4240542063
 20
470.7766649424
 30
0.0
 10
175.3793762871
 20
470.7415026398
 30
0.0
 10
175.345619838
 20
470.6794624982
 30
0.0
 10
175.3399787287
 20
470.6476974009
 30
0.0
 10
175.3399788385
 20
470.6324667404
 30
0.0
  0
SPLINE
  5
4C1
100
AcDbEntity
  8
0
100
AcDbSpline
 62
7
  6
BYLAYER
 70
0
 71
3
 72
9
 73
5
 74
0
 42
0.0000001
 43
0.0000001
 44
0.0000000001
 40
0.0
 40
0.0
 40
0.0
 40
0.0
 40
0.5255663101
 40
1.0
 40
1.0
 40
1.0
 40
1.0
 10
178.1794861013
 20
472.1761896818
 30
0.0
 10
178.0767658803
 20
472.1761894349
 30
0.0
 10
177.8807933434
 20
472.1549449298
 30
0.0
 10
177.6941052912
 20
472.0872717241
 30
0.0
 10
177.6138016519
 20
472.040908673
 30
0.0
  0
SPLINE
  5
4C2
100
AcDbEntity
  8
0
100
AcDbSpline
 62
7
  6
BYLAYER
 70
0
 71
3
 72
9
 73
5
 74
0
 42
0.0000001
 43
0.0000001
 44
0.0000000001
 40
0.0
 40
0.0
 40
0.0
 40
0.0
 40
0.4744342232
 40
1.0
 40
1.0
 40
1.0
 40
1.0
 10
178.7451725018
 20
472.0409113925
 30
0.0
 10
178.6648682689
 20
472.0872740142
 30
0.0
 10
178.4781794823
 20
472.1549462921
 30
0.0
 10
178.2822064343
 20
472.1761899287
 30
0.0
 10
178.1794861013
 20
472.1761896818
 30
0.0
  0
SPLINE
  5
4C3
100
AcDbEntity
  8
0
100
AcDbSpline
 62
7
  6
BYLAYER
 70
0
 71
3
 72
10
 73
6
 74
0
 42
0.0000001
 43
0.0000001
 44
0.0000000001
 40
0.0
 40
0.0
 40
0.0
 40
0.0
 40
0.5250434785
 40
0.7715874083
 40
1.0
 40
1.0
 40
1.0
 40
1.0
 10
182.8110478275
 20
470.4692506495
 30
0.0
 10
182.3935699431
 20
470.4692496461
 30
0.0
 10
181.7760707323
 20
470.5363967412
 30
0.0
 10
181.0139634039
 20
470.7685783252
 30
0.0
 10
180.6700821279
 20
470.9292408851
 30
0.0
 10
180.5129468147
 20
471.0203095062
 30
0.0
  0
SPLINE
  5
4C4
100
AcDbEntity
  8
0
100
AcDbSpline
 62
7
  6
BYLAYER
 70
0
 71
3
 72
10
 73
6
 74
0
 42
0.0000001
 43
0.0000001
 44
0.0000000001
 40
0.0
 40
0.0
 40
0.0
 40
0.0
 40
0.2284122186
 40
0.4749559952
 40
1.0
 40
1.0
 40
1.0
 40
1.0
 10
185.1091408919
 20
471.0203205539
 30
0.0
 10
184.9520068226
 20
470.929251137
 30
0.0
 10
184.6081276609
 20
470.7685868591
 30
0.0
 10
183.8460231965
 20
470.5364015249
 30
0.0
 10
183.2285252556
 20
470.469251653
 30
0.0
 10
182.8110478275
 20
470.4692506495
 30
0.0
  0
SPLINE
  5
4C5
100
AcDbEntity
  8
0
100
AcDbSpline
 62
7
  6
BYLAYER
 70
0
 71
3
 72
9
 73
5
 74
0
 42
0.0000001
 43
0.0000001
 44
0.0000000001
 40
0.0
 40
0.0
 40
0.0
 40
0.0
 40
0.5254238561
 40
1.0
 40
1.0
 40
1.0
 40
1.0
 10
187.6805172077
 20
472.3292214553
 30
0.0
 10
187.5827404544
 20
472.3272469543
 30
0.0
 10
187.3965822878
 20
472.3041358437
 30
0.0
 10
187.2193925028
 20
472.2386676169
 30
0.0
 10
187.1428942454
 20
472.1945015911
 30
0.0
  0
SPLINE
  5
4C6
100
AcDbEntity
  8
0
100
AcDbSpline
 62
7
  6
BYLAYER
 70
0
 71
3
 72
9
 73
5
 74
0
 42
0.0000001
 43
0.0000001
 44
0.0000000001
 40
0.0
 40
0.0
 40
0.0
 40
0.0
 40
0.4786545066
 40
1.0
 40
1.0
 40
1.0
 40
1.0
 10
188.2329453747
 20
472.21621701
 30
0.0
 10
188.1520237469
 20
472.2569584723
 30
0.0
 10
187.9692854028
 20
472.3152568706
 30
0.0
 10
187.7791765654
 20
472.3312137796
 30
0.0
 10
187.6805172077
 20
472.3292214553
 30
0.0
  0
LINE
  5
4C7
100
AcDbEntity
  8
0
100
AcDbLine
 62
7
  6
BYLAYER
 10
188.3129853883
 20
472.1760839736
 11
188.2329453747
 21
472.21621701
  0
SPLINE
  5
4C8
100
AcDbEntity
  8
0
100
AcDbSpline
 62
7
  6
BYLAYER
 70
0
 71
3
 72
9
 73
5
 74
0
 42
0.0000001
 43
0.0000001
 44
0.0000000001
 40
0.0
 40
0.0
 40
0.0
 40
0.0
 40
0.4682831591
 40
1.0
 40
1.0
 40
1.0
 40
1.0
 10
201.6838565441
 20
455.7337384906
 30
0.0
 10
201.6094461983
 20
455.6802485247
 30
0.0
 10
201.4293335264
 20
455.5955503892
 30
0.0
 10
201.2359235016
 20
455.5568945337
 30
0.0
 10
201.1323628703
 20
455.5467663552
 30
0.0
  0
SPLINE
  5
4C9
100
AcDbEntity
  8
0
100
AcDbSpline
 62
7
  6
BYLAYER
 70
0
 71
3
 72
9
 73
5
 74
0
 42
0.0000001
 43
0.0000001
 44
0.0000000001
 40
0.0
 40
0.0
 40
0.0
 40
0.0
 40
0.469077621
 40
1.0
 40
1.0
 40
1.0
 40
1.0
 10
187.8815151831
 20
450.4254461791
 30
0.0
 10
187.8815301589
 20
450.4745957408
 30
0.0
 10
187.8538963109
 20
450.5802776687
 30
0.0
 10
187.7855946995
 20
450.6631151691
 30
0.0
 10
187.7447339122
 20
450.7008649926
 30
0.0
  0
SPLINE
  5
4CA
100
AcDbEntity
  8
0
100
AcDbSpline
 62
7
  6
BYLAYER
 70
0
 71
3
 72
9
 73
5
 74
0
 42
0.0000001
 43
0.0000001
 44
0.0000000001
 40
0.0
 40
0.0
 40
0.0
 40
0.0
 40
0.4774548266
 40
1.0
 40
1.0
 40
1.0
 40
1.0
 10
182.1296526812
 20
447.8160821207
 30
0.0
 10
182.1289938352
 20
447.8357298609
 30
0.0
 10
182.1192033439
 20
447.876883936
 30
0.0
 10
182.0958745093
 20
447.9117133809
 30
0.0
 10
182.0817459464
 20
447.9279397029
 30
0.0
  0
SPLINE
  5
4CB
100
AcDbEntity
  8
0
100
AcDbSpline
 62
7
  6
BYLAYER
 70
0
 71
3
 72
9
 73
5
 74
0
 42
0.0000001
 43
0.0000001
 44
0.0000000001
 40
0.0
 40
0.0
 40
0.0
 40
0.0
 40
0.22468716
 40
1.0
 40
1.0
 40
1.0
 40
1.0
 10
182.0817459464
 20
447.9279397029
 30
0.0
 10
182.0724150769
 20
447.938655987
 30
0.0
 10
182.0267860055
 20
447.9827910377
 30
0.0
 10
181.9690226063
 20
448.0127501413
 30
0.0
 10
181.9230621396
 20
448.0298287161
 30
0.0
  0
SPLINE
  5
4CC
100
AcDbEntity
  8
0
100
AcDbSpline
 62
7
  6
BYLAYER
 70
0
 71
3
 72
9
 73
5
 74
0
 42
0.0000001
 43
0.0000001
 44
0.0000000001
 40
0.0
 40
0.0
 40
0.0
 40
0.0
 40
0.5109588724
 40
1.0
 40
1.0
 40
1.0
 40
1.0
 10
164.1735844225
 20
458.0337032001
 30
0.0
 10
164.1342895298
 20
458.1010143337
 30
0.0
 10
164.0682654518
 20
458.2395650008
 30
0.0
 10
164.0300812635
 20
458.3884589792
 30
0.0
 10
164.0191775605
 20
458.4622559762
 30
0.0
  0
SPLINE
  5
4CD
100
AcDbEntity
  8
0
100
AcDbSpline
 62
7
  6
BYLAYER
 70
0
 71
3
 72
9
 73
5
 74
0
 42
0.0000001
 43
0.0000001
 44
0.0000000001
 40
0.0
 40
0.0
 40
0.0
 40
0.0
 40
0.2552371616
 40
1.0
 40
1.0
 40
1.0
 40
1.0
 10
164.8527497704
 20
457.2503062045
 30
0.0
 10
164.7998250684
 20
457.3013528351
 30
0.0
 10
164.5951748644
 20
457.5041245712
 30
0.0
 10
164.4016311828
 20
457.7181880359
 30
0.0
 10
164.2652464989
 20
457.8838204777
 30
0.0
  0
SPLINE
  5
4CE
100
AcDbEntity
  8
0
100
AcDbSpline
 62
7
  6
BYLAYER
 70
0
 71
3
 72
9
 73
5
 74
0
 42
0.0000001
 43
0.0000001
 44
0.0000000001
 40
0.0
 40
0.0
 40
0.0
 40
0.0
 40
0.2551707188
 40
1.0
 40
1.0
 40
1.0
 40
1.0
 10
165.5423199152
 20
456.6520649381
 30
0.0
 10
165.48118556
 20
456.6999701005
 30
0.0
 10
165.2438822414
 20
456.890587813
 30
0.0
 10
165.0159259807
 20
457.0929204205
 30
0.0
 10
164.8527497704
 20
457.2503062045
 30
0.0
  0
SPLINE
  5
4CF
100
AcDbEntity
  8
0
100
AcDbSpline
 62
7
  6
BYLAYER
 70
0
 71
3
 72
9
 73
5
 74
0
 42
0.0000001
 43
0.0000001
 44
0.0000000001
 40
0.0
 40
0.0
 40
0.0
 40
0.0
 40
0.2532145012
 40
1.0
 40
1.0
 40
1.0
 40
1.0
 10
165.9197033035
 20
456.5603335232
 30
0.0
 10
165.9018970155
 20
456.5588971379
 30
0.0
 10
165.8313947451
 20
456.5560053249
 30
0.0
 10
165.760334397
 20
456.5637625746
 30
0.0
 10
165.7091398249
 20
456.5762065524
 30
0.0
  0
SPLINE
  5
4D0
100
AcDbEntity
  8
0
100
AcDbSpline
 62
7
  6
BYLAYER
 70
0
 71
3
 72
9
 73
5
 74
0
 42
0.0000001
 43
0.0000001
 44
0.0000000001
 40
0.0
 40
0.0
 40
0.0
 40
0.0
 40
0.4686821413
 40
1.0
 40
1.0
 40
1.0
 40
1.0
 10
166.3290652713
 20
456.4683820005
 30
0.0
 10
166.2746306623
 20
456.5064687672
 30
0.0
 10
166.1380544707
 20
456.5577125457
 30
0.0
 10
165.9947739866
 20
456.5663892733
 30
0.0
 10
165.9197033035
 20
456.5603335232
 30
0.0
  0
SPLINE
  5
4D1
100
AcDbEntity
  8
0
100
AcDbSpline
 62
7
  6
BYLAYER
 70
0
 71
3
 72
8
 73
4
 74
0
 42
0.0000001
 43
0.0000001
 44
0.0000000001
 40
0.0
 40
0.0
 40
0.0
 40
0.0
 40
1.0
 40
1.0
 40
1.0
 40
1.0
 10
166.3939340848
 20
456.098756631
 30
0.0
 10
166.3894542636
 20
456.1116778726
 30
0.0
 10
166.386766054
 20
456.1253917668
 30
0.0
 10
166.3862488101
 20
456.1390577735
 30
0.0
  0
SPLINE
  5
4D2
100
AcDbEntity
  8
0
100
AcDbSpline
 62
7
  6
BYLAYER
 70
0
 71
3
 72
9
 73
5
 74
0
 42
0.0000001
 43
0.0000001
 44
0.0000000001
 40
0.0
 40
0.0
 40
0.0
 40
0.0
 40
0.2802757735
 40
1.0
 40
1.0
 40
1.0
 40
1.0
 10
166.4867402267
 20
455.9909497874
 30
0.0
 10
166.4755016104
 20
455.9982743374
 30
0.0
 10
166.4370670966
 20
456.0265094439
 30
0.0
 10
166.4052183
 20
456.0662093342
 30
0.0
 10
166.3939340848
 20
456.098756631
 30
0.0
  0
SPLINE
  5
4D3
100
AcDbEntity
  8
0
100
AcDbSpline
 62
7
  6
BYLAYER
 70
0
 71
3
 72
9
 73
5
 74
0
 42
0.0000001
 43
0.0000001
 44
0.0000000001
 40
0.0
 40
0.0
 40
0.0
 40
0.0
 40
0.2412953819
 40
1.0
 40
1.0
 40
1.0
 40
1.0
 10
181.4655080463
 20
448.0400767385
 30
0.0
 10
181.4490680846
 20
448.0349364636
 30
0.0
 10
181.379941628
 20
448.0168921902
 30
0.0
 10
181.3078271273
 20
448.0108688954
 30
0.0
 10
181.253692846
 20
448.0125378093
 30
0.0
  0
SPLINE
  5
4D4
100
AcDbEntity
  8
0
100
AcDbSpline
 62
7
  6
BYLAYER
 70
0
 71
3
 72
9
 73
5
 74
0
 42
0.0000001
 43
0.0000001
 44
0.0000000001
 40
0.0
 40
0.0
 40
0.0
 40
0.0
 40
0.4965566634
 40
1.0
 40
1.0
 40
1.0
 40
1.0
 10
181.9230621396
 20
448.0298287161
 30
0.0
 10
181.8511746592
 20
448.0565415803
 30
0.0
 10
181.695809493
 20
448.0822203669
 30
0.0
 10
181.5397505979
 20
448.0631786425
 30
0.0
 10
181.4655080463
 20
448.0400767385
 30
0.0
  0
SPLINE
  5
4D5
100
AcDbEntity
  8
0
100
AcDbSpline
 62
7
  6
BYLAYER
 70
0
 71
3
 72
9
 73
5
 74
0
 42
0.0000001
 43
0.0000001
 44
0.0000000001
 40
0.0
 40
0.0
 40
0.0
 40
0.0
 40
0.2644988116
 40
1.0
 40
1.0
 40
1.0
 40
1.0
 10
182.159911063
 20
447.6861147288
 30
0.0
 10
182.1558121846
 20
447.6916061235
 30
0.0
 10
182.1413901491
 20
447.7131184792
 30
0.0
 10
182.1318593623
 20
447.738131417
 30
0.0
 10
182.1290600684
 20
447.7569795576
 30
0.0
  0
SPLINE
  5
4D6
100
AcDbEntity
  8
0
100
AcDbSpline
 62
7
  6
BYLAYER
 70
0
 71
3
 72
9
 73
5
 74
0
 42
0.0000001
 43
0.0000001
 44
0.0000000001
 40
0.0
 40
0.0
 40
0.0
 40
0.0
 40
0.2469319429
 40
1.0
 40
1.0
 40
1.0
 40
1.0
 10
186.2246720611
 20
447.1064344467
 30
0.0
 10
186.1727614254
 20
447.0965323295
 30
0.0
 10
185.9618608754
 20
447.0600517687
 30
0.0
 10
185.7485338879
 20
447.0377722992
 30
0.0
 10
185.5876243816
 20
447.0286780023
 30
0.0
  0
SPLINE
  5
4D7
100
AcDbEntity
  8
0
100
AcDbSpline
 62
7
  6
BYLAYER
 70
0
 71
3
 72
10
 73
6
 74
0
 42
0.0000001
 43
0.0000001
 44
0.0000000001
 40
0.0
 40
0.0
 40
0.0
 40
0.0
 40
0.4483750671
 40
0.7109722496
 40
1.0
 40
1.0
 40
1.0
 40
1.0
 10
187.8688917572
 20
447.8891434475
 30
0.0
 10
187.849321621
 20
447.8224404303
 30
0.0
 10
187.7830388908
 20
447.726801771
 30
0.0
 10
187.6611070666
 20
447.6310619077
 30
0.0
 10
187.5856986176
 20
447.5895917146
 30
0.0
 10
187.5450464813
 20
447.5707414214
 30
0.0
  0
SPLINE
  5
4D8
100
AcDbEntity
  8
0
100
AcDbSpline
 62
7
  6
BYLAYER
 70
0
 71
3
 72
9
 73
5
 74
0
 42
0.0000001
 43
0.0000001
 44
0.0000000001
 40
0.0
 40
0.0
 40
0.0
 40
0.0
 40
0.5118166122
 40
1.0
 40
1.0
 40
1.0
 40
1.0
 10
201.1323628703
 20
455.5467663552
 30
0.0
 10
201.0245105467
 20
455.5362184513
 30
0.0
 10
200.8111648915
 20
455.5377815849
 30
0.0
 10
200.6022078877
 20
455.583366136
 30
0.0
 10
200.5049793075
 20
455.6184448796
 30
0.0
  0
SPLINE
  5
4D9
100
AcDbEntity
  8
0
100
AcDbSpline
 62
7
  6
BYLAYER
 70
0
 71
3
 72
9
 73
5
 74
0
 42
0.0000001
 43
0.0000001
 44
0.0000000001
 40
0.0
 40
0.0
 40
0.0
 40
0.0
 40
0.4663870088
 40
1.0
 40
1.0
 40
1.0
 40
1.0
 10
200.9185794275
 20
461.8155048511
 30
0.0
 10
200.9165680767
 20
461.837248111
 30
0.0
 10
200.9001981141
 20
461.8830383903
 30
0.0
 10
200.8677377124
 20
461.918114926
 30
0.0
 10
200.8485925814
 20
461.9341662109
 30
0.0
  0
SPLINE
  5
4DA
100
AcDbEntity
  8
0
100
AcDbSpline
 62
7
  6
BYLAYER
 70
0
 71
3
 72
9
 73
5
 74
0
 42
0.0000001
 43
0.0000001
 44
0.0000000001
 40
0.0
 40
0.0
 40
0.0
 40
0.0
 40
0.5339031209
 40
1.0
 40
1.0
 40
1.0
 40
1.0
 10
201.297751008
 20
461.3103141331
 30
0.0
 10
201.2259776075
 20
461.3075208063
 30
0.0
 10
201.0904666004
 20
461.3202356004
 30
0.0
 10
200.9624168576
 20
461.3726794778
 30
0.0
 10
200.912033345
 20
461.4100089091
 30
0.0
  0
SPLINE
  5
4DB
100
AcDbEntity
  8
0
100
AcDbSpline
 62
7
  6
BYLAYER
 70
0
 71
3
 72
9
 73
5
 74
0
 42
0.0000001
 43
0.0000001
 44
0.0000000001
 40
0.0
 40
0.0
 40
0.0
 40
0.0
 40
0.2441253337
 40
1.0
 40
1.0
 40
1.0
 40
1.0
 10
201.4841478795
 20
461.2925394373
 30
0.0
 10
201.4693327623
 20
461.2962253398
 30
0.0
 10
201.4080623149
 20
461.3089042817
 30
0.0
 10
201.3449708545
 20
461.3124859868
 30
0.0
 10
201.297751008
 20
461.3103141331
 30
0.0
  0
SPLINE
  5
4DC
100
AcDbEntity
  8
0
100
AcDbSpline
 62
7
  6
BYLAYER
 70
0
 71
3
 72
9
 73
5
 74
0
 42
0.0000001
 43
0.0000001
 44
0.0000000001
 40
0.0
 40
0.0
 40
0.0
 40
0.0
 40
0.2305290833
 40
1.0
 40
1.0
 40
1.0
 40
1.0
 10
201.6345376847
 20
461.226523851
 30
0.0
 10
201.6242482737
 20
461.2339071054
 30
0.0
 10
201.5776632984
 20
461.2632089905
 30
0.0
 10
201.5251688711
 20
461.2823336878
 30
0.0
 10
201.4841478795
 20
461.2925394373
 30
0.0
  0
SPLINE
  5
4DD
100
AcDbEntity
  8
0
100
AcDbSpline
 62
7
  6
BYLAYER
 70
0
 71
3
 72
9
 73
5
 74
0
 42
0.0000001
 43
0.0000001
 44
0.0000000001
 40
0.0
 40
0.0
 40
0.0
 40
0.0
 40
0.2449524714
 40
1.0
 40
1.0
 40
1.0
 40
1.0
 10
202.0089066362
 20
460.8265296257
 30
0.0
 10
201.9802830972
 20
460.8609237422
 30
0.0
 10
201.8613194072
 20
460.9995712458
 30
0.0
 10
201.7341950312
 20
461.1311687746
 30
0.0
 10
201.6345376847
 20
461.226523851
 30
0.0
  0
SPLINE
  5
4DE
100
AcDbEntity
  8
0
100
AcDbSpline
 62
7
  6
BYLAYER
 70
0
 71
3
 72
9
 73
5
 74
0
 42
0.0000001
 43
0.0000001
 44
0.0000000001
 40
0.0
 40
0.0
 40
0.0
 40
0.0
 40
0.2452164937
 40
1.0
 40
1.0
 40
1.0
 40
1.0
 10
202.3158673587
 20
460.4078363992
 30
0.0
 10
202.2930352524
 20
460.4436252788
 30
0.0
 10
202.1974918498
 20
460.5880126162
 30
0.0
 10
202.0924921311
 20
460.7260930844
 30
0.0
 10
202.0089066362
 20
460.8265296257
 30
0.0
  0
SPLINE
  5
4DF
100
AcDbEntity
  8
0
100
AcDbSpline
 62
7
  6
BYLAYER
 70
0
 71
3
 72
9
 73
5
 74
0
 42
0.0000001
 43
0.0000001
 44
0.0000000001
 40
0.0
 40
0.0
 40
0.0
 40
0.0
 40
0.2453105191
 40
1.0
 40
1.0
 40
1.0
 40
1.0
 10
202.4996646099
 20
460.0533350386
 30
0.0
 10
202.4871384968
 20
460.0835118823
 30
0.0
 10
202.4333940649
 20
460.2054037135
 30
0.0
 10
202.3691633369
 20
460.3226103752
 30
0.0
 10
202.3158673587
 20
460.4078363992
 30
0.0
  0
SPLINE
  5
4E0
100
AcDbEntity
  8
0
100
AcDbSpline
 62
7
  6
BYLAYER
 70
0
 71
3
 72
9
 73
5
 74
0
 42
0.0000001
 43
0.0000001
 44
0.0000000001
 40
0.0
 40
0.0
 40
0.0
 40
0.0
 40
0.2468477134
 40
1.0
 40
1.0
 40
1.0
 40
1.0
 10
202.6141482588
 20
459.6892434856
 30
0.0
 10
202.6075186029
 20
459.7199651519
 30
0.0
 10
202.5777497819
 20
459.8437809593
 30
0.0
 10
202.5364271442
 20
459.9647698754
 30
0.0
 10
202.4996646099
 20
460.0533350386
 30
0.0
  0
SPLINE
  5
4E1
100
AcDbEntity
  8
0
100
AcDbSpline
 62
7
  6
BYLAYER
 70
0
 71
3
 72
11
 73
7
 74
0
 42
0.0000001
 43
0.0000001
 44
0.0000000001
 40
0.0
 40
0.0
 40
0.0
 40
0.0
 40
0.2177159471
 40
0.4509403815
 40
0.7102937689
 40
1.0
 40
1.0
 40
1.0
 40
1.0
 10
167.5507460948
 20
466.0397204076
 30
0.0
 10
167.5507463145
 20
466.0092590382
 30
0.0
 10
167.5620273182
 20
465.9457507414
 30
0.0
 10
167.6101390524
 20
465.8572413707
 30
0.0
 10
167.6862852811
 20
465.7772633008
 30
0.0
 10
167.7499595504
 20
465.7333935496
 30
0.0
 10
167.7850630251
 20
465.7131270075
 30
0.0
  0
SPLINE
  5
4E2
100
AcDbEntity
  8
0
100
AcDbSpline
 62
7
  6
BYLAYER
 70
0
 71
3
 72
9
 73
5
 74
0
 42
0.0000001
 43
0.0000001
 44
0.0000000001
 40
0.0
 40
0.0
 40
0.0
 40
0.0
 40
0.2254562211
 40
1.0
 40
1.0
 40
1.0
 40
1.0
 10
166.3939340848
 20
458.5482638824
 30
0.0
 10
166.3974741753
 20
458.5380531258
 30
0.0
 10
166.4181722073
 20
458.4944419213
 30
0.0
 10
166.4556359469
 20
458.4607286495
 30
0.0
 10
166.4867402267
 20
458.4404570388
 30
0.0
  0
SPLINE
  5
4E3
100
AcDbEntity
  8
0
100
AcDbSpline
 62
7
  6
BYLAYER
 70
0
 71
3
 72
9
 73
5
 74
0
 42
0.0000001
 43
0.0000001
 44
0.0000000001
 40
0.0
 40
0.0
 40
0.0
 40
0.0
 40
0.5425997093
 40
1.0
 40
1.0
 40
1.0
 40
1.0
 10
166.3290652713
 20
458.9178892519
 30
0.0
 10
166.3587914753
 20
458.8970904437
 30
0.0
 10
166.4094297643
 20
458.8504312542
 30
0.0
 10
166.4319661479
 20
458.7831195623
 30
0.0
 10
166.4319714563
 20
458.7525362849
 30
0.0
  0
SPLINE
  5
4E4
100
AcDbEntity
  8
0
100
AcDbSpline
 62
7
  6
BYLAYER
 70
0
 71
3
 72
8
 73
4
 74
0
 42
0.0000001
 43
0.0000001
 44
0.0000000001
 40
0.0
 40
0.0
 40
0.0
 40
0.0
 40
1.0
 40
1.0
 40
1.0
 40
1.0
 10
166.3861535532
 20
458.5935903879
 30
0.0
 10
166.3861546641
 20
458.578260574
 30
0.0
 10
166.3889124505
 20
458.5627478869
 30
0.0
 10
166.3939340848
 20
458.5482638824
 30
0.0
  0
SPLINE
  5
4E5
100
AcDbEntity
  8
0
100
AcDbSpline
 62
7
  6
BYLAYER
 70
0
 71
3
 72
9
 73
5
 74
0
 42
0.0000001
 43
0.0000001
 44
0.0000000001
 40
0.0
 40
0.0
 40
0.0
 40
0.0
 40
0.5154328739
 40
1.0
 40
1.0
 40
1.0
 40
1.0
 10
167.6045427599
 20
463.4236941312
 30
0.0
 10
167.5876299476
 20
463.4489569423
 30
0.0
 10
167.560590069
 20
463.5023289849
 30
0.0
 10
167.550746301
 20
463.5616321687
 30
0.0
 10
167.5507460948
 20
463.5902131562
 30
0.0
  0
SPLINE
  5
4E6
100
AcDbEntity
  8
0
100
AcDbSpline
 62
7
  6
BYLAYER
 70
0
 71
3
 72
10
 73
6
 74
0
 42
0.0000001
 43
0.0000001
 44
0.0000000001
 40
0.0
 40
0.0
 40
0.0
 40
0.0
 40
0.547689002
 40
0.7816220467
 40
1.0
 40
1.0
 40
1.0
 40
1.0
 10
171.2852334959
 20
466.83580217
 30
0.0
 10
171.3183142381
 20
466.8549012313
 30
0.0
 10
171.3629921573
 20
466.8900635339
 30
0.0
 10
171.3967486063
 20
466.9521036755
 30
0.0
 10
171.4023897157
 20
466.9838687728
 30
0.0
 10
171.4023896059
 20
466.9990994332
 30
0.0
  0
SPLINE
  5
4E7
100
AcDbEntity
  8
0
100
AcDbSpline
 62
7
  6
BYLAYER
 70
0
 71
3
 72
10
 73
6
 74
0
 42
0.0000001
 43
0.0000001
 44
0.0000000001
 40
0.0
 40
0.0
 40
0.0
 40
0.0
 40
0.2183779533
 40
0.452310998
 40
1.0
 40
1.0
 40
1.0
 40
1.0
 10
170.3195527813
 20
466.182611922
 30
0.0
 10
170.3195526715
 20
466.1978425824
 30
0.0
 10
170.3251937809
 20
466.2296076798
 30
0.0
 10
170.3589502299
 20
466.2916478213
 30
0.0
 10
170.4036281491
 20
466.3268101239
 30
0.0
 10
170.4367088913
 20
466.3459091853
 30
0.0
  0
SPLINE
  5
4E8
100
AcDbEntity
  8
0
100
AcDbSpline
 62
7
  6
BYLAYER
 70
0
 71
3
 72
9
 73
5
 74
0
 42
0.0000001
 43
0.0000001
 44
0.0000000001
 40
0.0
 40
0.0
 40
0.0
 40
0.0
 40
0.4818346929
 40
1.0
 40
1.0
 40
1.0
 40
1.0
 10
182.1276130805
 20
450.2260150481
 30
0.0
 10
182.1276139561
 20
450.2103930151
 30
0.0
 10
182.1336051769
 20
450.1777597963
 30
0.0
 10
182.1498619834
 20
450.1490850443
 30
0.0
 10
182.159911063
 20
450.1356219802
 30
0.0
  0
SPLINE
  5
4E9
100
AcDbEntity
  8
0
100
AcDbSpline
 62
7
  6
BYLAYER
 70
0
 71
3
 72
9
 73
5
 74
0
 42
0.0000001
 43
0.0000001
 44
0.0000000001
 40
0.0
 40
0.0
 40
0.0
 40
0.0
 40
0.5313178587
 40
1.0
 40
1.0
 40
1.0
 40
1.0
 10
165.9197033037
 20
459.0098407746
 30
0.0
 10
165.9947739868
 20
459.0158965247
 30
0.0
 10
166.1380544708
 20
459.007219797
 30
0.0
 10
166.2746306623
 20
458.9559760185
 30
0.0
 10
166.3290652713
 20
458.9178892519
 30
0.0
  0
SPLINE
  5
4EA
100
AcDbEntity
  8
0
100
AcDbSpline
 62
7
  6
BYLAYER
 70
0
 71
3
 72
9
 73
5
 74
0
 42
0.0000001
 43
0.0000001
 44
0.0000000001
 40
0.0
 40
0.0
 40
0.0
 40
0.0
 40
0.2445254536
 40
1.0
 40
1.0
 40
1.0
 40
1.0
 10
165.7091398249
 20
459.0257138038
 30
0.0
 10
165.7259037571
 20
459.0216389577
 30
0.0
 10
165.7951654531
 20
459.0079843593
 30
0.0
 10
165.866574696
 20
459.0055550328
 30
0.0
 10
165.9197033037
 20
459.0098407746
 30
0.0
  0
SPLINE
  5
4EB
100
AcDbEntity
  8
0
100
AcDbSpline
 62
7
  6
BYLAYER
 70
0
 71
3
 72
10
 73
6
 74
0
 42
0.0000001
 43
0.0000001
 44
0.0000000001
 40
0.0
 40
0.0
 40
0.0
 40
0.0
 40
0.5476894825
 40
0.7816225454
 40
1.0
 40
1.0
 40
1.0
 40
1.0
 10
179.204807071
 20
469.9384638582
 30
0.0
 10
179.2378881082
 20
469.9193649445
 30
0.0
 10
179.2825664912
 20
469.884202888
 30
0.0
 10
179.3163238374
 20
469.8221629425
 30
0.0
 10
179.3219654263
 20
469.7903978429
 30
0.0
 10
179.3219655361
 20
469.7751671581
 30
0.0
  0
SPLINE
  5
4EC
100
AcDbEntity
  8
0
100
AcDbSpline
 62
7
  6
BYLAYER
 70
0
 71
3
 72
11
 73
7
 74
0
 42
0.0000001
 43
0.0000001
 44
0.0000000001
 40
0.0
 40
0.0
 40
0.0
 40
0.0
 40
0.2218725418
 40
0.4567393373
 40
0.7144318325
 40
1.0
 40
1.0
 40
1.0
 40
1.0
 10
167.2852803895
 20
460.5384510929
 30
0.0
 10
167.2852767838
 20
460.5108491707
 30
0.0
 10
167.294380803
 20
460.4537038383
 30
0.0
 10
167.3336992175
 20
460.3728265472
 30
0.0
 10
167.3966627324
 20
460.2982452049
 30
0.0
 10
167.450145006
 20
460.2561975431
 30
0.0
 10
167.4797674191
 20
460.2365861945
 30
0.0
  0
SPLINE
  5
4ED
100
AcDbEntity
  8
0
100
AcDbSpline
 62
7
  6
BYLAYER
 70
0
 71
3
 72
9
 73
5
 74
0
 42
0.0000001
 43
0.0000001
 44
0.0000000001
 40
0.0
 40
0.0
 40
0.0
 40
0.0
 40
0.5255657768
 40
1.0
 40
1.0
 40
1.0
 40
1.0
 10
177.9320102556
 20
470.5776400592
 30
0.0
 10
177.9833704221
 20
470.5776401826
 30
0.0
 10
178.081356946
 20
470.5670183643
 30
0.0
 10
178.1747013393
 20
470.5331822254
 30
0.0
 10
178.2148534558
 20
470.5100009145
 30
0.0
  0
SPLINE
  5
4EE
100
AcDbEntity
  8
0
100
AcDbSpline
 62
7
  6
BYLAYER
 70
0
 71
3
 72
9
 73
5
 74
0
 42
0.0000001
 43
0.0000001
 44
0.0000000001
 40
0.0
 40
0.0
 40
0.0
 40
0.0
 40
0.4744336899
 40
1.0
 40
1.0
 40
1.0
 40
1.0
 10
177.6491680309
 20
470.5099995548
 30
0.0
 10
177.6893198505
 20
470.5331810803
 30
0.0
 10
177.7826638766
 20
470.5670176832
 30
0.0
 10
177.8806501451
 20
470.5776399357
 30
0.0
 10
177.9320102556
 20
470.5776400592
 30
0.0
  0
SPLINE
  5
4EF
100
AcDbEntity
  8
0
100
AcDbSpline
 62
7
  6
BYLAYER
 70
0
 71
3
 72
9
 73
5
 74
0
 42
0.0000001
 43
0.0000001
 44
0.0000000001
 40
0.0
 40
0.0
 40
0.0
 40
0.0
 40
0.4744336899
 40
1.0
 40
1.0
 40
1.0
 40
1.0
 10
189.2104849413
 20
451.5471116924
 30
0.0
 10
189.130181302
 20
451.5007486414
 30
0.0
 10
188.9434932498
 20
451.4330754356
 30
0.0
 10
188.7475207129
 20
451.4118309305
 30
0.0
 10
188.6448004919
 20
451.4118306836
 30
0.0
  0
SPLINE
  5
4F0
100
AcDbEntity
  8
0
100
AcDbSpline
 62
7
  6
BYLAYER
 70
0
 71
3
 72
10
 73
6
 74
0
 42
0.0000001
 43
0.0000001
 44
0.0000000001
 40
0.0
 40
0.0
 40
0.0
 40
0.0
 40
0.2890277504
 40
0.5516249329
 40
1.0
 40
1.0
 40
1.0
 40
1.0
 10
187.5450464812
 20
450.0202486728
 30
0.0
 10
187.5856986176
 20
450.039098966
 30
0.0
 10
187.6611070666
 20
450.0805691591
 30
0.0
 10
187.7830388908
 20
450.1763090224
 30
0.0
 10
187.849321621
 20
450.2719476817
 30
0.0
 10
187.8688917572
 20
450.3386506989
 30
0.0
  0
SPLINE
  5
4F1
100
AcDbEntity
  8
0
100
AcDbSpline
 62
7
  6
BYLAYER
 70
0
 71
3
 72
9
 73
5
 74
0
 42
0.0000001
 43
0.0000001
 44
0.0000000001
 40
0.0
 40
0.0
 40
0.0
 40
0.0
 40
0.2585908371
 40
1.0
 40
1.0
 40
1.0
 40
1.0
 10
186.9283872124
 20
449.7468354592
 30
0.0
 10
186.9832736095
 20
449.766136149
 30
0.0
 10
187.194082686
 20
449.8447528426
 30
0.0
 10
187.3989910857
 20
449.9396637116
 30
0.0
 10
187.5450464812
 20
450.0202486728
 30
0.0
  0
SPLINE
  5
4F2
100
AcDbEntity
  8
0
100
AcDbSpline
 62
7
  6
BYLAYER
 70
0
 71
3
 72
9
 73
5
 74
0
 42
0.0000001
 43
0.0000001
 44
0.0000000001
 40
0.0
 40
0.0
 40
0.0
 40
0.0
 40
0.2557603202
 40
1.0
 40
1.0
 40
1.0
 40
1.0
 10
186.2246720611
 20
449.5559416981
 30
0.0
 10
186.2856710726
 20
449.5680600257
 30
0.0
 10
186.5233550047
 20
449.6194071091
 30
0.0
 10
186.7576645525
 20
449.6868011837
 30
0.0
 10
186.9283872124
 20
449.7468354592
 30
0.0
  0
SPLINE
  5
4F3
100
AcDbEntity
  8
0
100
AcDbSpline
 62
7
  6
BYLAYER
 70
0
 71
3
 72
9
 73
5
 74
0
 42
0.0000001
 43
0.0000001
 44
0.0000000001
 40
0.0
 40
0.0
 40
0.0
 40
0.0
 40
0.2526965357
 40
1.0
 40
1.0
 40
1.0
 40
1.0
 10
185.5876243816
 20
449.4781852537
 30
0.0
 10
185.6416181999
 20
449.4812368808
 30
0.0
 10
185.8550766697
 20
449.4967436845
 30
0.0
 10
186.0675730882
 20
449.5259745743
 30
0.0
 10
186.2246720611
 20
449.5559416981
 30
0.0
  0
SPLINE
  5
4F4
100
AcDbEntity
  8
0
100
AcDbSpline
 62
7
  6
BYLAYER
 70
0
 71
3
 72
9
 73
5
 74
0
 42
0.0000001
 43
0.0000001
 44
0.0000000001
 40
0.0
 40
0.0
 40
0.0
 40
0.0
 40
0.226150704
 40
1.0
 40
1.0
 40
1.0
 40
1.0
 10
182.159911063
 20
450.1356219802
 30
0.0
 10
182.1664116629
 20
450.1269129245
 30
0.0
 10
182.1983433153
 20
450.0907696679
 30
0.0
 10
182.2401871709
 20
450.0644811991
 30
0.0
 10
182.2738584085
 20
450.0486971818
 30
0.0
  0
SPLINE
  5
4F5
100
AcDbEntity
  8
0
100
AcDbSpline
 62
7
  6
BYLAYER
 70
0
 71
3
 72
10
 73
6
 74
0
 42
0.0000001
 43
0.0000001
 44
0.0000000001
 40
0.0
 40
0.0
 40
0.0
 40
0.0
 40
0.2183774546
 40
0.4523105175
 40
1.0
 40
1.0
 40
1.0
 40
1.0
 10
175.3399788385
 20
470.6324667404
 30
0.0
 10
175.3399789483
 20
470.6172360557
 30
0.0
 10
175.3456205373
 20
470.585470956
 30
0.0
 10
175.3793778834
 20
470.5234310106
 30
0.0
 10
175.4240562664
 20
470.488268954
 30
0.0
 10
175.4571373036
 20
470.4691700404
 30
0.0
  0
SPLINE
  5
4F6
100
AcDbEntity
  8
0
100
AcDbSpline
 62
7
  6
BYLAYER
 70
0
 71
3
 72
11
 73
7
 74
0
 42
0.0000001
 43
0.0000001
 44
0.0000000001
 40
0.0
 40
0.0
 40
0.0
 40
0.0
 40
0.3001665598
 40
0.5641973456
 40
0.7932685561
 40
1.0
 40
1.0
 40
1.0
 40
1.0
 10
181.9230621396
 20
450.4793359674
 30
0.0
 10
181.9529200438
 20
450.4682409877
 30
0.0
 10
182.0075170299
 20
450.4426220973
 30
0.0
 10
182.0748031857
 20
450.3906447277
 30
0.0
 10
182.1189746807
 20
450.3292226302
 30
0.0
 10
182.1297250078
 20
450.2825661634
 30
0.0
 10
182.1297372653
 20
450.2606285137
 30
0.0
  0
SPLINE
  5
4F7
100
AcDbEntity
  8
0
100
AcDbSpline
 62
7
  6
BYLAYER
 70
0
 71
3
 72
9
 73
5
 74
0
 42
0.0000001
 43
0.0000001
 44
0.0000000001
 40
0.0
 40
0.0
 40
0.0
 40
0.0
 40
0.5034433366
 40
1.0
 40
1.0
 40
1.0
 40
1.0
 10
181.4655080463
 20
450.4895839898
 30
0.0
 10
181.5397505979
 20
450.5126858939
 30
0.0
 10
181.695809493
 20
450.5317276183
 30
0.0
 10
181.8511746592
 20
450.5060488317
 30
0.0
 10
181.9230621396
 20
450.4793359674
 30
0.0
  0
SPLINE
  5
4F8
100
AcDbEntity
  8
0
100
AcDbSpline
 62
7
  6
BYLAYER
 70
0
 71
3
 72
9
 73
5
 74
0
 42
0.0000001
 43
0.0000001
 44
0.0000000001
 40
0.0
 40
0.0
 40
0.0
 40
0.0
 40
0.2564492785
 40
1.0
 40
1.0
 40
1.0
 40
1.0
 10
181.253692846
 20
450.4620450607
 30
0.0
 10
181.2719888292
 20
450.4614810111
 30
0.0
 10
181.3433643188
 20
450.4621251425
 30
0.0
 10
181.4148536651
 20
450.4737459089
 30
0.0
 10
181.4655080463
 20
450.4895839898
 30
0.0
  0
SPLINE
  5
4F9
100
AcDbEntity
  8
0
100
AcDbSpline
 62
7
  6
BYLAYER
 70
0
 71
3
 72
9
 73
5
 74
0
 42
0.0000001
 43
0.0000001
 44
0.0000000001
 40
0.0
 40
0.0
 40
0.0
 40
0.0
 40
0.237769042
 40
1.0
 40
1.0
 40
1.0
 40
1.0
 10
181.0481618209
 20
450.5024504193
 30
0.0
 10
181.0636327005
 20
450.4962997535
 30
0.0
 10
181.1300227794
 20
450.4738099129
 30
0.0
 10
181.2003464606
 20
450.4636896845
 30
0.0
 10
181.253692846
 20
450.4620450607
 30
0.0
  0
SPLINE
  5
4FA
100
AcDbEntity
  8
0
100
AcDbSpline
 62
7
  6
BYLAYER
 70
0
 71
3
 72
9
 73
5
 74
0
 42
0.0000001
 43
0.0000001
 44
0.0000000001
 40
0.0
 40
0.0
 40
0.0
 40
0.0
 40
0.5222384812
 40
1.0
 40
1.0
 40
1.0
 40
1.0
 10
178.0536197154
 20
452.0210009344
 30
0.0
 10
177.9539395933
 20
452.0194752917
 30
0.0
 10
177.7622769143
 20
452.0367473509
 30
0.0
 10
177.5784404038
 20
452.0972514275
 30
0.0
 10
177.497497419
 20
452.1392744783
 30
0.0
  0
SPLINE
  5
4FB
100
AcDbEntity
  8
0
100
AcDbSpline
 62
7
  6
BYLAYER
 70
0
 71
3
 72
9
 73
5
 74
0
 42
0.0000001
 43
0.0000001
 44
0.0000000001
 40
0.0
 40
0.0
 40
0.0
 40
0.0
 40
0.4744713384
 40
1.0
 40
1.0
 40
1.0
 40
1.0
 10
178.5981068771
 20
452.1561197298
 30
0.0
 10
178.5206797581
 20
452.1114174287
 30
0.0
 10
178.3412373667
 20
452.0451853326
 30
0.0
 10
178.1526338924
 20
452.0225163845
 30
0.0
 10
178.0536197154
 20
452.0210009344
 30
0.0
  0
SPLINE
  5
4FC
100
AcDbEntity
  8
0
100
AcDbSpline
 62
7
  6
BYLAYER
 70
0
 71
3
 72
9
 73
5
 74
0
 42
0.0000001
 43
0.0000001
 44
0.0000000001
 40
0.0
 40
0.0
 40
0.0
 40
0.0
 40
0.5255657768
 40
1.0
 40
1.0
 40
1.0
 40
1.0
 10
188.6448004919
 20
451.4118306836
 30
0.0
 10
188.5420801589
 20
451.4118304367
 30
0.0
 10
188.3461071109
 20
451.4330740733
 30
0.0
 10
188.1594183243
 20
451.5007463513
 30
0.0
 10
188.0791140914
 20
451.5471089729
 30
0.0
  0
SPLINE
  5
4FD
100
AcDbEntity
  8
0
100
AcDbSpline
 62
7
  6
BYLAYER
 70
0
 71
3
 72
9
 73
5
 74
0
 42
0.0000001
 43
0.0000001
 44
0.0000000001
 40
0.0
 40
0.0
 40
0.0
 40
0.0
 40
0.2280681833
 40
1.0
 40
1.0
 40
1.0
 40
1.0
 10
165.5423199152
 20
459.1015721895
 30
0.0
 10
165.5533339018
 20
459.0929415788
 30
0.0
 10
165.6043107396
 20
459.0585304819
 30
0.0
 10
165.6631194458
 20
459.0369000791
 30
0.0
 10
165.7091398249
 20
459.0257138038
 30
0.0
  0
SPLINE
  5
4FE
100
AcDbEntity
  8
0
100
AcDbSpline
 62
7
  6
BYLAYER
 70
0
 71
3
 72
9
 73
5
 74
0
 42
0.0000001
 43
0.0000001
 44
0.0000000001
 40
0.0
 40
0.0
 40
0.0
 40
0.0
 40
0.2449312445
 40
1.0
 40
1.0
 40
1.0
 40
1.0
 10
164.8527497704
 20
459.6998134559
 30
0.0
 10
164.9064093441
 20
459.6480580311
 30
0.0
 10
165.1283665944
 20
459.4397467886
 30
0.0
 10
165.3614176824
 20
459.2433280128
 30
0.0
 10
165.5423199152
 20
459.1015721895
 30
0.0
  0
SPLINE
  5
4FF
100
AcDbEntity
  8
0
100
AcDbSpline
 62
7
  6
BYLAYER
 70
0
 71
3
 72
9
 73
5
 74
0
 42
0.0000001
 43
0.0000001
 44
0.0000000001
 40
0.0
 40
0.0
 40
0.0
 40
0.0
 40
0.2449255914
 40
1.0
 40
1.0
 40
1.0
 40
1.0
 10
164.2652464989
 20
460.3333277291
 30
0.0
 10
164.3100988738
 20
460.2788567419
 30
0.0
 10
164.496605081
 20
460.059253812
 30
0.0
 10
164.6961799905
 20
459.8508272436
 30
0.0
 10
164.8527497704
 20
459.6998134559
 30
0.0
  0
SPLINE
  5
500
100
AcDbEntity
  8
0
100
AcDbSpline
 62
7
  6
BYLAYER
 70
0
 71
3
 72
9
 73
5
 74
0
 42
0.0000001
 43
0.0000001
 44
0.0000000001
 40
0.0
 40
0.0
 40
0.0
 40
0.0
 40
0.5255186429
 40
1.0
 40
1.0
 40
1.0
 40
1.0
 10
200.8708816849
 20
461.6932148072
 30
0.0
 10
200.8855405091
 20
461.708842273
 30
0.0
 10
200.9097491383
 20
461.7427401913
 30
0.0
 10
200.9191428483
 20
461.7838431287
 30
0.0
 10
200.9191467399
 20
461.8031888133
 30
0.0
  0
SPLINE
  5
501
100
AcDbEntity
  8
0
100
AcDbSpline
 62
7
  6
BYLAYER
 70
0
 71
3
 72
11
 73
7
 74
0
 42
0.0000001
 43
0.0000001
 44
0.0000000001
 40
0.0
 40
0.0
 40
0.0
 40
0.0
 40
0.2897060281
 40
0.5490591642
 40
0.7822835676
 40
1.0
 40
1.0
 40
1.0
 40
1.0
 10
197.9766334153
 20
465.7937577104
 30
0.0
 10
198.011736585
 20
465.8140244139
 30
0.0
 10
198.0754102216
 20
465.8578944654
 30
0.0
 10
198.1515553375
 20
465.9378729442
 30
0.0
 10
198.1996658104
 20
466.026382624
 30
0.0
 10
198.2109458549
 20
466.0898909161
 30
0.0
 10
198.2109456352
 20
466.120352237
 30
0.0
  0
SPLINE
  5
502
100
AcDbEntity
  8
0
100
AcDbSpline
 62
7
  6
BYLAYER
 70
0
 71
3
 72
11
 73
7
 74
0
 42
0.0000001
 43
0.0000001
 44
0.0000000001
 40
0.0
 40
0.0
 40
0.0
 40
0.0
 40
0.2177716243
 40
0.4509506744
 40
0.7102000518
 40
1.0
 40
1.0
 40
1.0
 40
1.0
 10
195.1174482389
 20
463.3657985948
 30
0.0
 10
195.1174473462
 20
463.4895812825
 30
0.0
 10
195.1631369315
 20
463.7476365853
 30
0.0
 10
195.3588107196
 20
464.1070347827
 30
0.0
 10
195.6679192309
 20
464.432102665
 30
0.0
 10
195.926686237
 20
464.6102272199
 30
0.0
 10
196.0693416321
 20
464.6925888591
 30
0.0
  0
SPLINE
  5
503
100
AcDbEntity
  8
0
100
AcDbSpline
 62
7
  6
BYLAYER
 70
0
 71
3
 72
9
 73
5
 74
0
 42
0.0000001
 43
0.0000001
 44
0.0000000001
 40
0.0
 40
0.0
 40
0.0
 40
0.0
 40
0.2587446645
 40
1.0
 40
1.0
 40
1.0
 40
1.0
 10
202.4880603171
 20
458.9455572372
 30
0.0
 10
202.5048870671
 20
458.9749612764
 30
0.0
 10
202.5654345716
 20
459.0910663445
 30
0.0
 10
202.6065114406
 20
459.2176629081
 30
0.0
 10
202.6227350503
 20
459.3133522759
 30
0.0
  0
SPLINE
  5
504
100
AcDbEntity
  8
0
100
AcDbSpline
 62
7
  6
BYLAYER
 70
0
 71
3
 72
9
 73
5
 74
0
 42
0.0000001
 43
0.0000001
 44
0.0000000001
 40
0.0
 40
0.0
 40
0.0
 40
0.0
 40
0.2618850736
 40
1.0
 40
1.0
 40
1.0
 40
1.0
 10
202.1574237569
 20
458.539271324
 30
0.0
 10
202.1906673052
 20
458.5707831619
 30
0.0
 10
202.3139663597
 20
458.6948124289
 30
0.0
 10
202.4219653952
 20
458.8346585804
 30
0.0
 10
202.4880603171
 20
458.9455572372
 30
0.0
  0
SPLINE
  5
505
100
AcDbEntity
  8
0
100
AcDbSpline
 62
7
  6
BYLAYER
 70
0
 71
3
 72
9
 73
5
 74
0
 42
0.0000001
 43
0.0000001
 44
0.0000000001
 40
0.0
 40
0.0
 40
0.0
 40
0.0
 40
0.2613528658
 40
1.0
 40
1.0
 40
1.0
 40
1.0
 10
201.6838565441
 20
458.183245742
 30
0.0
 10
201.7280810695
 20
458.209963521
 30
0.0
 10
201.8948310754
 20
458.3161397175
 30
0.0
 10
202.0514427562
 20
458.4388110454
 30
0.0
 10
202.1574237569
 20
458.539271324
 30
0.0
  0
SPLINE
  5
506
100
AcDbEntity
  8
0
100
AcDbSpline
 62
7
  6
BYLAYER
 70
0
 71
3
 72
9
 73
5
 74
0
 42
0.0000001
 43
0.0000001
 44
0.0000000001
 40
0.0
 40
0.0
 40
0.0
 40
0.0
 40
0.5317168409
 40
1.0
 40
1.0
 40
1.0
 40
1.0
 10
201.1323628703
 20
457.9962736066
 30
0.0
 10
201.2359235016
 20
458.0064017851
 30
0.0
 10
201.4293335264
 20
458.0450576406
 30
0.0
 10
201.6094461983
 20
458.1297557761
 30
0.0
 10
201.6838565441
 20
458.183245742
 30
0.0
  0
SPLINE
  5
507
100
AcDbEntity
  8
0
100
AcDbSpline
 62
7
  6
BYLAYER
 70
0
 71
3
 72
9
 73
5
 74
0
 42
0.0000001
 43
0.0000001
 44
0.0000000001
 40
0.0
 40
0.0
 40
0.0
 40
0.0
 40
0.4881833878
 40
1.0
 40
1.0
 40
1.0
 40
1.0
 10
200.5049793075
 20
458.067952131
 30
0.0
 10
200.6022078876
 20
458.0328733874
 30
0.0
 10
200.8111648915
 20
457.9872888363
 30
0.0
 10
201.0245105466
 20
457.9857257027
 30
0.0
 10
201.1323628703
 20
457.9962736066
 30
0.0
  0
SPLINE
  5
508
100
AcDbEntity
  8
0
100
AcDbSpline
 62
7
  6
BYLAYER
 70
0
 71
3
 72
11
 73
7
 74
0
 42
0.0000001
 43
0.0000001
 44
0.0000000001
 40
0.0
 40
0.0
 40
0.0
 40
0.0
 40
0.2177164324
 40
0.4509408358
 40
0.7102939719
 40
1.0
 40
1.0
 40
1.0
 40
1.0
 10
199.2735404983
 20
457.5482999578
 30
0.0
 10
199.273540718
 20
457.517838637
 30
0.0
 10
199.2622606735
 20
457.4543303448
 30
0.0
 10
199.2141502007
 20
457.365820665
 30
0.0
 10
199.1380050847
 20
457.2858421862
 30
0.0
 10
199.0743314482
 20
457.2419721347
 30
0.0
 10
199.0392282785
 20
457.2217054312
 30
0.0
  0
SPLINE
  5
509
100
AcDbEntity
  8
0
100
AcDbSpline
 62
7
  6
BYLAYER
 70
0
 71
3
 72
9
 73
5
 74
0
 42
0.0000001
 43
0.0000001
 44
0.0000000001
 40
0.0
 40
0.0
 40
0.0
 40
0.0
 40
0.4657956456
 40
1.0
 40
1.0
 40
1.0
 40
1.0
 10
198.2109456352
 20
463.6708449856
 30
0.0
 10
198.2109459714
 20
463.6242172858
 30
0.0
 10
198.1825468736
 20
463.5232663187
 30
0.0
 10
198.1141146281
 20
463.4466316268
 30
0.0
 10
198.0734179354
 20
463.4119412351
 30
0.0
  0
SPLINE
  5
50A
100
AcDbEntity
  8
0
100
AcDbSpline
 62
7
  6
BYLAYER
 70
0
 71
3
 72
9
 73
5
 74
0
 42
0.0000001
 43
0.0000001
 44
0.0000000001
 40
0.0
 40
0.0
 40
0.0
 40
0.0
 40
0.4890411276
 40
1.0
 40
1.0
 40
1.0
 40
1.0
 10
164.0191775605
 20
460.9117632276
 30
0.0
 10
164.0300812635
 20
460.8379662306
 30
0.0
 10
164.0682654518
 20
460.6890722522
 30
0.0
 10
164.1342895298
 20
460.5505215852
 30
0.0
 10
164.1735844224
 20
460.4832104515
 30
0.0
  0
SPLINE
  5
50B
100
AcDbEntity
  8
0
100
AcDbSpline
 62
7
  6
BYLAYER
 70
0
 71
3
 72
11
 73
7
 74
0
 42
0.0000001
 43
0.0000001
 44
0.0000000001
 40
0.0
 40
0.0
 40
0.0
 40
0.0
 40
0.2897060281
 40
0.5490591642
 40
0.7822835677
 40
1.0
 40
1.0
 40
1.0
 40
1.0
 10
199.039228278
 20
459.6712126823
 30
0.0
 10
199.0743314478
 20
459.6914793858
 30
0.0
 10
199.1380050844
 20
459.7353494374
 30
0.0
 10
199.2141502005
 20
459.8153279162
 30
0.0
 10
199.2622606735
 20
459.9038375961
 30
0.0
 10
199.273540718
 20
459.9673458883
 30
0.0
 10
199.2735404983
 20
459.9978072092
 30
0.0
  0
SPLINE
  5
50C
100
AcDbEntity
  8
0
100
AcDbSpline
 62
7
  6
BYLAYER
 70
0
 71
3
 72
9
 73
5
 74
0
 42
0.0000001
 43
0.0000001
 44
0.0000000001
 40
0.0
 40
0.0
 40
0.0
 40
0.0
 40
0.5255663101
 40
1.0
 40
1.0
 40
1.0
 40
1.0
 10
188.6448004919
 20
453.861337935
 30
0.0
 10
188.7475207129
 20
453.8613381819
 30
0.0
 10
188.9434932497
 20
453.882582687
 30
0.0
 10
189.1301813019
 20
453.9502558927
 30
0.0
 10
189.2104849412
 20
453.9966189438
 30
0.0
  0
SPLINE
  5
50D
100
AcDbEntity
  8
0
100
AcDbSpline
 62
7
  6
BYLAYER
 70
0
 71
3
 72
9
 73
5
 74
0
 42
0.0000001
 43
0.0000001
 44
0.0000000001
 40
0.0
 40
0.0
 40
0.0
 40
0.0
 40
0.4744342232
 40
1.0
 40
1.0
 40
1.0
 40
1.0
 10
188.0791140914
 20
453.9966162243
 30
0.0
 10
188.1594183243
 20
453.9502536026
 30
0.0
 10
188.3461071109
 20
453.8825813247
 30
0.0
 10
188.5420801589
 20
453.8613376881
 30
0.0
 10
188.6448004919
 20
453.861337935
 30
0.0
  0
SPLINE
  5
50E
100
AcDbEntity
  8
0
100
AcDbSpline
 62
7
  6
BYLAYER
 70
0
 71
3
 72
10
 73
6
 74
0
 42
0.0000001
 43
0.0000001
 44
0.0000000001
 40
0.0
 40
0.0
 40
0.0
 40
0.0
 40
0.5249245071
 40
0.7714874903
 40
1.0
 40
1.0
 40
1.0
 40
1.0
 10
182.8111502891
 20
456.2607965719
 30
0.0
 10
183.2284485786
 20
456.260797575
 30
0.0
 10
183.8457180229
 20
456.1938238857
 30
0.0
 10
184.6078406576
 20
455.9622846778
 30
0.0
 10
184.9519280723
 20
455.8020570697
 30
0.0
 10
185.1092512911
 20
455.7112285218
 30
0.0
  0
SPLINE
  5
50F
100
AcDbEntity
  8
0
100
AcDbSpline
 62
7
  6
BYLAYER
 70
0
 71
3
 72
10
 73
6
 74
0
 42
0.0000001
 43
0.0000001
 44
0.0000000001
 40
0.0
 40
0.0
 40
0.0
 40
0.0
 40
0.2285121372
 40
0.4750749678
 40
1.0
 40
1.0
 40
1.0
 40
1.0
 10
180.5130572134
 20
455.7112174739
 30
0.0
 10
180.6703791919
 20
455.8020468183
 30
0.0
 10
181.0144644981
 20
455.9622761452
 30
0.0
 10
181.7765842768
 20
456.193819103
 30
0.0
 10
182.3938524544
 20
456.2607955689
 30
0.0
 10
182.8111502891
 20
456.2607965719
 30
0.0
  0
SPLINE
  5
510
100
AcDbEntity
  8
0
100
AcDbSpline
 62
7
  6
BYLAYER
 70
0
 71
3
 72
9
 73
5
 74
0
 42
0.0000001
 43
0.0000001
 44
0.0000000001
 40
0.0
 40
0.0
 40
0.0
 40
0.0
 40
0.5255286616
 40
1.0
 40
1.0
 40
1.0
 40
1.0
 10
178.0536197154
 20
454.4705081858
 30
0.0
 10
178.1526338924
 20
454.4720236359
 30
0.0
 10
178.3412373667
 20
454.494692584
 30
0.0
 10
178.5206797581
 20
454.56092468
 30
0.0
 10
178.5981068771
 20
454.6056269812
 30
0.0
  0
SPLINE
  5
511
100
AcDbEntity
  8
0
100
AcDbSpline
 62
7
  6
BYLAYER
 70
0
 71
3
 72
9
 73
5
 74
0
 42
0.0000001
 43
0.0000001
 44
0.0000000001
 40
0.0
 40
0.0
 40
0.0
 40
0.0
 40
0.4777615188
 40
1.0
 40
1.0
 40
1.0
 40
1.0
 10
177.497497419
 20
454.5887817297
 30
0.0
 10
177.5784404038
 20
454.5467586789
 30
0.0
 10
177.7622769143
 20
454.4862546023
 30
0.0
 10
177.9539395933
 20
454.4689825431
 30
0.0
 10
178.0536197154
 20
454.4705081858
 30
0.0
  0
LINE
  5
512
100
AcDbEntity
  8
0
100
AcDbLine
 62
7
  6
BYLAYER
 10
167.4797674191
 20
460.2365861945
 11
167.5510479265
 21
460.18920368
  0
SPLINE
  5
513
100
AcDbEntity
  8
0
100
AcDbSpline
 62
7
  6
BYLAYER
 70
0
 71
3
 72
11
 73
7
 74
0
 42
0.0000001
 43
0.0000001
 44
0.0000000001
 40
0.0
 40
0.0
 40
0.0
 40
0.0
 40
0.2855041359
 40
0.543399385
 40
0.7782808259
 40
1.0
 40
1.0
 40
1.0
 40
1.0
 10
167.48144744
 20
457.7859625197
 30
0.0
 10
167.4517101069
 20
457.8057167697
 30
0.0
 10
167.3978956812
 20
457.8478979408
 30
0.0
 10
167.3342905662
 20
457.9226120765
 30
0.0
 10
167.2944809293
 20
458.0037929012
 30
0.0
 10
167.2852850254
 20
458.0612190535
 30
0.0
 10
167.2852723304
 20
458.0889437903
 30
0.0
  0
SPLINE
  5
514
100
AcDbEntity
  8
0
100
AcDbSpline
 62
7
  6
BYLAYER
 70
0
 71
3
 72
11
 73
7
 74
0
 42
0.0000001
 43
0.0000001
 44
0.0000000001
 40
0.0
 40
0.0
 40
0.0
 40
0.0
 40
0.2899098314
 40
0.5492002083
 40
0.7823348475
 40
1.0
 40
1.0
 40
1.0
 40
1.0
 10
169.5528373379
 20
464.6925251212
 30
0.0
 10
169.6958344402
 20
464.610283556
 30
0.0
 10
169.955238406
 20
464.4323449221
 30
0.0
 10
170.2652055849
 20
464.1073478828
 30
0.0
 10
170.4614829947
 20
463.7478380834
 30
0.0
 10
170.5073311633
 20
463.4895919934
 30
0.0
 10
170.5073320564
 20
463.3657394394
 30
0.0
  0
SPLINE
  5
515
100
AcDbEntity
  8
0
100
AcDbSpline
 62
7
  6
BYLAYER
 70
0
 71
3
 72
9
 73
5
 74
0
 42
0.0000001
 43
0.0000001
 44
0.0000000001
 40
0.0
 40
0.0
 40
0.0
 40
0.0
 40
0.2307217008
 40
1.0
 40
1.0
 40
1.0
 40
1.0
 10
182.0590968774
 20
58.0704396934
 30
0.0
 10
182.0506792718
 20
58.0785344961
 30
0.0
 10
182.0123471341
 20
58.1116674248
 30
0.0
 10
181.9668666603
 20
58.1363297794
 30
0.0
 10
181.9303397043
 20
58.1498185845
 30
0.0
  0
SPLINE
  5
516
100
AcDbEntity
  8
0
100
AcDbSpline
 62
7
  6
BYLAYER
 70
0
 71
3
 72
9
 73
5
 74
0
 42
0.0000001
 43
0.0000001
 44
0.0000000001
 40
0.0
 40
0.0
 40
0.0
 40
0.0
 40
0.7318412326
 40
1.0
 40
1.0
 40
1.0
 40
1.0
 10
187.8815256456
 20
58.0960347467
 30
0.0
 10
187.8815001898
 20
58.0402596488
 30
0.0
 10
187.8583372126
 20
57.9629060355
 30
0.0
 10
187.8155341607
 20
57.8998961508
 30
0.0
 10
187.8030094087
 20
57.8837468963
 30
0.0
  0
SPLINE
  5
517
100
AcDbEntity
  8
0
100
AcDbSpline
 62
7
  6
BYLAYER
 70
0
 71
3
 72
8
 73
4
 74
0
 42
0.0000001
 43
0.0000001
 44
0.0000000001
 40
0.0
 40
0.0
 40
0.0
 40
0.0
 40
1.0
 40
1.0
 40
1.0
 40
1.0
 10
187.8030094087
 20
57.8837468963
 30
0.0
 10
187.7719402619
 20
57.8436867369
 30
0.0
 10
187.7341535144
 20
57.8085060811
 30
0.0
 10
187.6935344181
 20
57.7781713275
 30
0.0
  0
SPLINE
  5
518
100
AcDbEntity
  8
0
100
AcDbSpline
 62
7
  6
BYLAYER
 70
0
 71
3
 72
9
 73
5
 74
0
 42
0.0000001
 43
0.0000001
 44
0.0000000001
 40
0.0
 40
0.0
 40
0.0
 40
0.0
 40
0.2611751313
 40
1.0
 40
1.0
 40
1.0
 40
1.0
 10
164.1735844222
 20
68.1537990212
 30
0.0
 10
164.1497169522
 20
68.1939310064
 30
0.0
 10
164.066262453
 20
68.352054796
 30
0.0
 10
164.0190660425
 20
68.5301748723
 30
0.0
 10
164.0113598039
 20
68.6620371852
 30
0.0
  0
SPLINE
  5
519
100
AcDbEntity
  8
0
100
AcDbSpline
 62
7
  6
BYLAYER
 70
0
 71
3
 72
9
 73
5
 74
0
 42
0.0000001
 43
0.0000001
 44
0.0000000001
 40
0.0
 40
0.0
 40
0.0
 40
0.0
 40
0.2569022137
 40
1.0
 40
1.0
 40
1.0
 40
1.0
 10
164.8077732369
 20
67.4153994582
 30
0.0
 10
164.7488120978
 20
67.4743835992
 30
0.0
 10
164.523476763
 20
67.708086266
 30
0.0
 10
164.3153973143
 20
67.9586469411
 30
0.0
 10
164.1735844222
 20
68.1537990212
 30
0.0
  0
SPLINE
  5
51A
100
AcDbEntity
  8
0
100
AcDbSpline
 62
7
  6
BYLAYER
 70
0
 71
3
 72
9
 73
5
 74
0
 42
0.0000001
 43
0.0000001
 44
0.0000000001
 40
0.0
 40
0.0
 40
0.0
 40
0.0
 40
0.2568442547
 40
1.0
 40
1.0
 40
1.0
 40
1.0
 10
165.5978777552
 20
66.7289500438
 30
0.0
 10
165.5265070006
 20
66.783197069
 30
0.0
 10
165.2519628534
 20
66.998723242
 30
0.0
 10
164.9911500436
 20
67.2319511127
 30
0.0
 10
164.8077732369
 20
67.4153994582
 30
0.0
  0
SPLINE
  5
51B
100
AcDbEntity
  8
0
100
AcDbSpline
 62
7
  6
BYLAYER
 70
0
 71
3
 72
8
 73
4
 74
0
 42
0.0000001
 43
0.0000001
 44
0.0000000001
 40
0.0
 40
0.0
 40
0.0
 40
0.0
 40
1.0
 40
1.0
 40
1.0
 40
1.0
 10
165.7161814661
 20
66.679023744
 30
0.0
 10
165.6742117534
 20
66.6874254129
 30
0.0
 10
165.6317590036
 20
66.7027946269
 30
0.0
 10
165.5978777552
 20
66.7289500438
 30
0.0
  0
SPLINE
  5
51C
100
AcDbEntity
  8
0
100
AcDbSpline
 62
7
  6
BYLAYER
 70
0
 71
3
 72
8
 73
4
 74
0
 42
0.0000001
 43
0.0000001
 44
0.0000000001
 40
0.0
 40
0.0
 40
0.0
 40
0.0
 40
1.0
 40
1.0
 40
1.0
 40
1.0
 10
165.8615288707
 20
66.6758485722
 30
0.0
 10
165.8136293432
 20
66.6684950609
 30
0.0
 10
165.7636994031
 20
66.6695114089
 30
0.0
 10
165.7161814661
 20
66.679023744
 30
0.0
  0
SPLINE
  5
51D
100
AcDbEntity
  8
0
100
AcDbSpline
 62
7
  6
BYLAYER
 70
0
 71
3
 72
9
 73
5
 74
0
 42
0.0000001
 43
0.0000001
 44
0.0000000001
 40
0.0
 40
0.0
 40
0.0
 40
0.0
 40
0.2252697595
 40
1.0
 40
1.0
 40
1.0
 40
1.0
 10
166.3256469359
 20
66.5904814448
 30
0.0
 10
166.306960357
 20
66.6035331041
 30
0.0
 10
166.2185635005
 20
66.6535860761
 30
0.0
 10
166.1166435351
 20
66.6764717004
 30
0.0
 10
166.038483819
 20
66.6824616711
 30
0.0
  0
SPLINE
  5
51E
100
AcDbEntity
  8
0
100
AcDbSpline
 62
7
  6
BYLAYER
 70
0
 71
3
 72
8
 73
4
 74
0
 42
0.0000001
 43
0.0000001
 44
0.0000000001
 40
0.0
 40
0.0
 40
0.0
 40
0.0
 40
1.0
 40
1.0
 40
1.0
 40
1.0
 10
166.038483819
 20
66.6824616711
 30
0.0
 10
165.97963024
 20
66.6869720664
 30
0.0
 10
165.9198610702
 20
66.6848730898
 30
0.0
 10
165.8615288707
 20
66.6758485722
 30
0.0
  0
SPLINE
  5
51F
100
AcDbEntity
  8
0
100
AcDbSpline
 62
7
  6
BYLAYER
 70
0
 71
3
 72
8
 73
4
 74
0
 42
0.0000001
 43
0.0000001
 44
0.0000000001
 40
0.0
 40
0.0
 40
0.0
 40
0.0
 40
1.0
 40
1.0
 40
1.0
 40
1.0
 10
166.4219554286
 20
66.1532417859
 30
0.0
 10
166.4084366862
 20
66.162041493
 30
0.0
 10
166.3957148547
 20
66.1724801618
 30
0.0
 10
166.3851815854
 20
66.1846966047
 30
0.0
  0
SPLINE
  5
520
100
AcDbEntity
  8
0
100
AcDbSpline
 62
7
  6
BYLAYER
 70
0
 71
3
 72
8
 73
4
 74
0
 42
0.0000001
 43
0.0000001
 44
0.0000000001
 40
0.0
 40
0.0
 40
0.0
 40
0.0
 40
1.0
 40
1.0
 40
1.0
 40
1.0
 10
166.3851815854
 20
66.1846966047
 30
0.0
 10
166.3741886991
 20
66.1974461095
 30
0.0
 10
166.3652748253
 20
66.2128523771
 30
0.0
 10
166.3613492948
 20
66.2292225827
 30
0.0
  0
SPLINE
  5
521
100
AcDbEntity
  8
0
100
AcDbSpline
 62
7
  6
BYLAYER
 70
0
 71
3
 72
9
 73
5
 74
0
 42
0.0000001
 43
0.0000001
 44
0.0000000001
 40
0.0
 40
0.0
 40
0.0
 40
0.0
 40
0.2542522323
 40
1.0
 40
1.0
 40
1.0
 40
1.0
 10
173.4645511465
 20
61.9582817458
 30
0.0
 10
172.8544012675
 20
62.2906997206
 30
0.0
 10
170.4668964487
 20
63.6204860373
 30
0.0
 10
168.1296059429
 20
65.0408713093
 30
0.0
 10
166.4219554286
 20
66.1532417859
 30
0.0
  0
SPLINE
  5
522
100
AcDbEntity
  8
0
100
AcDbSpline
 62
7
  6
BYLAYER
 70
0
 71
3
 72
9
 73
5
 74
0
 42
0.0000001
 43
0.0000001
 44
0.0000000001
 40
0.0
 40
0.0
 40
0.0
 40
0.0
 40
0.2538499828
 40
1.0
 40
1.0
 40
1.0
 40
1.0
 10
181.1154571953
 20
58.1471992115
 30
0.0
 10
180.4570130001
 20
58.4466824422
 30
0.0
 10
177.8734068155
 20
59.6487511813
 30
0.0
 10
175.3316137729
 20
60.9410805655
 30
0.0
 10
173.4645511465
 20
61.9582817458
 30
0.0
  0
SPLINE
  5
523
100
AcDbEntity
  8
0
100
AcDbSpline
 62
7
  6
BYLAYER
 70
0
 71
3
 72
8
 73
4
 74
0
 42
0.0000001
 43
0.0000001
 44
0.0000000001
 40
0.0
 40
0.0
 40
0.0
 40
0.0
 40
1.0
 40
1.0
 40
1.0
 40
1.0
 10
181.2704454406
 20
58.1170228755
 30
0.0
 10
181.2178140578
 20
58.1166277231
 30
0.0
 10
181.1642682598
 20
58.1275091483
 30
0.0
 10
181.1154571953
 20
58.1471992115
 30
0.0
  0
SPLINE
  5
524
100
AcDbEntity
  8
0
100
AcDbSpline
 62
7
  6
BYLAYER
 70
0
 71
3
 72
8
 73
4
 74
0
 42
0.0000001
 43
0.0000001
 44
0.0000000001
 40
0.0
 40
0.0
 40
0.0
 40
0.0
 40
1.0
 40
1.0
 40
1.0
 40
1.0
 10
181.4437133993
 20
58.1543545684
 30
0.0
 10
181.3893618935
 20
58.1311917028
 30
0.0
 10
181.3295251138
 20
58.1174664411
 30
0.0
 10
181.2704454406
 20
58.1170228755
 30
0.0
  0
SPLINE
  5
525
100
AcDbEntity
  8
0
100
AcDbSpline
 62
7
  6
BYLAYER
 70
0
 71
3
 72
8
 73
4
 74
0
 42
0.0000001
 43
0.0000001
 44
0.0000000001
 40
0.0
 40
0.0
 40
0.0
 40
0.0
 40
1.0
 40
1.0
 40
1.0
 40
1.0
 10
181.9303397043
 20
58.1498185845
 30
0.0
 10
181.8764859842
 20
58.1697058792
 30
0.0
 10
181.819596828
 20
58.1823028866
 30
0.0
 10
181.7625322781
 20
58.1885770239
 30
0.0
  0
SPLINE
  5
526
100
AcDbEntity
  8
0
100
AcDbSpline
 62
7
  6
BYLAYER
 70
0
 71
3
 72
9
 73
5
 74
0
 42
0.0000001
 43
0.0000001
 44
0.0000000001
 40
0.0
 40
0.0
 40
0.0
 40
0.0
 40
0.7630551141
 40
1.0
 40
1.0
 40
1.0
 40
1.0
 10
181.7625322781
 20
58.1885770239
 30
0.0
 10
181.6810092285
 20
58.1975403262
 30
0.0
 10
181.5709944377
 20
58.1938365435
 30
0.0
 10
181.4672689857
 20
58.164035083
 30
0.0
 10
181.4437133993
 20
58.1543545684
 30
0.0
  0
SPLINE
  5
527
100
AcDbEntity
  8
0
100
AcDbSpline
 62
7
  6
BYLAYER
 70
0
 71
3
 72
8
 73
4
 74
0
 42
0.0000001
 43
0.0000001
 44
0.0000000001
 40
0.0
 40
0.0
 40
0.0
 40
0.0
 40
1.0
 40
1.0
 40
1.0
 40
1.0
 10
182.135457965
 20
57.7975879517
 30
0.0
 10
182.1227090499
 20
57.8140836055
 30
0.0
 10
182.1135188877
 20
57.835568599
 30
0.0
 10
182.1141921294
 20
57.8564057816
 30
0.0
  0
SPLINE
  5
528
100
AcDbEntity
  8
0
100
AcDbSpline
 62
7
  6
BYLAYER
 70
0
 71
3
 72
9
 73
5
 74
0
 42
0.0000001
 43
0.0000001
 44
0.0000000001
 40
0.0
 40
0.0
 40
0.0
 40
0.0
 40
0.2806453852
 40
1.0
 40
1.0
 40
1.0
 40
1.0
 10
182.2353706597
 20
57.7325547252
 30
0.0
 10
182.2247207987
 20
57.7361211567
 30
0.0
 10
182.1877900892
 20
57.7512140528
 30
0.0
 10
182.1530622116
 20
57.7748100483
 30
0.0
 10
182.135457965
 20
57.7975879517
 30
0.0
  0
SPLINE
  5
529
100
AcDbEntity
  8
0
100
AcDbSpline
 62
7
  6
BYLAYER
 70
0
 71
3
 72
9
 73
5
 74
0
 42
0.0000001
 43
0.0000001
 44
0.0000000001
 40
0.0
 40
0.0
 40
0.0
 40
0.0
 40
0.2576562241
 40
1.0
 40
1.0
 40
1.0
 40
1.0
 10
183.8376595557
 20
57.2993347017
 30
0.0
 10
183.6971016124
 20
57.323812277
 30
0.0
 10
183.1537891496
 20
57.4307789791
 30
0.0
 10
182.6195897745
 20
57.5864464482
 30
0.0
 10
182.2353706597
 20
57.7325547252
 30
0.0
  0
SPLINE
  5
52A
100
AcDbEntity
  8
0
100
AcDbSpline
 62
7
  6
BYLAYER
 70
0
 71
3
 72
9
 73
5
 74
0
 42
0.0000001
 43
0.0000001
 44
0.0000000001
 40
0.0
 40
0.0
 40
0.0
 40
0.0
 40
0.2523506897
 40
1.0
 40
1.0
 40
1.0
 40
1.0
 10
185.5876243815
 20
57.148773823
 30
0.0
 10
185.4397795609
 20
57.1490223202
 30
0.0
 10
184.85401368
 20
57.1622687721
 30
0.0
 10
184.2691912313
 20
57.2241852733
 30
0.0
 10
183.8376595557
 20
57.2993347017
 30
0.0
  0
SPLINE
  5
52B
100
AcDbEntity
  8
0
100
AcDbSpline
 62
7
  6
BYLAYER
 70
0
 71
3
 72
9
 73
5
 74
0
 42
0.0000001
 43
0.0000001
 44
0.0000000001
 40
0.0
 40
0.0
 40
0.0
 40
0.0
 40
0.2425871814
 40
1.0
 40
1.0
 40
1.0
 40
1.0
 10
186.7482085171
 20
57.3434367441
 30
0.0
 10
186.6569113898
 20
57.3161505908
 30
0.0
 10
186.2768805445
 20
57.2162000396
 30
0.0
 10
185.8847503208
 20
57.1638721159
 30
0.0
 10
185.5876243815
 20
57.148773823
 30
0.0
  0
SPLINE
  5
52C
100
AcDbEntity
  8
0
100
AcDbSpline
 62
7
  6
BYLAYER
 70
0
 71
3
 72
9
 73
5
 74
0
 42
0.0000001
 43
0.0000001
 44
0.0000000001
 40
0.0
 40
0.0
 40
0.0
 40
0.0
 40
0.2339435429
 40
1.0
 40
1.0
 40
1.0
 40
1.0
 10
187.6935344181
 20
57.7781713275
 30
0.0
 10
187.6263164515
 20
57.7323970369
 30
0.0
 10
187.3297701087
 20
57.5503147892
 30
0.0
 10
187.0033541287
 20
57.4196926185
 30
0.0
 10
186.7482085171
 20
57.3434367441
 30
0.0
  0
SPLINE
  5
52D
100
AcDbEntity
  8
0
100
AcDbSpline
 62
7
  6
BYLAYER
 70
0
 71
3
 72
9
 73
5
 74
0
 42
0.0000001
 43
0.0000001
 44
0.0000000001
 40
0.0
 40
0.0
 40
0.0
 40
0.0
 40
0.2349186692
 40
1.0
 40
1.0
 40
1.0
 40
1.0
 10
201.532588545
 20
65.7681052595
 30
0.0
 10
201.4888575703
 20
65.7485864761
 30
0.0
 10
201.2969115847
 20
65.6787317373
 30
0.0
 10
201.0894212531
 20
65.6554619078
 30
0.0
 10
200.9335314651
 20
65.6603168986
 30
0.0
  0
SPLINE
  5
52E
100
AcDbEntity
  8
0
100
AcDbSpline
 62
7
  6
BYLAYER
 70
0
 71
3
 72
9
 73
5
 74
0
 42
0.0000001
 43
0.0000001
 44
0.0000000001
 40
0.0
 40
0.0
 40
0.0
 40
0.0
 40
0.2306319194
 40
1.0
 40
1.0
 40
1.0
 40
1.0
 10
202.2855738243
 20
66.3138852403
 30
0.0
 10
202.2376742176
 20
66.2604630203
 30
0.0
 10
202.0158097563
 20
66.0415255371
 30
0.0
 10
201.7475731195
 20
65.8733365041
 30
0.0
 10
201.532588545
 20
65.7681052595
 30
0.0
  0
SPLINE
  5
52F
100
AcDbEntity
  8
0
100
AcDbSpline
 62
7
  6
BYLAYER
 70
0
 71
3
 72
9
 73
5
 74
0
 42
0.0000001
 43
0.0000001
 44
0.0000000001
 40
0.0
 40
0.0
 40
0.0
 40
0.0
 40
0.2362408478
 40
1.0
 40
1.0
 40
1.0
 40
1.0
 10
202.6227350503
 20
66.9839408452
 30
0.0
 10
202.6137593802
 20
66.9250581971
 30
0.0
 10
202.5548773252
 20
66.6788586888
 30
0.0
 10
202.4141251096
 20
66.4572579214
 30
0.0
 10
202.2855738243
 20
66.3138852403
 30
0.0
  0
SPLINE
  5
530
100
AcDbEntity
  8
0
100
AcDbSpline
 62
7
  6
BYLAYER
 70
0
 71
3
 72
8
 73
4
 74
0
 42
0.0000001
 43
0.0000001
 44
0.0000000001
 40
0.0
 40
0.0
 40
0.0
 40
0.0
 40
1.0
 40
1.0
 40
1.0
 40
1.0
 10
166.3837968846
 20
456.1914840905
 30
0.0
 10
166.3655390066
 20
456.1696257857
 30
0.0
 10
166.3547084563
 20
456.136739438
 30
0.0
 10
166.361349712
 20
456.1090441439
 30
0.0
  0
SPLINE
  5
531
100
AcDbEntity
  8
0
100
AcDbSpline
 62
7
  6
BYLAYER
 70
0
 71
3
 72
9
 73
5
 74
0
 42
0.0000001
 43
0.0000001
 44
0.0000000001
 40
0.0
 40
0.0
 40
0.0
 40
0.0
 40
0.2599110993
 40
1.0
 40
1.0
 40
1.0
 40
1.0
 10
201.6888445098
 20
455.7300777504
 30
0.0
 10
201.7243088556
 20
455.7498970964
 30
0.0
 10
201.8591464452
 20
455.8289618508
 30
0.0
 10
201.9873674305
 20
455.9195832041
 30
0.0
 10
202.0763606632
 20
455.9934940085
 30
0.0
  0
SPLINE
  5
532
100
AcDbEntity
  8
0
100
AcDbSpline
 62
7
  6
BYLAYER
 70
0
 71
3
 72
8
 73
4
 74
0
 42
0.0000001
 43
0.0000001
 44
0.0000000001
 40
0.0
 40
0.0
 40
0.0
 40
0.0
 40
1.0
 40
1.0
 40
1.0
 40
1.0
 10
201.241871792
 20
455.5614400725
 30
0.0
 10
201.2829283198
 20
455.5685219211
 30
0.0
 10
201.3237309967
 20
455.5774382055
 30
0.0
 10
201.3638851913
 20
455.588548188
 30
0.0
  0
SPLINE
  5
533
100
AcDbEntity
  8
0
100
AcDbSpline
 62
7
  6
BYLAYER
 70
0
 71
3
 72
8
 73
4
 74
0
 42
0.0000001
 43
0.0000001
 44
0.0000000001
 40
0.0
 40
0.0
 40
0.0
 40
0.0
 40
1.0
 40
1.0
 40
1.0
 40
1.0
 10
200.3580343689
 20
455.6845894471
 30
0.0
 10
200.4120961847
 20
455.6545714244
 30
0.0
 10
200.4694677475
 20
455.6301589249
 30
0.0
 10
200.5280604023
 20
455.6103937428
 30
0.0
  0
SPLINE
  5
534
100
AcDbEntity
  8
0
100
AcDbSpline
 62
7
  6
BYLAYER
 70
0
 71
3
 72
8
 73
4
 74
0
 42
0.0000001
 43
0.0000001
 44
0.0000000001
 40
0.0
 40
0.0
 40
0.0
 40
0.0
 40
1.0
 40
1.0
 40
1.0
 40
1.0
 10
182.113267369
 20
447.7363102375
 30
0.0
 10
182.1127922898
 20
447.7147174573
 30
0.0
 10
182.1245538181
 20
447.6934133598
 30
0.0
 10
182.1377613395
 20
447.6763243213
 30
0.0
  0
SPLINE
  5
535
100
AcDbEntity
  8
0
100
AcDbSpline
 62
7
  6
BYLAYER
 70
0
 71
3
 72
8
 73
4
 74
0
 42
0.0000001
 43
0.0000001
 44
0.0000000001
 40
0.0
 40
0.0
 40
0.0
 40
0.0
 40
1.0
 40
1.0
 40
1.0
 40
1.0
 10
187.7394209719
 20
447.6956887262
 30
0.0
 10
187.7632706337
 20
447.7172014477
 30
0.0
 10
187.7855209727
 20
447.7407437074
 30
0.0
 10
187.8050215705
 20
447.7662648799
 30
0.0
  0
SPLINE
  5
536
100
AcDbEntity
  8
0
100
AcDbSpline
 62
7
  6
BYLAYER
 70
0
 71
3
 72
8
 73
4
 74
0
 42
0.0000001
 43
0.0000001
 44
0.0000000001
 40
0.0
 40
0.0
 40
0.0
 40
0.0
 40
1.0
 40
1.0
 40
1.0
 40
1.0
 10
187.8050215705
 20
447.7662648799
 30
0.0
 10
187.8166115307
 20
447.7814331007
 30
0.0
 10
187.8272767177
 20
447.7973714164
 30
0.0
 10
187.8367061383
 20
447.8139692514
 30
0.0
  0
SPLINE
  5
537
100
AcDbEntity
  8
0
100
AcDbSpline
 62
7
  6
BYLAYER
 70
0
 71
3
 72
8
 73
4
 74
0
 42
0.0000001
 43
0.0000001
 44
0.0000000001
 40
0.0
 40
0.0
 40
0.0
 40
0.0
 40
1.0
 40
1.0
 40
1.0
 40
1.0
 10
187.8367061383
 20
447.8139692514
 30
0.0
 10
187.8501821489
 20
447.8376899665
 30
0.0
 10
187.8612433983
 20
447.8630298467
 30
0.0
 10
187.8689068618
 20
447.8892127899
 30
0.0
  0
SPLINE
  5
538
100
AcDbEntity
  8
0
100
AcDbSpline
 62
7
  6
BYLAYER
 70
0
 71
3
 72
8
 73
4
 74
0
 42
0.0000001
 43
0.0000001
 44
0.0000000001
 40
0.0
 40
0.0
 40
0.0
 40
0.0
 40
1.0
 40
1.0
 40
1.0
 40
1.0
 10
187.8689068618
 20
447.8892127899
 30
0.0
 10
187.8771129511
 20
447.917249665
 30
0.0
 10
187.8815123127
 20
447.946725811
 30
0.0
 10
187.8815256456
 20
447.975938926
 30
0.0
  0
SPLINE
  5
539
100
AcDbEntity
  8
0
100
AcDbSpline
 62
7
  6
BYLAYER
 70
0
 71
3
 72
8
 73
4
 74
0
 42
0.0000001
 43
0.0000001
 44
0.0000000001
 40
0.0
 40
0.0
 40
0.0
 40
0.0
 40
1.0
 40
1.0
 40
1.0
 40
1.0
 10
187.0951335633
 20
447.3441301393
 30
0.0
 10
187.2030313904
 20
447.3874473419
 30
0.0
 10
187.309076987
 20
447.4358460276
 30
0.0
 10
187.4120342034
 20
447.4898657715
 30
0.0
  0
SPLINE
  5
53A
100
AcDbEntity
  8
0
100
AcDbSpline
 62
7
  6
BYLAYER
 70
0
 71
3
 72
9
 73
5
 74
0
 42
0.0000001
 43
0.0000001
 44
0.0000000001
 40
0.0
 40
0.0
 40
0.0
 40
0.0
 40
0.2186303641
 40
1.0
 40
1.0
 40
1.0
 40
1.0
 10
182.1377613395
 20
447.6763243213
 30
0.0
 10
182.1432860658
 20
447.6691759505
 30
0.0
 10
182.1710606903
 20
447.6381879774
 30
0.0
 10
182.210796738
 20
447.6208382921
 30
0.0
 10
182.2414141477
 20
447.6105851166
 30
0.0
  0
SPLINE
  5
53B
100
AcDbEntity
  8
0
100
AcDbSpline
 62
7
  6
BYLAYER
 70
0
 71
3
 72
9
 73
5
 74
0
 42
0.0000001
 43
0.0000001
 44
0.0000000001
 40
0.0
 40
0.0
 40
0.0
 40
0.0
 40
0.2723089614
 40
1.0
 40
1.0
 40
1.0
 40
1.0
 10
181.919084294
 20
448.0322958087
 30
0.0
 10
181.9339564248
 20
448.026803775
 30
0.0
 10
181.9875612158
 20
448.0042845379
 30
0.0
 10
182.0379077167
 20
447.972016698
 30
0.0
 10
182.0677017784
 20
447.9418969659
 30
0.0
  0
SPLINE
  5
53C
100
AcDbEntity
  8
0
100
AcDbSpline
 62
7
  6
BYLAYER
 70
0
 71
3
 72
8
 73
4
 74
0
 42
0.0000001
 43
0.0000001
 44
0.0000000001
 40
0.0
 40
0.0
 40
0.0
 40
0.0
 40
1.0
 40
1.0
 40
1.0
 40
1.0
 10
182.0677017784
 20
447.9418969659
 30
0.0
 10
182.0800396297
 20
447.9294242531
 30
0.0
 10
182.0912729037
 20
447.9156655807
 30
0.0
 10
182.1005573528
 20
447.9007796764
 30
0.0
  0
SPLINE
  5
53D
100
AcDbEntity
  8
0
100
AcDbSpline
 62
7
  6
BYLAYER
 70
0
 71
3
 72
8
 73
4
 74
0
 42
0.0000001
 43
0.0000001
 44
0.0000000001
 40
0.0
 40
0.0
 40
0.0
 40
0.0
 40
1.0
 40
1.0
 40
1.0
 40
1.0
 10
182.1005573528
 20
447.9007796764
 30
0.0
 10
182.11666458
 20
447.8749547037
 30
0.0
 10
182.127084543
 20
447.8438913695
 30
0.0
 10
182.1272372587
 20
447.813455393
 30
0.0
  0
SPLINE
  5
53E
100
AcDbEntity
  8
0
100
AcDbSpline
 62
7
  6
BYLAYER
 70
0
 71
3
 72
8
 73
4
 74
0
 42
0.0000001
 43
0.0000001
 44
0.0000000001
 40
0.0
 40
0.0
 40
0.0
 40
0.0
 40
1.0
 40
1.0
 40
1.0
 40
1.0
 10
181.4175859226
 20
448.0263210279
 30
0.0
 10
181.4361015082
 20
448.0339302801
 30
0.0
 10
181.4551039922
 20
448.0404144625
 30
0.0
 10
181.4743396063
 20
448.045956915
 30
0.0
  0
SPLINE
  5
53F
100
AcDbEntity
  8
0
100
AcDbSpline
 62
7
  6
BYLAYER
 70
0
 71
3
 72
8
 73
4
 74
0
 42
0.0000001
 43
0.0000001
 44
0.0000000001
 40
0.0
 40
0.0
 40
0.0
 40
0.0
 40
1.0
 40
1.0
 40
1.0
 40
1.0
 10
181.4743396063
 20
448.045956915
 30
0.0
 10
181.5405785372
 20
448.0650426654
 30
0.0
 10
181.6104018894
 20
448.0735573642
 30
0.0
 10
181.6793348515
 20
448.0732278863
 30
0.0
  0
SPLINE
  5
540
100
AcDbEntity
  8
0
100
AcDbSpline
 62
7
  6
BYLAYER
 70
0
 71
3
 72
8
 73
4
 74
0
 42
0.0000001
 43
0.0000001
 44
0.0000000001
 40
0.0
 40
0.0
 40
0.0
 40
0.0
 40
1.0
 40
1.0
 40
1.0
 40
1.0
 10
181.7479814001
 20
448.0698719023
 30
0.0
 10
181.806120212
 20
448.064424476
 30
0.0
 10
181.8643065373
 20
448.0525243349
 30
0.0
 10
181.919084294
 20
448.0322958087
 30
0.0
  0
SPLINE
  5
541
100
AcDbEntity
  8
0
100
AcDbSpline
 62
7
  6
BYLAYER
 70
0
 71
3
 72
8
 73
4
 74
0
 42
0.0000001
 43
0.0000001
 44
0.0000000001
 40
0.0
 40
0.0
 40
0.0
 40
0.0
 40
1.0
 40
1.0
 40
1.0
 40
1.0
 10
181.2732095143
 20
447.997640721
 30
0.0
 10
181.3222739685
 20
447.9980090932
 30
0.0
 10
181.3724481142
 20
448.007084744
 30
0.0
 10
181.4175859226
 20
448.0263210279
 30
0.0
  0
SPLINE
  5
542
100
AcDbEntity
  8
0
100
AcDbSpline
 62
7
  6
BYLAYER
 70
0
 71
3
 72
8
 73
4
 74
0
 42
0.0000001
 43
0.0000001
 44
0.0000000001
 40
0.0
 40
0.0
 40
0.0
 40
0.0
 40
1.0
 40
1.0
 40
1.0
 40
1.0
 10
181.1210763335
 20
448.024407292
 30
0.0
 10
181.1688274912
 20
448.0051447882
 30
0.0
 10
181.2217209945
 20
447.9972541492
 30
0.0
 10
181.2732095143
 20
447.997640721
 30
0.0
  0
SPLINE
  5
543
100
AcDbEntity
  8
0
100
AcDbSpline
 62
7
  6
BYLAYER
 70
0
 71
3
 72
9
 73
5
 74
0
 42
0.0000001
 43
0.0000001
 44
0.0000000001
 40
0.0
 40
0.0
 40
0.0
 40
0.0
 40
0.7161712819
 40
1.0
 40
1.0
 40
1.0
 40
1.0
 10
166.361349712
 20
456.1090441439
 30
0.0
 10
166.3668257778
 20
456.0862079124
 30
0.0
 10
166.3879658602
 20
456.0576003899
 30
0.0
 10
166.4141907801
 20
456.0382008417
 30
0.0
 10
166.4219907796
 20
456.0331236157
 30
0.0
  0
SPLINE
  5
544
100
AcDbEntity
  8
0
100
AcDbSpline
 62
7
  6
BYLAYER
 70
0
 71
3
 72
8
 73
4
 74
0
 42
0.0000001
 43
0.0000001
 44
0.0000000001
 40
0.0
 40
0.0
 40
0.0
 40
0.0
 40
1.0
 40
1.0
 40
1.0
 40
1.0
 10
166.3255871263
 20
456.4703745264
 30
0.0
 10
166.3503957105
 20
456.4530469463
 30
0.0
 10
166.373445419
 20
456.4322774486
 30
0.0
 10
166.3916398035
 20
456.4080973895
 30
0.0
  0
SPLINE
  5
545
100
AcDbEntity
  8
0
100
AcDbSpline
 62
7
  6
BYLAYER
 70
0
 71
3
 72
8
 73
4
 74
0
 42
0.0000001
 43
0.0000001
 44
0.0000000001
 40
0.0
 40
0.0
 40
0.0
 40
0.0
 40
1.0
 40
1.0
 40
1.0
 40
1.0
 10
165.9376458413
 20
456.5635837096
 30
0.0
 10
165.9996061865
 20
456.5668319458
 30
0.0
 10
166.0624641084
 20
456.5628443739
 30
0.0
 10
166.1233497516
 20
456.5509039435
 30
0.0
  0
SPLINE
  5
546
100
AcDbEntity
  8
0
100
AcDbSpline
 62
7
  6
BYLAYER
 70
0
 71
3
 72
8
 73
4
 74
0
 42
0.0000001
 43
0.0000001
 44
0.0000000001
 40
0.0
 40
0.0
 40
0.0
 40
0.0
 40
1.0
 40
1.0
 40
1.0
 40
1.0
 10
166.188382461
 20
456.5347403004
 30
0.0
 10
166.2367039905
 20
456.5200080941
 30
0.0
 10
166.2841715394
 20
456.4993012836
 30
0.0
 10
166.3255871263
 20
456.4703745264
 30
0.0
  0
SPLINE
  5
547
100
AcDbEntity
  8
0
100
AcDbSpline
 62
7
  6
BYLAYER
 70
0
 71
3
 72
8
 73
4
 74
0
 42
0.0000001
 43
0.0000001
 44
0.0000000001
 40
0.0
 40
0.0
 40
0.0
 40
0.0
 40
1.0
 40
1.0
 40
1.0
 40
1.0
 10
165.7160198425
 20
456.5589472597
 30
0.0
 10
165.7637403338
 20
456.5493943764
 30
0.0
 10
165.8138846983
 20
456.548447266
 30
0.0
 10
165.8619884066
 20
456.5558321231
 30
0.0
  0
SPLINE
  5
548
100
AcDbEntity
  8
0
100
AcDbSpline
 62
7
  6
BYLAYER
 70
0
 71
3
 72
8
 73
4
 74
0
 42
0.0000001
 43
0.0000001
 44
0.0000000001
 40
0.0
 40
0.0
 40
0.0
 40
0.0
 40
1.0
 40
1.0
 40
1.0
 40
1.0
 10
165.5978449256
 20
456.6088802968
 30
0.0
 10
165.631695559
 20
456.5827485138
 30
0.0
 10
165.6740880535
 20
456.5673413368
 30
0.0
 10
165.7160198425
 20
456.5589472597
 30
0.0
  0
SPLINE
  5
549
100
AcDbEntity
  8
0
100
AcDbSpline
 62
7
  6
BYLAYER
 70
0
 71
3
 72
8
 73
4
 74
0
 42
0.0000001
 43
0.0000001
 44
0.0000000001
 40
0.0
 40
0.0
 40
0.0
 40
0.0
 40
1.0
 40
1.0
 40
1.0
 40
1.0
 10
164.0904994188
 20
458.1997408872
 30
0.0
 10
164.1139164372
 20
458.1424536767
 30
0.0
 10
164.141949654
 20
458.0868955184
 30
0.0
 10
164.1735844222
 20
458.0337032006
 30
0.0
  0
SPLINE
  5
54A
100
AcDbEntity
  8
0
100
AcDbSpline
 62
7
  6
BYLAYER
 70
0
 71
3
 72
8
 73
4
 74
0
 42
0.0000001
 43
0.0000001
 44
0.0000000001
 40
0.0
 40
0.0
 40
0.0
 40
0.0
 40
1.0
 40
1.0
 40
1.0
 40
1.0
 10
202.2855738243
 20
456.1937894197
 30
0.0
 10
202.3454117066
 20
456.2605263457
 30
0.0
 10
202.4003993019
 20
456.3321368142
 30
0.0
 10
202.4480609154
 20
456.4080496592
 30
0.0
  0
ENDSEC
  0
SECTION
  2
OBJECTS
  0
DICTIONARY
  5
C
100
AcDbDictionary
280
0
281
1
  3
ACAD_GROUP
350
D
  3
ACAD_MLINESTYLE
350
17
  3
ACAD_LAYOUT
350
1A
  3
ACAD_PLOTSETTINGS
350
19
  3
ACAD_PLOTSTYLENAME
350
E
  0
DICTIONARY
  5
D
102
{ACAD_REACTORS
330
C
102
}
100
AcDbDictionary
280
0
281
1
  0
ACDBDICTIONARYWDFLT
  5
E
102
{ACAD_REACTORS
330
C
102
}
100
AcDbDictionary
281
1
  3
Normal
350
F
100
AcDbDictionaryWithDefault
340
F
  0
DICTIONARY
  5
17
102
{ACAD_REACTORS
330
C
102
}
100
AcDbDictionary
280
0
281
1
  3
Standard
350
18
  0
DICTIONARY
  5
19
102
{ACAD_REACTORS
330
C
102
}
100
AcDbDictionary
281
1
  0
DICTIONARY
  5
1A
102
{ACAD_REACTORS
330
C
102
}
100
AcDbDictionary
281
1
  3
Model
350
54B
  3
Layout1
350
54C
  0
ACDBPLACEHOLDER
  5
F
102
{ACAD_REACTORS
330
E
102
}
  0
MLINESTYLE
  5
18
102
{ACAD_REACTORS
330
17
102
}
100
AcDbMlineStyle
  2
STANDARD
 70
0
  3

 62
256
 51
90.0
 52
90.0
 71
2
 49
0.5
 62
256
  6
BYLAYER
 49
-0.5
 62
256
  6
BYLAYER
  0
LAYOUT
  5
54B
102
{ACAD_REACTORS
330
1A
102
}
100
AcDbPlotSettings
  1

  2
none_device
  4

  6

 40
0.0
 41
0.0
 42
0.0
 43
0.0
 44
210.0
 45
297.0
 46
0.0
 47
0.0
 48
0.0
 49
0.0
140
0.0
141
0.0
142
1.0
143
1.0
 70
1024
 72
1
 73
0
 74
0
  7

 75
0
147
1.0
148
0.0
149
0.0
100
AcDbLayout
  1
Model
 70
0
 71
0
 10
0.0
 20
0.0
 11
210.0
 21
297.0
 12
0.0
 22
0.0
 32
0.0
 14
0.0
 24
0.0
 34
0.0
 15
0.0
 25
0.0
 35
0.0
146
0.0
 13
0.0
 23
0.0
 33
0.0
 16
1.0
 26
0.0
 36
0.0
 17
0.0
 27
1.0
 37
0.0
 76
0
330
210
345
0
346
0
  0
LAYOUT
  5
54C
102
{ACAD_REACTORS
330
1A
102
}
100
AcDbPlotSettings
  1

  2
none_device
  4

  6

 40
0.0
 41
0.0
 42
0.0
 43
0.0
 44
210.0
 45
297.0
 46
0.0
 47
0.0
 48
0.0
 49
0.0
140
0.0
141
0.0
142
1.0
143
1.0
 70
0
 72
1
 73
0
 74
0
  7

 75
0
147
1.0
148
0.0
149
0.0
100
AcDbLayout
  1
Layout1
 70
0
 71
1
 10
0.0
 20
0.0
 11
210.0
 21
297.0
 12
0.0
 22
0.0
 32
0.0
 14
0.0
 24
0.0
 34
0.0
 15
0.0
 25
0.0
 35
0.0
146
0.0
 13
0.0
 23
0.0
 33
0.0
 16
1.0
 26
0.0
 36
0.0
 17
0.0
 27
1.0
 37
0.0
 76
0
330
211
345
0
346
0
  0
ENDSEC
  0
EOF
