999
DXF file: C:\Users\sesa63760\Dev\_Creo\CAD\MCADID0004137_3D-CAD\drw0001_4.dxf
999
Pro/ENGINEER 2019471 by Parametric Technology Corporation
  0
SECTION
  2
HEADER
  9
$ACADVER
  1
AC1024
  9
$DWGCODEPAGE
  3
ANSI_1252
  9
$EXTMAX
 10
48.3236591934
 20
68.3434608593
 30
0.0
  9
$EXTMIN
 10
0.0
 20
0.0
 30
0.0
  9
$LIMMIN
 10
0.0
 20
0.0
  9
$LIMMAX
 10
48.3236591934
 20
68.3434608593
  9
$VIEWCTR
 10
24.1618295967
 20
34.1717304296
  9
$VIEWSIZE
 40
68.3434608593
  9
$CLAYER
  8
0
  9
$LTSCALE
 40
4.4549811523
  9
$CELTYPE
  6
BYLAYER
  9
$DIMSCALE
 40
1.0
  9
$DIMASZ
 40
0.5752816571
  9
$DIMEXO
 40
1.0
  9
$DIMDLI
 40
3.077986978
  9
$DIMEXE
 40
1.0
  9
$DIMCEN
 40
0.7289969158
  9
$DIMLFAC
 40
1.0
  9
$DIMBLK
  1
_FILLED
  9
$DIMALT
 70
0
  9
$DIMALTF
 40
0.0393700787
  9
$DIMTXT
 40
0.8053943199
  9
$DIMTOL
 70
1
  9
$DIMLIM
 70
0
  9
$DIMTFAC
 40
1.0
  9
$DIMTP
 40
0.01
  9
$DIMTM
 40
0.01
  9
$DIMGAP
 40
0.625
  9
$DIMDSEP
 70
46
  9
$AUNITS
 70
0
  9
$PDMODE
 70
3
  9
$PDSIZE
 40
0.3125
  9
$HANDSEED
  5
23E
  9
$TILEMODE
 70
1
  9
$MEASUREMENT
 70
1
  9
$INSUNITS
 70
4
  0
ENDSEC
  0
SECTION
  2
CLASSES
  0
CLASS
  1
ACDBDICTIONARYWDFLT
  2
AcDbDictionaryWithDefault
  3
AutoCAD 2000
 90
0
 91
1
280
0
281
0
  0
CLASS
  1
ACDBPLACEHOLDER
  2
AcDbPlaceHolder
  3
AutoCAD 2000
 90
0
 91
1
280
0
281
0
  0
CLASS
  1
LAYOUT
  2
AcDbLayout
  3
AutoCAD 2000
 90
0
 91
0
280
0
281
0
  0
ENDSEC
  0
SECTION
  2
TABLES
  0
TABLE
  2
VPORT
  5
8
100
AcDbSymbolTable
 70
2
  0
VPORT
  5
1F4
100
AcDbSymbolTableRecord
100
AcDbViewportTableRecord
  2
*ACTIVE
 70
0
 10
0.0
 20
0.0
 11
1.0
 21
1.0
 12
24.1618295967
 22
34.1717304296
 13
0.0
 23
0.0
 14
1.0
 24
1.0
 15
0.0
 25
0.0
 16
0.0
 26
0.0
 36
1.0
 17
0.0
 27
0.0
 37
0.0
 40
68.3434608593
 41
0.7070707071
 42
50.0
 43
0.0
 44
0.0
 50
0.0
 51
0.0
 71
0
 72
100
 73
1
 74
1
 75
0
 76
0
 77
0
 78
0
  0
ENDTAB
  0
TABLE
  2
LTYPE
  5
5
100
AcDbSymbolTable
 70
6
  0
LTYPE
  5
14
100
AcDbSymbolTableRecord
100
AcDbLinetypeTableRecord
  2
BYBLOCK
 70
0
  3

 72
65
 73
0
 40
0.0
  0
LTYPE
  5
15
100
AcDbSymbolTableRecord
100
AcDbLinetypeTableRecord
  2
BYLAYER
 70
0
  3

 72
65
 73
0
 40
0.0
  0
LTYPE
  5
16
100
AcDbSymbolTableRecord
100
AcDbLinetypeTableRecord
  2
CONTINUOUS
 70
64
  3
Solid line
 72
65
 73
0
 40
0.0
  0
LTYPE
  5
1F5
100
AcDbSymbolTableRecord
100
AcDbLinetypeTableRecord
  2
CENTER
 70
64
  3
____ _ ____ _ ____ _ ____ _ ____ _ ____ _ ____
 72
65
 73
4
 40
0.6
 49
0.375
 74
0
 49
-0.075
 74
0
 49
0.075
 74
0
 49
-0.075
 74
0
  0
LTYPE
  5
1F6
100
AcDbSymbolTableRecord
100
AcDbLinetypeTableRecord
  2
HIDDEN
 70
64
  3
- - - - - - - - - - - - - - - - - - - -
 72
65
 73
2
 40
0.2
 49
0.1
 74
0
 49
-0.1
 74
0
  0
LTYPE
  5
1F7
100
AcDbSymbolTableRecord
100
AcDbLinetypeTableRecord
  2
PHANTOM
 70
64
  3
_____ _ _ _____ _ _ _____ _ _ _____
 72
65
 73
6
 40
0.8
 49
0.45
 74
0
 49
-0.05
 74
0
 49
0.1
 74
0
 49
-0.05
 74
0
 49
0.1
 74
0
 49
-0.05
 74
0
  0
LTYPE
  5
1F8
100
AcDbSymbolTableRecord
100
AcDbLinetypeTableRecord
  2
DOT
 70
64
  3
. . . . . . . . . . . . . . . . . . . .
 72
65
 73
2
 40
0.2
 49
0.1
 74
0
 49
-0.1
 74
0
  0
LTYPE
  5
1F9
100
AcDbSymbolTableRecord
100
AcDbLinetypeTableRecord
  2
DASHED
 70
64
  3
- - - - - - - - - - - - - - - - - - - -
 72
65
 73
2
 40
0.2
 49
0.1
 74
0
 49
-0.1
 74
0
  0
ENDTAB
  0
TABLE
  2
LAYER
  5
2
100
AcDbSymbolTable
 70
36
  0
LAYER
  5
10
100
AcDbSymbolTableRecord
100
AcDbLayerTableRecord
  2
0
 70
0
 62
7
  6
CONTINUOUS
370
-3
390
F
  0
LAYER
  5
1FA
100
AcDbSymbolTableRecord
100
AcDbLayerTableRecord
  2
DEFAULT_1
 70
0
 62
7
  6
CENTER
370
-3
390
F
  0
LAYER
  5
1FB
100
AcDbSymbolTableRecord
100
AcDbLayerTableRecord
  2
DEFAULT_2
 70
0
 62
7
  6
HIDDEN
370
-3
390
F
  0
LAYER
  5
1FC
100
AcDbSymbolTableRecord
100
AcDbLayerTableRecord
  2
DEFAULT_3
 70
0
 62
7
  6
PHANTOM
370
-3
390
F
  0
LAYER
  5
1FD
100
AcDbSymbolTableRecord
100
AcDbLayerTableRecord
  2
00_COMPONENTS
 70
0
 62
7
  6
CONTINUOUS
370
-3
390
F
  0
LAYER
  5
1FE
100
AcDbSymbolTableRecord
100
AcDbLayerTableRecord
  2
01_1_DEFAULT_DATUMS
 70
0
 62
7
  6
CONTINUOUS
370
-3
390
F
  0
LAYER
  5
1FF
100
AcDbSymbolTableRecord
100
AcDbLayerTableRecord
  2
01_PLANES
 70
0
 62
7
  6
CONTINUOUS
370
-3
390
F
  0
LAYER
  5
200
100
AcDbSymbolTableRecord
100
AcDbLayerTableRecord
  2
02_COORD_SYS
 70
0
 62
7
  6
CONTINUOUS
370
-3
390
F
  0
LAYER
  5
201
100
AcDbSymbolTableRecord
100
AcDbLayerTableRecord
  2
03_AXES
 70
0
 62
7
  6
CONTINUOUS
370
-3
390
F
  0
LAYER
  5
202
100
AcDbSymbolTableRecord
100
AcDbLayerTableRecord
  2
04_POINTS
 70
0
 62
7
  6
CONTINUOUS
370
-3
390
F
  0
LAYER
  5
203
100
AcDbSymbolTableRecord
100
AcDbLayerTableRecord
  2
05_CURVES
 70
0
 62
7
  6
CONTINUOUS
370
-3
390
F
  0
LAYER
  5
204
100
AcDbSymbolTableRecord
100
AcDbLayerTableRecord
  2
06_SURFS
 70
0
 62
7
  6
CONTINUOUS
370
-3
390
F
  0
LAYER
  5
205
100
AcDbSymbolTableRecord
100
AcDbLayerTableRecord
  2
07_COSMETICS
 70
0
 62
7
  6
CONTINUOUS
370
-3
390
F
  0
LAYER
  5
206
100
AcDbSymbolTableRecord
100
AcDbLayerTableRecord
  2
10_NOTES
 70
0
 62
7
  6
CONTINUOUS
370
-3
390
F
  0
LAYER
  5
207
100
AcDbSymbolTableRecord
100
AcDbLayerTableRecord
  2
11_NOTES_PUB
 70
0
 62
7
  6
CONTINUOUS
370
-3
390
F
  0
LAYER
  5
208
100
AcDbSymbolTableRecord
100
AcDbLayerTableRecord
  2
13_REF_GTOL
 70
0
 62
7
  6
CONTINUOUS
370
-3
390
F
  0
LAYER
  5
209
100
AcDbSymbolTableRecord
100
AcDbLayerTableRecord
  2
16_MISC
 70
0
 62
7
  6
CONTINUOUS
370
-3
390
F
  0
LAYER
  5
20A
100
AcDbSymbolTableRecord
100
AcDbLayerTableRecord
  2
17_NO_PRINT
 70
0
 62
7
  6
CONTINUOUS
370
-3
390
F
  0
LAYER
  5
20B
100
AcDbSymbolTableRecord
100
AcDbLayerTableRecord
  2
18_DATUM_CAMS_JOINTS
 70
0
 62
7
  6
CONTINUOUS
370
-3
390
F
  0
LAYER
  5
20C
100
AcDbSymbolTableRecord
100
AcDbLayerTableRecord
  2
19_DATUM_FUNCTIONAL
 70
0
 62
7
  6
CONTINUOUS
370
-3
390
F
  0
LAYER
  5
20D
100
AcDbSymbolTableRecord
100
AcDbLayerTableRecord
  2
20_DATUM_KINEMATIC_SCHEME
 70
0
 62
7
  6
CONTINUOUS
370
-3
390
F
  0
ENDTAB
  0
TABLE
  2
STYLE
  5
3
100
AcDbSymbolTable
 70
1
  0
STYLE
  5
11
100
AcDbSymbolTableRecord
100
AcDbTextStyleTableRecord
  2
STANDARD
 70
0
 40
0.0
 41
1.0
 50
0.0
 71
0
 42
0.2
  3
ARIAL.TTF
  4

  0
STYLE
  5
20E
100
AcDbSymbolTableRecord
100
AcDbTextStyleTableRecord
  2
TEXTSTYLE_1
 70
0
 40
0.0
 41
0.8
 50
0.0
 71
0
 42
0.2
  3
gdt
  4

  0
ENDTAB
  0
TABLE
  2
VIEW
  5
6
100
AcDbSymbolTable
 70
0
  0
ENDTAB
  0
TABLE
  2
UCS
  5
7
100
AcDbSymbolTable
 70
0
  0
ENDTAB
  0
TABLE
  2
APPID
  5
9
100
AcDbSymbolTable
 70
1
  0
APPID
  5
20F
100
AcDbSymbolTableRecord
100
AcDbRegAppTableRecord
  2
ACAD
 70
0
  0
ENDTAB
  0
TABLE
  2
BLOCK_RECORD
  5
1
100
AcDbSymbolTable
 70
0
  0
BLOCK_RECORD
  5
210
100
AcDbSymbolTableRecord
100
AcDbBlockTableRecord
  2
*Model_Space
  0
BLOCK_RECORD
  5
211
100
AcDbSymbolTableRecord
100
AcDbBlockTableRecord
  2
*Paper_Space
  0
BLOCK_RECORD
  5
212
100
AcDbSymbolTableRecord
100
AcDbBlockTableRecord
  2
_FILLED
  0
ENDTAB
  0
TABLE
  2
DIMSTYLE
  5
A
100
AcDbSymbolTable
 70
1
100
AcDbDimStyleTable
 71
0
  0
DIMSTYLE
105
213
100
AcDbSymbolTableRecord
100
AcDbDimStyleTableRecord
  2
STANDARD
 70
0
  3

  4

 40
1.0
 41
0.5752816571
 42
1.0
 43
0.38
 44
1.0
 45
0.0
 46
0.0
 47
0.01
 48
0.01
140
0.8053943199
141
0.09
142
0.0
143
25.4
144
1.0
145
0.0
146
1.0
147
0.625
 71
1
 72
0
 73
0
 74
0
 75
0
 76
0
 77
1
 78
8
 79
2
170
0
171
1
172
0
173
0
174
0
175
0
176
0
177
0
178
0
270
2
179
2
271
2
272
2
273
2
274
2
275
0
280
0
281
0
282
0
283
1
284
8
285
0
286
0
287
3
288
0
340
11
278
46
341
212
342
212
343
212
344
212
  0
ENDTAB
  0
ENDSEC
  0
SECTION
  2
BLOCKS
  0
BLOCK
  5
20
100
AcDbEntity
  8
0
100
AcDbBlockBegin
  2
*Model_Space
 70
0
 10
0.0
 20
0.0
 30
0.0
  3
*Model_Space
  1

  0
ENDBLK
  5
21
100
AcDbEntity
  8
0
100
AcDbBlockEnd
  0
BLOCK
  5
1C
100
AcDbEntity
  8
0
100
AcDbBlockBegin
  2
*Paper_Space
 70
0
 10
0.0
 20
0.0
 30
0.0
  3
*Paper_Space
  1

  0
ENDBLK
  5
1D
100
AcDbEntity
  8
0
100
AcDbBlockEnd
  0
BLOCK
  5
214
100
AcDbEntity
  8
0
100
AcDbBlockBegin
  2
_FILLED
 70
64
 10
0.0
 20
0.0
  3
_FILLED
  1

  0
SOLID
  5
215
100
AcDbEntity
  8
0
  6
BYBLOCK
 62
0
100
AcDbTrace
 10
0.0
 20
0.0
 11
-1.0
 21
0.25
 12
-1.0
 22
-0.25
 13
-1.0
 23
-0.25
  0
ENDBLK
  5
216
100
AcDbEntity
  8
0
  6
BYBLOCK
 62
0
100
AcDbBlockEnd
  0
ENDSEC
  0
SECTION
  2
ENTITIES
  0
LINE
  5
217
100
AcDbEntity
  8
0
100
AcDbLine
 62
7
  6
BYLAYER
 10
16.5110431186
 20
12.9315769655
 11
33.5110429552
 21
12.9315769655
  0
LINE
  5
218
100
AcDbEntity
  8
0
100
AcDbLine
 62
7
  6
BYLAYER
 10
15.6610429552
 20
13.9415762025
 11
16.0112922036
 21
13.9415762025
  0
LINE
  5
219
100
AcDbEntity
  8
0
100
AcDbLine
 62
7
  6
BYLAYER
 10
16.011287324
 20
14.8915762025
 11
15.6610429552
 21
14.8915762025
  0
LINE
  5
21A
100
AcDbEntity
  8
0
100
AcDbLine
 62
7
  6
BYLAYER
 10
33.4994937523
 20
16.0058688139
 11
16.5205921582
 21
16.0058688139
  0
LINE
  5
21B
100
AcDbEntity
  8
0
100
AcDbLine
 62
7
  6
BYLAYER
 10
19.0110429552
 20
17.9415762025
 11
31.0110429552
 21
17.9415762025
  0
LINE
  5
21C
100
AcDbEntity
  8
0
100
AcDbLine
 62
7
  6
BYLAYER
 10
19.0110429552
 20
20.4415762025
 11
31.0110429552
 21
20.4415762025
  0
LINE
  5
21D
100
AcDbEntity
  8
0
100
AcDbLine
 62
7
  6
BYLAYER
 10
31.0110429552
 20
21.4415762025
 11
19.0110429552
 21
21.4415762025
  0
LINE
  5
21E
100
AcDbEntity
  8
0
100
AcDbLine
 62
7
  6
BYLAYER
 10
15.6610429552
 20
22.2915762025
 11
16.0112493146
 21
22.2915762025
  0
LINE
  5
21F
100
AcDbEntity
  8
0
100
AcDbLine
 62
7
  6
BYLAYER
 10
15.6610429552
 20
22.5415762025
 11
16.0112480305
 21
22.5415762025
  0
LINE
  5
220
100
AcDbEntity
  8
0
100
AcDbLine
 62
7
  6
BYLAYER
 10
15.6610429552
 20
13.9415762025
 11
15.6610429552
 21
58.5415762025
  0
LINE
  5
221
100
AcDbEntity
  8
0
100
AcDbLine
 62
7
  6
BYLAYER
 10
16.0112947253
 20
13.4506349641
 11
16.0110429552
 21
62.4673787871
  0
LINE
  5
222
100
AcDbEntity
  8
0
100
AcDbLine
 62
7
  6
BYLAYER
 10
16.5110431186
 20
12.9315769655
 11
16.5110431186
 21
12.9665762025
  0
LINE
  5
223
100
AcDbEntity
  8
0
100
AcDbLine
 62
7
  6
BYLAYER
 10
16.5205921582
 20
15.6777290901
 11
16.5205921582
 21
60.2763060009
  0
LINE
  5
224
100
AcDbEntity
  8
0
100
AcDbLine
 62
7
  6
BYLAYER
 10
16.0112382713
 20
24.4415762025
 11
15.6610429552
 21
24.4415762025
  0
LINE
  5
225
100
AcDbEntity
  8
0
100
AcDbLine
 62
7
  6
BYLAYER
 10
19.0110429552
 20
21.4415762025
 11
19.0110429552
 21
17.9415763165
  0
LINE
  5
226
100
AcDbEntity
  8
0
100
AcDbLine
 62
7
  6
BYLAYER
 10
31.0110429552
 20
17.9415763165
 11
31.0110429552
 21
21.4415762025
  0
LINE
  5
227
100
AcDbEntity
  8
0
100
AcDbLine
 62
7
  6
BYLAYER
 10
33.4994937523
 20
15.6777290775
 11
33.4994937523
 21
60.2763060141
  0
LINE
  5
228
100
AcDbEntity
  8
0
100
AcDbLine
 62
7
  6
BYLAYER
 10
33.5110429552
 20
12.9665762025
 11
33.5110429552
 21
12.9315769655
  0
LINE
  5
229
100
AcDbEntity
  8
0
100
AcDbLine
 62
7
  6
BYLAYER
 10
34.0110429552
 20
13.466576584
 11
34.0110429552
 21
62.4673787871
  0
LWPOLYLINE
  5
22A
100
AcDbEntity
  8
0
100
AcDbPolyline
 62
7
  6
BYLAYER
 90
3
 70
0
 10
26.1235582134
 20
12.9315769655
 10
24.1105284357
 20
9.4100741415
 10
19.4207632925
 20
5.0420864597
  0
LINE
  5
22B
100
AcDbEntity
  8
0
100
AcDbLine
 62
7
  6
BYLAYER
 10
15.6610429552
 20
56.6415762025
 11
16.0110728789
 21
56.6415762025
  0
LINE
  5
22C
100
AcDbEntity
  8
0
100
AcDbLine
 62
7
  6
BYLAYER
 10
16.0110631198
 20
58.5415762025
 11
15.6610429552
 21
58.5415762025
  0
LINE
  5
22D
100
AcDbEntity
  8
0
100
AcDbLine
 62
7
  6
BYLAYER
 10
16.5205921582
 20
60.0315762021
 11
33.4994937523
 21
60.0315762021
  0
LINE
  5
22E
100
AcDbEntity
  8
0
100
AcDbLine
 62
7
  6
BYLAYER
 10
33.5562594108
 20
63.0315735322
 11
16.465713086
 21
63.0315735322
  0
ARC
  5
22F
100
AcDbEntity
  8
0
100
AcDbCircle
 62
7
  6
BYLAYER
 10
33.4567306291
 20
62.5412830747
 40
0.5002906267
100
AcDbArc
 50
30.8706771191
 51
78.5256759895
  0
ARC
  5
230
100
AcDbEntity
  8
0
100
AcDbCircle
 62
7
  6
BYLAYER
 10
16.5110453877
 20
13.4665812099
 40
0.5000050074
100
AcDbArc
 50
181.8275967637
 51
269.9997399839
  0
ARC
  5
231
100
AcDbEntity
  8
0
100
AcDbCircle
 62
7
  6
BYLAYER
 10
33.5110429552
 20
13.4665762025
 40
0.5
100
AcDbArc
 50
270.0
 51
360.0
  0
ARC
  5
232
100
AcDbEntity
  8
0
100
AcDbCircle
 62
7
  6
BYLAYER
 10
33.5110429552
 20
62.4673787871
 40
0.5
100
AcDbArc
 50
0.0
 51
41.3921326979
  0
ARC
  5
233
100
AcDbEntity
  8
0
100
AcDbCircle
 62
7
  6
BYLAYER
 10
16.5110429552
 20
62.4673787871
 40
0.5
100
AcDbArc
 50
138.583192669
 51
180.0
  0
ARC
  5
234
100
AcDbEntity
  8
0
100
AcDbCircle
 62
7
  6
BYLAYER
 10
16.5652222233
 20
62.5416036216
 40
0.499972581
100
AcDbArc
 50
101.4794255893
 51
149.128768682
  0
SPLINE
  5
235
100
AcDbEntity
  8
0
100
AcDbSpline
 62
7
  6
BYLAYER
 70
0
 71
3
 72
9
 73
5
 74
0
 42
0.0000001
 43
0.0000001
 44
0.0000000001
 40
0.0
 40
0.0
 40
0.0
 40
0.0
 40
0.484112492
 40
1.0
 40
1.0
 40
1.0
 40
1.0
 10
19.2370384965
 20
12.9279582539
 30
0.0
 10
18.7772817559
 20
12.3772125787
 30
0.0
 10
17.7432197708
 20
11.3083580519
 30
0.0
 10
16.5808834841
 20
10.3824574178
 30
0.0
 10
15.9566616773
 20
9.9410659453
 30
0.0
  0
SPLINE
  5
236
100
AcDbEntity
  8
0
100
AcDbSpline
 62
7
  6
BYLAYER
 70
0
 71
3
 72
24
 73
20
 74
0
 42
0.0000001
 43
0.0000001
 44
0.0000000001
 40
0.0
 40
0.0
 40
0.0
 40
0.0
 40
0.0191522572
 40
0.0386551461
 40
0.0798706974
 40
0.1257500601
 40
0.1773540385
 40
0.2349615116
 40
0.2982567742
 40
0.3665055959
 40
0.4386863714
 40
0.5135669297
 40
0.5897908965
 40
0.6659431069
 40
0.7406134207
 40
0.8124512913
 40
0.8802378026
 40
0.9430170374
 40
1.0
 40
1.0
 40
1.0
 40
1.0
 10
19.4207382809
 20
5.0421218373
 30
0.0
 10
19.38844526
 20
5.0192833106
 30
0.0
 10
19.3194820068
 20
4.9782890776
 30
0.0
 10
19.1657673071
 20
4.916904509
 30
0.0
 10
18.9451896247
 20
4.8827716592
 30
0.0
 10
18.6578645183
 20
4.9094668789
 30
0.0
 10
18.3488959908
 20
4.9995793963
 30
0.0
 10
18.0249715905
 20
5.1504935715
 30
0.0
 10
17.693259852
 20
5.3583677772
 30
0.0
 10
17.3615038829
 20
5.6182008681
 30
0.0
 10
17.037717948
 20
5.9237941449
 30
0.0
 10
16.7297766921
 20
6.2677111416
 30
0.0
 10
16.445184842
 20
6.6415164809
 30
0.0
 10
16.1909750497
 20
7.0360982033
 30
0.0
 10
15.9733741985
 20
7.4417739473
 30
0.0
 10
15.7976224027
 20
7.8485546074
 30
0.0
 10
15.6680111508
 20
8.2467016714
 30
0.0
 10
15.5878098352
 20
8.6264098143
 30
0.0
 10
15.5673921413
 20
8.873895794
 30
0.0
 10
15.5673921413
 20
8.9915762025
 30
0.0
  0
SPLINE
  5
237
100
AcDbEntity
  8
0
100
AcDbSpline
 62
7
  6
BYLAYER
 70
0
 71
3
 72
12
 73
8
 74
0
 42
0.0000001
 43
0.0000001
 44
0.0000000001
 40
0.0
 40
0.0
 40
0.0
 40
0.0
 40
0.2895245517
 40
0.5480024038
 40
0.7809188303
 40
0.8913971913
 40
1.0
 40
1.0
 40
1.0
 40
1.0
 10
15.5673921413
 20
8.9915762025
 30
0.0
 10
15.5673921413
 20
9.0943283333
 30
0.0
 10
15.5814687034
 20
9.2893969424
 30
0.0
 10
15.6536316745
 20
9.5590139214
 30
0.0
 10
15.7582567605
 20
9.7485344715
 30
0.0
 10
15.8651087246
 20
9.8688820232
 30
0.0
 10
15.9252181876
 20
9.9187751642
 30
0.0
 10
15.9566866889
 20
9.9410305677
 30
0.0
  0
SPLINE
  5
238
100
AcDbEntity
  8
0
100
AcDbSpline
 62
7
  6
BYLAYER
 70
0
 71
3
 72
25
 73
21
 74
0
 42
0.0000001
 43
0.0000001
 44
0.0000000001
 40
0.0
 40
0.0
 40
0.0
 40
0.0
 40
0.1127351766
 40
0.2303434205
 40
0.3521783683
 40
0.4774571741
 40
0.6054516538
 40
0.6702629606
 40
0.7355156885
 40
0.801137975
 40
0.8340695459
 40
0.867067811
 40
0.8835922436
 40
0.9001398987
 40
0.9166944753
 40
0.9332454636
 40
0.9498450256
 40
0.9664936192
 40
0.983305853
 40
1.0
 40
1.0
 40
1.0
 40
1.0
 10
34.0107406548
 20
14.2504124311
 30
0.0
 10
34.0106813785
 20
14.3088159286
 30
0.0
 10
34.0012774264
 20
14.428150512
 30
0.0
 10
33.9693301087
 20
14.607952513
 30
0.0
 10
33.9221942727
 20
14.7910733808
 30
0.0
 10
33.8638837263
 20
14.9765114592
 30
0.0
 10
33.8078189417
 20
15.1315138517
 30
0.0
 10
33.75910142
 20
15.2560177715
 30
0.0
 10
33.7202058081
 20
15.3496427157
 30
0.0
 10
33.6861515845
 20
15.4273831174
 30
0.0
 10
33.6572653796
 20
15.4891142285
 30
0.0
 10
33.638168141
 20
15.5273346067
 30
0.0
 10
33.6219248962
 20
15.5574653943
 30
0.0
 10
33.6093246121
 20
15.5798783153
 30
0.0
 10
33.5960720809
 20
15.6019291793
 30
0.0
 10
33.5817474755
 20
15.6233554608
 30
0.0
 10
33.5660223876
 20
15.6437937071
 30
0.0
 10
33.5486152222
 20
15.6632228784
 30
0.0
 10
33.5262472593
 20
15.6772359053
 30
0.0
 10
33.507927734
 20
15.6796521365
 30
0.0
 10
33.4994937523
 20
15.6777375705
 30
0.0
  0
SPLINE
  5
239
100
AcDbEntity
  8
0
100
AcDbSpline
 62
7
  6
BYLAYER
 70
0
 71
3
 72
25
 73
21
 74
0
 42
0.0000001
 43
0.0000001
 44
0.0000000001
 40
0.0
 40
0.0
 40
0.0
 40
0.0
 40
0.0166049834
 40
0.0334052299
 40
0.0499548513
 40
0.0664894511
 40
0.0829615319
 40
0.0994285031
 40
0.115895594
 40
0.132344332
 40
0.1651859833
 40
0.1979675391
 40
0.2633055155
 40
0.3283033047
 40
0.3928959358
 40
0.5205930833
 40
0.6458188728
 40
0.7679254469
 40
0.8862049915
 40
1.0
 40
1.0
 40
1.0
 40
1.0
 10
16.5205921582
 20
15.6777376134
 30
0.0
 10
16.5125242731
 20
15.6795566486
 30
0.0
 10
16.4950257721
 20
15.6774096788
 30
0.0
 10
16.4732511435
 20
15.6645997367
 30
0.0
 10
16.4561612079
 20
15.6463314409
 30
0.0
 10
16.4410188183
 20
15.6268538698
 30
0.0
 10
16.4270511998
 20
15.6065298683
 30
0.0
 10
16.414140149
 20
15.5855750047
 30
0.0
 10
16.4019518588
 20
15.5642079763
 30
0.0
 10
16.386259814
 20
15.5354587512
 30
0.0
 10
16.3676853588
 20
15.4990348645
 30
0.0
 10
16.339768275
 20
15.4400779433
 30
0.0
 10
16.3068755129
 20
15.3657801473
 30
0.0
 10
16.2692786194
 20
15.2762620165
 30
0.0
 10
16.2220278902
 20
15.1571383805
 30
0.0
 10
16.1674006177
 20
15.0086893258
 30
0.0
 10
16.1098082873
 20
14.8309455199
 30
0.0
 10
16.0619363377
 20
14.6551449922
 30
0.0
 10
16.0268476089
 20
14.4821291688
 30
0.0
 10
16.0138657867
 20
14.3669892365
 30
0.0
 10
16.0112926824
 20
14.3103700375
 30
0.0
  0
SPLINE
  5
23A
100
AcDbEntity
  8
0
100
AcDbSpline
 62
7
  6
BYLAYER
 70
0
 71
3
 72
27
 73
23
 74
0
 42
0.0000001
 43
0.0000001
 44
0.0000000001
 40
0.0
 40
0.0
 40
0.0
 40
0.0
 40
0.113711246
 40
0.2319611902
 40
0.3540754973
 40
0.4793376293
 40
0.5429422536
 40
0.6070898885
 40
0.6717087682
 40
0.7367328866
 40
0.8020997254
 40
0.8348939198
 40
0.867754261
 40
0.9006605912
 40
0.9171671498
 40
0.9336325201
 40
0.9500762939
 40
0.958413292
 40
0.9668407485
 40
0.9751628144
 40
0.9833950338
 40
1.0
 40
1.0
 40
1.0
 40
1.0
 10
16.0110448927
 20
61.6573447824
 30
0.0
 10
16.013378876
 20
61.6002794777
 30
0.0
 10
16.0260986442
 20
61.4841709076
 30
0.0
 10
16.061349947
 20
61.3097223829
 30
0.0
 10
16.1094102287
 20
61.1323762803
 30
0.0
 10
16.1575287308
 20
60.9837286612
 30
0.0
 10
16.2001273076
 20
60.863995778
 30
0.0
 10
16.2340686855
 20
60.7735278087
 30
0.0
 10
16.2696775699
 20
60.6829365714
 30
0.0
 10
16.3070872632
 20
60.5924111625
 30
0.0
 10
16.3401842306
 20
60.5174103721
 30
0.0
 10
16.3686059027
 20
60.4580518909
 30
0.0
 10
16.3909033454
 20
60.4138497288
 30
0.0
 10
16.4106342039
 20
60.3775293176
 30
0.0
 10
16.427430207
 20
60.349015389
 30
0.0
 10
16.4410646836
 20
60.3282543166
 30
0.0
 10
16.4538775592
 20
60.3119339075
 30
0.0
 10
16.4650831691
 20
60.2995732832
 30
0.0
 10
16.4739983702
 20
60.2906579233
 30
0.0
 10
16.483970024
 20
60.2829222912
 30
0.0
 10
16.4992363344
 20
60.275888821
 30
0.0
 10
16.5124713469
 20
60.2757171637
 30
0.0
 10
16.5205921582
 20
60.2776169479
 30
0.0
  0
SPLINE
  5
23B
100
AcDbEntity
  8
0
100
AcDbSpline
 62
7
  6
BYLAYER
 70
0
 71
3
 72
27
 73
23
 74
0
 42
0.0000001
 43
0.0000001
 44
0.0000000001
 40
0.0
 40
0.0
 40
0.0
 40
0.0
 40
0.016650417
 40
0.0249177128
 40
0.0333112434
 40
0.041761946
 40
0.0500944594
 40
0.0666000609
 40
0.0831679002
 40
0.0997386989
 40
0.1327883757
 40
0.1657894105
 40
0.1987210945
 40
0.2643454377
 40
0.3296011938
 40
0.3944193039
 40
0.4587266349
 40
0.5224434374
 40
0.6477529019
 40
0.7696189358
 40
0.8872546263
 40
1.0
 40
1.0
 40
1.0
 40
1.0
 10
33.4994937523
 20
60.2775768208
 30
0.0
 10
33.507928912
 20
60.2755896929
 30
0.0
 10
33.5217764207
 20
60.2758530822
 30
0.0
 10
33.5374203811
 20
60.2837191007
 30
0.0
 10
33.5475799439
 20
60.2920389454
 30
0.0
 10
33.5567687577
 20
60.3013881659
 30
0.0
 10
33.5683221937
 20
60.3143083791
 30
0.0
 10
33.5813928567
 20
60.3314902852
 30
0.0
 10
33.595303624
 20
60.3532812851
 30
0.0
 10
33.6126412901
 20
60.3830541963
 30
0.0
 10
33.6329363029
 20
60.4209790516
 30
0.0
 10
33.6559685028
 20
60.4670651415
 30
0.0
 10
33.6852372439
 20
60.5289721695
 30
0.0
 10
33.7193022473
 20
60.6071482347
 30
0.0
 10
33.7578898827
 20
60.7014156708
 30
0.0
 10
33.794556435
 20
60.7957124739
 30
0.0
 10
33.8294116003
 20
60.8898402824
 30
0.0
 10
33.8728995275
 20
61.0143220028
 30
0.0
 10
33.9215126036
 20
61.1687148761
 30
0.0
 10
33.9689250358
 20
61.3527158776
 30
0.0
 10
34.0012827571
 20
61.533346971
 30
0.0
 10
34.0107035623
 20
61.6532640107
 30
0.0
 10
34.0107630447
 20
61.7119446841
 30
0.0
  0
ENDSEC
  0
SECTION
  2
OBJECTS
  0
DICTIONARY
  5
C
100
AcDbDictionary
280
0
281
1
  3
ACAD_GROUP
350
D
  3
ACAD_MLINESTYLE
350
17
  3
ACAD_LAYOUT
350
1A
  3
ACAD_PLOTSETTINGS
350
19
  3
ACAD_PLOTSTYLENAME
350
E
  0
DICTIONARY
  5
D
102
{ACAD_REACTORS
330
C
102
}
100
AcDbDictionary
280
0
281
1
  0
ACDBDICTIONARYWDFLT
  5
E
102
{ACAD_REACTORS
330
C
102
}
100
AcDbDictionary
281
1
  3
Normal
350
F
100
AcDbDictionaryWithDefault
340
F
  0
DICTIONARY
  5
17
102
{ACAD_REACTORS
330
C
102
}
100
AcDbDictionary
280
0
281
1
  3
Standard
350
18
  0
DICTIONARY
  5
19
102
{ACAD_REACTORS
330
C
102
}
100
AcDbDictionary
281
1
  0
DICTIONARY
  5
1A
102
{ACAD_REACTORS
330
C
102
}
100
AcDbDictionary
281
1
  3
Model
350
23C
  3
Layout1
350
23D
  0
ACDBPLACEHOLDER
  5
F
102
{ACAD_REACTORS
330
E
102
}
  0
MLINESTYLE
  5
18
102
{ACAD_REACTORS
330
17
102
}
100
AcDbMlineStyle
  2
STANDARD
 70
0
  3

 62
256
 51
90.0
 52
90.0
 71
2
 49
0.5
 62
256
  6
BYLAYER
 49
-0.5
 62
256
  6
BYLAYER
  0
LAYOUT
  5
23C
102
{ACAD_REACTORS
330
1A
102
}
100
AcDbPlotSettings
  1

  2
none_device
  4

  6

 40
0.0
 41
0.0
 42
0.0
 43
0.0
 44
210.0
 45
297.0
 46
0.0
 47
0.0
 48
0.0
 49
0.0
140
0.0
141
0.0
142
1.0
143
1.0
 70
1024
 72
1
 73
0
 74
0
  7

 75
0
147
1.0
148
0.0
149
0.0
100
AcDbLayout
  1
Model
 70
0
 71
0
 10
0.0
 20
0.0
 11
210.0
 21
297.0
 12
0.0
 22
0.0
 32
0.0
 14
0.0
 24
0.0
 34
0.0
 15
0.0
 25
0.0
 35
0.0
146
0.0
 13
0.0
 23
0.0
 33
0.0
 16
1.0
 26
0.0
 36
0.0
 17
0.0
 27
1.0
 37
0.0
 76
0
330
210
345
0
346
0
  0
LAYOUT
  5
23D
102
{ACAD_REACTORS
330
1A
102
}
100
AcDbPlotSettings
  1

  2
none_device
  4

  6

 40
0.0
 41
0.0
 42
0.0
 43
0.0
 44
210.0
 45
297.0
 46
0.0
 47
0.0
 48
0.0
 49
0.0
140
0.0
141
0.0
142
1.0
143
1.0
 70
0
 72
1
 73
0
 74
0
  7

 75
0
147
1.0
148
0.0
149
0.0
100
AcDbLayout
  1
Layout1
 70
0
 71
1
 10
0.0
 20
0.0
 11
210.0
 21
297.0
 12
0.0
 22
0.0
 32
0.0
 14
0.0
 24
0.0
 34
0.0
 15
0.0
 25
0.0
 35
0.0
146
0.0
 13
0.0
 23
0.0
 33
0.0
 16
1.0
 26
0.0
 36
0.0
 17
0.0
 27
1.0
 37
0.0
 76
0
330
211
345
0
346
0
  0
ENDSEC
  0
EOF
