999
DXF file: C:\Users\sesa63760\Dev\_Creo\CAD\MCADID0004350_3D-CAD\drw0001_1.dxf
999
Pro/ENGINEER 2019471 by Parametric Technology Corporation
  0
SECTION
  2
HEADER
  9
$ACADVER
  1
AC1024
  9
$DWGCODEPAGE
  3
ANSI_1252
  9
$EXTMAX
 10
28.2073148175
 20
39.8932023848
 30
0.0
  9
$EXTMIN
 10
0.0
 20
0.0
 30
0.0
  9
$LIMMIN
 10
0.0
 20
0.0
  9
$LIMMAX
 10
28.2073148175
 20
39.8932023848
  9
$VIEWCTR
 10
14.1036574088
 20
19.9466011924
  9
$VIEWSIZE
 40
39.8932023848
  9
$CLAYER
  8
0
  9
$LTSCALE
 40
2.6004457851
  9
$CELTYPE
  6
BYLAYER
  9
$DIMSCALE
 40
1.0
  9
$DIMASZ
 40
0.3358013669
  9
$DIMEXO
 40
1.0
  9
$DIMDLI
 40
1.7966716333
  9
$DIMEXE
 40
1.0
  9
$DIMCEN
 40
0.4255274921
  9
$DIMLFAC
 40
1.0
  9
$DIMBLK
  1
_FILLED
  9
$DIMALT
 70
0
  9
$DIMALTF
 40
0.0393700787
  9
$DIMTXT
 40
0.4701219136
  9
$DIMTOL
 70
1
  9
$DIMLIM
 70
0
  9
$DIMTFAC
 40
1.0
  9
$DIMTP
 40
0.01
  9
$DIMTM
 40
0.01
  9
$DIMGAP
 40
0.625
  9
$DIMDSEP
 70
46
  9
$AUNITS
 70
0
  9
$PDMODE
 70
3
  9
$PDSIZE
 40
0.3125
  9
$HANDSEED
  5
24C
  9
$TILEMODE
 70
1
  9
$MEASUREMENT
 70
1
  9
$INSUNITS
 70
4
  0
ENDSEC
  0
SECTION
  2
CLASSES
  0
CLASS
  1
ACDBDICTIONARYWDFLT
  2
AcDbDictionaryWithDefault
  3
AutoCAD 2000
 90
0
 91
1
280
0
281
0
  0
CLASS
  1
ACDBPLACEHOLDER
  2
AcDbPlaceHolder
  3
AutoCAD 2000
 90
0
 91
1
280
0
281
0
  0
CLASS
  1
LAYOUT
  2
AcDbLayout
  3
AutoCAD 2000
 90
0
 91
0
280
0
281
0
  0
ENDSEC
  0
SECTION
  2
TABLES
  0
TABLE
  2
VPORT
  5
8
100
AcDbSymbolTable
 70
2
  0
VPORT
  5
1F4
100
AcDbSymbolTableRecord
100
AcDbViewportTableRecord
  2
*ACTIVE
 70
0
 10
0.0
 20
0.0
 11
1.0
 21
1.0
 12
14.1036574088
 22
19.9466011924
 13
0.0
 23
0.0
 14
1.0
 24
1.0
 15
0.0
 25
0.0
 16
0.0
 26
0.0
 36
1.0
 17
0.0
 27
0.0
 37
0.0
 40
39.8932023848
 41
0.7070707071
 42
50.0
 43
0.0
 44
0.0
 50
0.0
 51
0.0
 71
0
 72
100
 73
1
 74
1
 75
0
 76
0
 77
0
 78
0
  0
ENDTAB
  0
TABLE
  2
LTYPE
  5
5
100
AcDbSymbolTable
 70
6
  0
LTYPE
  5
14
100
AcDbSymbolTableRecord
100
AcDbLinetypeTableRecord
  2
BYBLOCK
 70
0
  3

 72
65
 73
0
 40
0.0
  0
LTYPE
  5
15
100
AcDbSymbolTableRecord
100
AcDbLinetypeTableRecord
  2
BYLAYER
 70
0
  3

 72
65
 73
0
 40
0.0
  0
LTYPE
  5
16
100
AcDbSymbolTableRecord
100
AcDbLinetypeTableRecord
  2
CONTINUOUS
 70
64
  3
Solid line
 72
65
 73
0
 40
0.0
  0
LTYPE
  5
1F5
100
AcDbSymbolTableRecord
100
AcDbLinetypeTableRecord
  2
CENTER
 70
64
  3
____ _ ____ _ ____ _ ____ _ ____ _ ____ _ ____
 72
65
 73
4
 40
0.6
 49
0.375
 74
0
 49
-0.075
 74
0
 49
0.075
 74
0
 49
-0.075
 74
0
  0
LTYPE
  5
1F6
100
AcDbSymbolTableRecord
100
AcDbLinetypeTableRecord
  2
HIDDEN
 70
64
  3
- - - - - - - - - - - - - - - - - - - -
 72
65
 73
2
 40
0.2
 49
0.1
 74
0
 49
-0.1
 74
0
  0
LTYPE
  5
1F7
100
AcDbSymbolTableRecord
100
AcDbLinetypeTableRecord
  2
PHANTOM
 70
64
  3
_____ _ _ _____ _ _ _____ _ _ _____
 72
65
 73
6
 40
0.8
 49
0.45
 74
0
 49
-0.05
 74
0
 49
0.1
 74
0
 49
-0.05
 74
0
 49
0.1
 74
0
 49
-0.05
 74
0
  0
LTYPE
  5
1F8
100
AcDbSymbolTableRecord
100
AcDbLinetypeTableRecord
  2
DOT
 70
64
  3
. . . . . . . . . . . . . . . . . . . .
 72
65
 73
2
 40
0.2
 49
0.1
 74
0
 49
-0.1
 74
0
  0
LTYPE
  5
1F9
100
AcDbSymbolTableRecord
100
AcDbLinetypeTableRecord
  2
DASHED
 70
64
  3
- - - - - - - - - - - - - - - - - - - -
 72
65
 73
2
 40
0.2
 49
0.1
 74
0
 49
-0.1
 74
0
  0
ENDTAB
  0
TABLE
  2
LAYER
  5
2
100
AcDbSymbolTable
 70
36
  0
LAYER
  5
10
100
AcDbSymbolTableRecord
100
AcDbLayerTableRecord
  2
0
 70
0
 62
7
  6
CONTINUOUS
370
-3
390
F
  0
LAYER
  5
1FA
100
AcDbSymbolTableRecord
100
AcDbLayerTableRecord
  2
DEFAULT_1
 70
0
 62
7
  6
CENTER
370
-3
390
F
  0
LAYER
  5
1FB
100
AcDbSymbolTableRecord
100
AcDbLayerTableRecord
  2
DEFAULT_2
 70
0
 62
7
  6
HIDDEN
370
-3
390
F
  0
LAYER
  5
1FC
100
AcDbSymbolTableRecord
100
AcDbLayerTableRecord
  2
DEFAULT_3
 70
0
 62
7
  6
PHANTOM
370
-3
390
F
  0
LAYER
  5
1FD
100
AcDbSymbolTableRecord
100
AcDbLayerTableRecord
  2
00_COMPONENTS
 70
0
 62
7
  6
CONTINUOUS
370
-3
390
F
  0
LAYER
  5
1FE
100
AcDbSymbolTableRecord
100
AcDbLayerTableRecord
  2
01_1_DEFAULT_DATUMS
 70
0
 62
7
  6
CONTINUOUS
370
-3
390
F
  0
LAYER
  5
1FF
100
AcDbSymbolTableRecord
100
AcDbLayerTableRecord
  2
01_PLANES
 70
0
 62
7
  6
CONTINUOUS
370
-3
390
F
  0
LAYER
  5
200
100
AcDbSymbolTableRecord
100
AcDbLayerTableRecord
  2
02_COORD_SYS
 70
0
 62
7
  6
CONTINUOUS
370
-3
390
F
  0
LAYER
  5
201
100
AcDbSymbolTableRecord
100
AcDbLayerTableRecord
  2
03_AXES
 70
0
 62
7
  6
CONTINUOUS
370
-3
390
F
  0
LAYER
  5
202
100
AcDbSymbolTableRecord
100
AcDbLayerTableRecord
  2
04_POINTS
 70
0
 62
7
  6
CONTINUOUS
370
-3
390
F
  0
LAYER
  5
203
100
AcDbSymbolTableRecord
100
AcDbLayerTableRecord
  2
05_CURVES
 70
0
 62
7
  6
CONTINUOUS
370
-3
390
F
  0
LAYER
  5
204
100
AcDbSymbolTableRecord
100
AcDbLayerTableRecord
  2
06_SURFS
 70
0
 62
7
  6
CONTINUOUS
370
-3
390
F
  0
LAYER
  5
205
100
AcDbSymbolTableRecord
100
AcDbLayerTableRecord
  2
07_COSMETICS
 70
0
 62
7
  6
CONTINUOUS
370
-3
390
F
  0
LAYER
  5
206
100
AcDbSymbolTableRecord
100
AcDbLayerTableRecord
  2
10_NOTES
 70
0
 62
7
  6
CONTINUOUS
370
-3
390
F
  0
LAYER
  5
207
100
AcDbSymbolTableRecord
100
AcDbLayerTableRecord
  2
11_NOTES_PUB
 70
0
 62
7
  6
CONTINUOUS
370
-3
390
F
  0
LAYER
  5
208
100
AcDbSymbolTableRecord
100
AcDbLayerTableRecord
  2
13_REF_GTOL
 70
0
 62
7
  6
CONTINUOUS
370
-3
390
F
  0
LAYER
  5
209
100
AcDbSymbolTableRecord
100
AcDbLayerTableRecord
  2
16_MISC
 70
0
 62
7
  6
CONTINUOUS
370
-3
390
F
  0
LAYER
  5
20A
100
AcDbSymbolTableRecord
100
AcDbLayerTableRecord
  2
17_NO_PRINT
 70
0
 62
7
  6
CONTINUOUS
370
-3
390
F
  0
LAYER
  5
20B
100
AcDbSymbolTableRecord
100
AcDbLayerTableRecord
  2
18_DATUM_CAMS_JOINTS
 70
0
 62
7
  6
CONTINUOUS
370
-3
390
F
  0
LAYER
  5
20C
100
AcDbSymbolTableRecord
100
AcDbLayerTableRecord
  2
19_DATUM_FUNCTIONAL
 70
0
 62
7
  6
CONTINUOUS
370
-3
390
F
  0
LAYER
  5
20D
100
AcDbSymbolTableRecord
100
AcDbLayerTableRecord
  2
20_DATUM_KINEMATIC_SCHEME
 70
0
 62
7
  6
CONTINUOUS
370
-3
390
F
  0
ENDTAB
  0
TABLE
  2
STYLE
  5
3
100
AcDbSymbolTable
 70
1
  0
STYLE
  5
11
100
AcDbSymbolTableRecord
100
AcDbTextStyleTableRecord
  2
STANDARD
 70
0
 40
0.0
 41
1.0
 50
0.0
 71
0
 42
0.2
  3
ARIAL.TTF
  4

  0
STYLE
  5
20E
100
AcDbSymbolTableRecord
100
AcDbTextStyleTableRecord
  2
TEXTSTYLE_1
 70
0
 40
0.0
 41
0.8
 50
0.0
 71
0
 42
0.2
  3
gdt
  4

  0
ENDTAB
  0
TABLE
  2
VIEW
  5
6
100
AcDbSymbolTable
 70
0
  0
ENDTAB
  0
TABLE
  2
UCS
  5
7
100
AcDbSymbolTable
 70
0
  0
ENDTAB
  0
TABLE
  2
APPID
  5
9
100
AcDbSymbolTable
 70
1
  0
APPID
  5
20F
100
AcDbSymbolTableRecord
100
AcDbRegAppTableRecord
  2
ACAD
 70
0
  0
ENDTAB
  0
TABLE
  2
BLOCK_RECORD
  5
1
100
AcDbSymbolTable
 70
0
  0
BLOCK_RECORD
  5
210
100
AcDbSymbolTableRecord
100
AcDbBlockTableRecord
  2
*Model_Space
  0
BLOCK_RECORD
  5
211
100
AcDbSymbolTableRecord
100
AcDbBlockTableRecord
  2
*Paper_Space
  0
BLOCK_RECORD
  5
212
100
AcDbSymbolTableRecord
100
AcDbBlockTableRecord
  2
_FILLED
  0
ENDTAB
  0
TABLE
  2
DIMSTYLE
  5
A
100
AcDbSymbolTable
 70
1
100
AcDbDimStyleTable
 71
0
  0
DIMSTYLE
105
213
100
AcDbSymbolTableRecord
100
AcDbDimStyleTableRecord
  2
STANDARD
 70
0
  3

  4

 40
1.0
 41
0.3358013669
 42
1.0
 43
0.38
 44
1.0
 45
0.0
 46
0.0
 47
0.01
 48
0.01
140
0.4701219136
141
0.09
142
0.0
143
25.4
144
1.0
145
0.0
146
1.0
147
0.625
 71
1
 72
0
 73
0
 74
0
 75
0
 76
0
 77
1
 78
8
 79
2
170
0
171
1
172
0
173
0
174
0
175
0
176
0
177
0
178
0
270
2
179
2
271
2
272
2
273
2
274
2
275
0
280
0
281
0
282
0
283
1
284
8
285
0
286
0
287
3
288
0
340
11
278
46
341
212
342
212
343
212
344
212
  0
ENDTAB
  0
ENDSEC
  0
SECTION
  2
BLOCKS
  0
BLOCK
  5
20
100
AcDbEntity
  8
0
100
AcDbBlockBegin
  2
*Model_Space
 70
0
 10
0.0
 20
0.0
 30
0.0
  3
*Model_Space
  1

  0
ENDBLK
  5
21
100
AcDbEntity
  8
0
100
AcDbBlockEnd
  0
BLOCK
  5
1C
100
AcDbEntity
  8
0
100
AcDbBlockBegin
  2
*Paper_Space
 70
0
 10
0.0
 20
0.0
 30
0.0
  3
*Paper_Space
  1

  0
ENDBLK
  5
1D
100
AcDbEntity
  8
0
100
AcDbBlockEnd
  0
BLOCK
  5
214
100
AcDbEntity
  8
0
100
AcDbBlockBegin
  2
_FILLED
 70
64
 10
0.0
 20
0.0
  3
_FILLED
  1

  0
SOLID
  5
215
100
AcDbEntity
  8
0
  6
BYBLOCK
 62
0
100
AcDbTrace
 10
0.0
 20
0.0
 11
-1.0
 21
0.25
 12
-1.0
 22
-0.25
 13
-1.0
 23
-0.25
  0
ENDBLK
  5
216
100
AcDbEntity
  8
0
  6
BYBLOCK
 62
0
100
AcDbBlockEnd
  0
ENDSEC
  0
SECTION
  2
ENTITIES
  0
LINE
  5
217
100
AcDbEntity
  8
0
100
AcDbLine
 62
7
  6
BYLAYER
 10
3.8358297057
 20
25.6321629467
 11
3.2723730517
 21
25.3068530377
  0
LINE
  5
218
100
AcDbEntity
  8
0
100
AcDbLine
 62
7
  6
BYLAYER
 10
12.9986511686
 20
22.4920847718
 11
13.2036505412
 21
22.592017617
  0
LINE
  5
219
100
AcDbEntity
  8
0
100
AcDbLine
 62
7
  6
BYLAYER
 10
13.5289834624
 20
22.6962182166
 11
13.8023180005
 21
22.8294782891
  0
LINE
  5
21A
100
AcDbEntity
  8
0
100
AcDbLine
 62
7
  6
BYLAYER
 10
13.2036520722
 20
22.5920298262
 11
13.8023180005
 21
22.8294782891
  0
LINE
  5
21B
100
AcDbEntity
  8
0
100
AcDbLine
 62
7
  6
BYLAYER
 10
11.6887814273
 20
19.9681375433
 11
11.782490474
 21
19.3309552453
  0
LINE
  5
21C
100
AcDbEntity
  8
0
100
AcDbLine
 62
7
  6
BYLAYER
 10
12.2790046712
 20
18.4898864196
 11
15.1074435718
 21
16.8569234015
  0
LINE
  5
21D
100
AcDbEntity
  8
0
100
AcDbLine
 62
7
  6
BYLAYER
 10
16.4698834699
 20
16.3590096565
 11
16.8234383325
 21
16.1548892793
  0
LINE
  5
21E
100
AcDbEntity
  8
0
100
AcDbLine
 62
7
  6
BYLAYER
 10
17.1984319699
 20
16.8044120055
 11
23.5624194962
 21
13.1302452149
  0
LINE
  5
21F
100
AcDbEntity
  8
0
100
AcDbLine
 62
7
  6
BYLAYER
 10
11.6998824607
 20
20.4408068308
 11
3.2723730517
 21
25.3068530377
  0
LINE
  5
220
100
AcDbEntity
  8
0
100
AcDbLine
 62
7
  6
BYLAYER
 10
16.4698834699
 20
16.3590096565
 11
16.2118401491
 21
16.6009912225
  0
LINE
  5
221
100
AcDbEntity
  8
0
100
AcDbLine
 62
7
  6
BYLAYER
 10
15.7352344628
 20
17.2936630791
 11
16.2118401491
 21
16.6009912225
  0
LINE
  5
222
100
AcDbEntity
  8
0
100
AcDbLine
 62
7
  6
BYLAYER
 10
17.543083874
 20
20.4250209511
 11
18.3812594426
 21
20.3586206688
  0
LINE
  5
223
100
AcDbEntity
  8
0
100
AcDbLine
 62
7
  6
BYLAYER
 10
18.3812594426
 20
20.3586206688
 11
18.7198452941
 21
20.2561460141
  0
LINE
  5
224
100
AcDbEntity
  8
0
100
AcDbLine
 62
7
  6
BYLAYER
 10
12.7943883447
 20
22.3492346768
 11
5.0568184118
 21
26.8164216992
  0
LINE
  5
225
100
AcDbEntity
  8
0
100
AcDbLine
 62
7
  6
BYLAYER
 10
18.6984065193
 20
19.4025029106
 11
25.0623940456
 21
15.7283361199
  0
LINE
  5
226
100
AcDbEntity
  8
0
100
AcDbLine
 62
7
  6
BYLAYER
 10
18.7198452941
 20
20.2561460141
 11
19.0734001567
 21
20.0520256369
  0
LINE
  5
227
100
AcDbEntity
  8
0
100
AcDbLine
 62
7
  6
BYLAYER
 10
14.7789622536
 20
22.820037928
 11
17.6074011542
 21
21.18707491
  0
ARC
  5
228
100
AcDbEntity
  8
0
100
AcDbCircle
 62
7
  6
BYLAYER
 10
16.8589222102
 20
18.1528119893
 40
2.1784924442
100
AcDbArc
 50
300.0076173072
 51
302.3609490197
  0
ARC
  5
229
100
AcDbEntity
  8
0
100
AcDbCircle
 62
7
  6
BYLAYER
 10
23.8432534373
 20
14.8375393153
 40
0.4691503897
100
AcDbArc
 50
359.4932749727
 51
359.9992435872
  0
SPLINE
  5
22A
100
AcDbEntity
  8
0
100
AcDbSpline
 62
7
  6
BYLAYER
 70
0
 71
3
 72
15
 73
11
 74
0
 42
0.0000001
 43
0.0000001
 44
0.0000000001
 40
0.0
 40
0.0
 40
0.0
 40
0.0
 40
0.1500630309
 40
0.2921298773
 40
0.4261088838
 40
0.5522886993
 40
0.6713665517
 40
0.7845232796
 40
0.893389994
 40
1.0
 40
1.0
 40
1.0
 40
1.0
 10
19.5375528986
 20
18.932523859
 30
0.0
 10
19.5401473272
 20
18.9961214595
 30
0.0
 10
19.5400096459
 20
19.120227222
 30
0.0
 10
19.5226259335
 20
19.300422113
 30
0.0
 10
19.4881667603
 20
19.4678864178
 30
0.0
 10
19.4369544465
 20
19.6208346254
 30
0.0
 10
19.3693610559
 20
19.757586494
 30
0.0
 10
19.2860175141
 20
19.8766152693
 30
0.0
 10
19.1877006752
 20
19.9763616556
 30
0.0
 10
19.1125601481
 20
20.0294136693
 30
0.0
 10
19.0733988136
 20
20.052023311
 30
0.0
  0
SPLINE
  5
22B
100
AcDbEntity
  8
0
100
AcDbSpline
 62
7
  6
BYLAYER
 70
0
 71
3
 72
12
 73
8
 74
0
 42
0.0000001
 43
0.0000001
 44
0.0000000001
 40
0.0
 40
0.0
 40
0.0
 40
0.0
 40
0.1081678375
 40
0.2183538064
 40
0.4513088211
 40
0.7105869577
 40
1.0
 40
1.0
 40
1.0
 40
1.0
 10
24.0624162813
 20
13.9962845748
 30
0.0
 10
24.0542201461
 20
14.0010208508
 30
0.0
 10
24.038462675
 20
14.0120228531
 30
0.0
 10
24.0101763149
 20
14.039812224
 30
0.0
 10
23.9821687897
 20
14.0854801892
 30
0.0
 10
23.9627170388
 20
14.151654151
 30
0.0
 10
23.9588548523
 20
14.1998408979
 30
0.0
 10
23.9588548523
 20
14.2251685905
 30
0.0
  0
SPLINE
  5
22C
100
AcDbEntity
  8
0
100
AcDbSpline
 62
7
  6
BYLAYER
 70
0
 71
3
 72
14
 73
10
 74
0
 42
0.0000001
 43
0.0000001
 44
0.0000000001
 40
0.0
 40
0.0
 40
0.0
 40
0.0
 40
0.3440245759
 40
0.4900833764
 40
0.6194678381
 40
0.7332149308
 40
0.8328913975
 40
0.9207995132
 40
1.0
 40
1.0
 40
1.0
 40
1.0
 10
3.7766013698
 20
25.3872455633
 30
0.0
 10
3.7682111627
 20
25.3579161199
 30
0.0
 10
3.7555163356
 20
25.3162919887
 30
0.0
 10
3.7353613541
 20
25.2651635466
 30
0.0
 10
3.7207857209
 20
25.2338521538
 30
0.0
 10
3.7057736493
 20
25.2073708705
 30
0.0
 10
3.6901461026
 20
25.1856138476
 30
0.0
 10
3.6737547683
 20
25.1684320216
 30
0.0
 10
3.6617059159
 20
25.1596175946
 30
0.0
 10
3.6556238879
 20
25.1561059762
 30
0.0
  0
SPLINE
  5
22D
100
AcDbEntity
  8
0
100
AcDbSpline
 62
7
  6
BYLAYER
 70
0
 71
3
 72
11
 73
7
 74
0
 42
0.0000001
 43
0.0000001
 44
0.0000000001
 40
0.0
 40
0.0
 40
0.0
 40
0.0
 40
0.2239951652
 40
0.4665685697
 40
0.7260313309
 40
1.0
 40
1.0
 40
1.0
 40
1.0
 10
3.7768581538
 20
25.3872118911
 30
0.0
 10
3.7820331031
 20
25.4053018359
 30
0.0
 10
3.7922677297
 20
25.443139422
 30
0.0
 10
3.8067562067
 20
25.5023837539
 30
0.0
 10
3.8213183516
 20
25.5659216917
 30
0.0
 10
3.8309850116
 20
25.6096755077
 30
0.0
 10
3.8358229853
 20
25.632174587
 30
0.0
  0
SPLINE
  5
22E
100
AcDbEntity
  8
0
100
AcDbSpline
 62
7
  6
BYLAYER
 70
0
 71
3
 72
15
 73
11
 74
0
 42
0.0000001
 43
0.0000001
 44
0.0000000001
 40
0.0
 40
0.0
 40
0.0
 40
0.0
 40
0.1432352257
 40
0.2800596951
 40
0.4108377684
 40
0.5361148077
 40
0.656635947
 40
0.7733345116
 40
0.8873563492
 40
1.0
 40
1.0
 40
1.0
 40
1.0
 10
13.8023166107
 20
22.8294672232
 30
0.0
 10
13.8471646029
 20
22.8472621499
 30
0.0
 10
13.9362761164
 20
22.8786260881
 30
0.0
 10
14.0705374392
 20
22.9129520598
 30
0.0
 10
14.2015349979
 20
22.9333037418
 30
0.0
 10
14.3284918258
 20
22.9394680958
 30
0.0
 10
14.450621951
 20
22.9314297745
 30
0.0
 10
14.5671494361
 20
22.9091324673
 30
0.0
 10
14.6772607736
 20
22.872679175
 30
0.0
 10
14.7461013793
 20
22.8390101725
 30
0.0
 10
14.7789622537
 20
22.8200379282
 30
0.0
  0
SPLINE
  5
22F
100
AcDbEntity
  8
0
100
AcDbSpline
 62
7
  6
BYLAYER
 70
0
 71
3
 72
28
 73
24
 74
0
 42
0.0000001
 43
0.0000001
 44
0.0000000001
 40
0.0
 40
0.0
 40
0.0
 40
0.0
 40
0.0328489343
 40
0.0666909663
 40
0.1012296015
 40
0.1361908395
 40
0.2064787495
 40
0.2760756946
 40
0.3439852715
 40
0.409594293
 40
0.4726009056
 40
0.5330367454
 40
0.5624572095
 40
0.5914815216
 40
0.6202605131
 40
0.6489618995
 40
0.6777366214
 40
0.7066874034
 40
0.7651743126
 40
0.8243312405
 40
0.8835943956
 40
0.9423443493
 40
1.0
 40
1.0
 40
1.0
 40
1.0
 10
3.8358244261
 20
25.6321754188
 30
0.0
 10
3.8406797619
 20
25.6547552413
 30
0.0
 10
3.8503147046
 20
25.7006451834
 30
0.0
 10
3.86477243
 20
25.7703352764
 30
0.0
 10
3.8796016297
 20
25.8414652707
 30
0.0
 10
3.8998621008
 20
25.9376384059
 30
0.0
 10
3.9261893231
 20
26.057724963
 30
0.0
 10
3.9606920341
 20
26.1997126859
 30
0.0
 10
3.9995070677
 20
26.3371939312
 30
0.0
 10
4.044486592
 20
26.4679612316
 30
0.0
 10
4.0981335982
 20
26.5897909895
 30
0.0
 10
4.1534653408
 20
26.6824636053
 30
0.0
 10
4.2054921577
 20
26.7480338413
 30
0.0
 10
4.2483480118
 20
26.7920663069
 30
0.0
 10
4.2954892579
 20
26.8307137792
 30
0.0
 10
4.3467509315
 20
26.8633942639
 30
0.0
 10
4.4016913555
 20
26.889702969
 30
0.0
 10
4.479146516
 20
26.9162162974
 30
0.0
 10
4.5815732296
 20
26.9333100065
 30
0.0
 10
4.706476723
 20
26.9312538661
 30
0.0
 10
4.8296914193
 20
26.9101140131
 30
0.0
 10
4.9476671767
 20
26.8723321271
 30
0.0
 10
5.0217116932
 20
26.8366900194
 30
0.0
 10
5.0568182744
 20
26.8164215203
 30
0.0
  0
SPLINE
  5
230
100
AcDbEntity
  8
0
100
AcDbSpline
 62
7
  6
BYLAYER
 70
0
 71
3
 72
25
 73
21
 74
0
 42
0.0000001
 43
0.0000001
 44
0.0000000001
 40
0.0
 40
0.0
 40
0.0
 40
0.0
 40
0.0623624459
 40
0.128731171
 40
0.1983161544
 40
0.2702914861
 40
0.3436690423
 40
0.4173987832
 40
0.4904227838
 40
0.561710215
 40
0.6303091147
 40
0.6953961573
 40
0.7563443886
 40
0.8127827549
 40
0.864682355
 40
0.9124579497
 40
0.9351024197
 40
0.9571083971
 40
0.9786683601
 40
1.0
 40
1.0
 40
1.0
 40
1.0
 10
24.3124067709
 20
13.2045370417
 30
0.0
 10
24.3662811754
 20
13.2356412579
 30
0.0
 10
24.4733366277
 20
13.3072106599
 30
0.0
 10
24.6249708058
 20
13.4347763662
 30
0.0
 10
24.769906739
 20
13.5835983169
 30
0.0
 10
24.9050324843
 20
13.7504254738
 30
0.0
 10
25.0275333119
 20
13.931728417
 30
0.0
 10
25.1347715667
 20
14.123651424
 30
0.0
 10
25.2244495472
 20
14.3221030676
 30
0.0
 10
25.2946836833
 20
14.5228455316
 30
0.0
 10
25.3439647693
 20
14.7216200766
 30
0.0
 10
25.3712163046
 20
14.9142353313
 30
0.0
 10
25.3758662164
 20
15.0966563141
 30
0.0
 10
25.3576923482
 20
15.2651393352
 30
0.0
 10
25.3168805067
 20
15.4161651894
 30
0.0
 10
25.2633783394
 20
15.5268732602
 30
0.0
 10
25.2099019287
 20
15.6021978435
 30
0.0
 10
25.1655750494
 20
15.6513800495
 30
0.0
 10
25.1165437235
 20
15.6938971298
 30
0.0
 10
25.0808165751
 20
15.7176867725
 30
0.0
 10
25.0623885114
 20
15.7283265369
 30
0.0
  0
SPLINE
  5
231
100
AcDbEntity
  8
0
100
AcDbSpline
 62
7
  6
BYLAYER
 70
0
 71
3
 72
23
 73
19
 74
0
 42
0.0000001
 43
0.0000001
 44
0.0000000001
 40
0.0
 40
0.0
 40
0.0
 40
0.0
 40
0.062338247
 40
0.1287506155
 40
0.1983711946
 40
0.2703410462
 40
0.3437266046
 40
0.4174697691
 40
0.4905033127
 40
0.5617990639
 40
0.6304075913
 40
0.6955069262
 40
0.756463746
 40
0.8129100245
 40
0.8648198196
 40
0.9126023181
 40
0.9571849249
 40
1.0
 40
1.0
 40
1.0
 40
1.0
 10
23.9588548523
 20
14.2251685905
 30
0.0
 10
23.9588548523
 20
14.245893072
 30
0.0
 10
23.9616875001
 20
14.2887228791
 30
0.0
 10
23.9732176296
 20
14.3537670878
 30
0.0
 10
23.9920357866
 20
14.4204197404
 30
0.0
 10
24.0176653589
 20
14.4872347077
 30
0.0
 10
24.0495975121
 20
14.5528006531
 30
0.0
 10
24.0871136048
 20
14.6157498263
 30
0.0
 10
24.1294596667
 20
14.6747067824
 30
0.0
 10
24.1756947891
 20
14.7284415959
 30
0.0
 10
24.224868397
 20
14.7757874334
 30
0.0
 10
24.275919421
 20
14.8157672981
 30
0.0
 10
24.3278093171
 20
14.8475054606
 30
0.0
 10
24.3794684275
 20
14.8703434681
 30
0.0
 10
24.4298782402
 20
14.8837324584
 30
0.0
 10
24.4780441542
 20
14.8872838637
 30
0.0
 10
24.5228980364
 20
14.880709712
 30
0.0
 10
24.5500730464
 20
14.8694185166
 30
0.0
 10
24.5623972605
 20
14.86229676
 30
0.0
  0
SPLINE
  5
232
100
AcDbEntity
  8
0
100
AcDbSpline
 62
7
  6
BYLAYER
 70
0
 71
3
 72
23
 73
19
 74
0
 42
0.0000001
 43
0.0000001
 44
0.0000000001
 40
0.0
 40
0.0
 40
0.0
 40
0.0
 40
0.0524649708
 40
0.1079683456
 40
0.1663440982
 40
0.2273254986
 40
0.290565189
 40
0.3556515912
 40
0.4221255492
 40
0.4894920351
 40
0.557234139
 40
0.6248304361
 40
0.6917609678
 40
0.7575171019
 40
0.8216150163
 40
0.8836453785
 40
0.9432362938
 40
1.0
 40
1.0
 40
1.0
 40
1.0
 10
11.6887881226
 20
19.9681426446
 30
0.0
 10
11.6811916021
 20
20.0197690805
 30
0.0
 10
11.671582247
 20
20.1269574727
 30
0.0
 10
11.6729257603
 20
20.2926175123
 30
0.0
 10
11.6895895298
 20
20.465943683
 30
0.0
 10
11.7213463821
 20
20.6449374458
 30
0.0
 10
11.7678533355
 20
20.8275556823
 30
0.0
 10
11.8285408022
 20
21.0117103522
 30
0.0
 10
11.9027470039
 20
21.1952708002
 30
0.0
 10
11.9895740949
 20
21.3761377358
 30
0.0
 10
12.0880628283
 20
21.5522059635
 30
0.0
 10
12.197036836
 20
21.7214702696
 30
0.0
 10
12.3152881285
 20
21.8819458184
 30
0.0
 10
12.4413920899
 20
22.0318171537
 30
0.0
 10
12.5739514548
 20
22.1693304191
 30
0.0
 10
12.7114389065
 20
22.292951666
 30
0.0
 10
12.8522706426
 20
22.4011570601
 30
0.0
 10
12.9497571097
 20
22.4638559423
 30
0.0
 10
12.9986511686
 20
22.4920847718
 30
0.0
  0
SPLINE
  5
233
100
AcDbEntity
  8
0
100
AcDbSpline
 62
7
  6
BYLAYER
 70
0
 71
3
 72
15
 73
11
 74
0
 42
0.0000001
 43
0.0000001
 44
0.0000000001
 40
0.0
 40
0.0
 40
0.0
 40
0.0
 40
0.1080103403
 40
0.2180653519
 40
0.3320024599
 40
0.451340887
 40
0.5772499828
 40
0.7105310636
 40
0.851523039
 40
1.0
 40
1.0
 40
1.0
 40
1.0
 10
23.5624250305
 20
13.1302547978
 30
0.0
 10
23.5870164972
 20
13.1160564851
 30
0.0
 10
23.6392250351
 20
13.0915900681
 30
0.0
 10
23.723718665
 20
13.0682565284
 30
0.0
 10
23.8137736384
 20
13.0581956796
 30
0.0
 10
23.9084483084
 20
13.061483576
 30
0.0
 10
24.0068449997
 20
13.0779866026
 30
0.0
 10
24.1080555156
 20
13.1075005683
 30
0.0
 10
24.2110666607
 20
13.149688278
 30
0.0
 10
24.2786016846
 20
13.1850197825
 30
0.0
 10
24.3124067709
 20
13.2045370417
 30
0.0
  0
SPLINE
  5
234
100
AcDbEntity
  8
0
100
AcDbSpline
 62
7
  6
BYLAYER
 70
0
 71
3
 72
15
 73
11
 74
0
 42
0.0000001
 43
0.0000001
 44
0.0000000001
 40
0.0
 40
0.0
 40
0.0
 40
0.0
 40
0.1080102448
 40
0.2180574578
 40
0.332001769
 40
0.4513530905
 40
0.5772578218
 40
0.7104999967
 40
0.8514754674
 40
1.0
 40
1.0
 40
1.0
 40
1.0
 10
16.8234396755
 20
16.1548916051
 30
0.0
 10
16.8603273366
 20
16.1335946597
 30
0.0
 10
16.9386519085
 20
16.0969323682
 30
0.0
 10
17.0653743774
 20
16.0618673194
 30
0.0
 10
17.2004712229
 20
16.0468297567
 30
0.0
 10
17.3424880515
 20
16.0517408997
 30
0.0
 10
17.490070551
 20
16.0765085565
 30
0.0
 10
17.6418691987
 20
16.120751525
 30
0.0
 10
17.7963862013
 20
16.1840295726
 30
0.0
 10
17.8976951601
 20
16.2370416305
 30
0.0
 10
17.9484192446
 20
16.2663270195
 30
0.0
  0
SPLINE
  5
235
100
AcDbEntity
  8
0
100
AcDbSpline
 62
7
  6
BYLAYER
 70
0
 71
3
 72
15
 73
11
 74
0
 42
0.0000001
 43
0.0000001
 44
0.0000000001
 40
0.0
 40
0.0
 40
0.0
 40
0.0
 40
0.1132697538
 40
0.2278365404
 40
0.3449264237
 40
0.4656330011
 40
0.590855324
 40
0.7213205611
 40
0.8575754906
 40
1.0
 40
1.0
 40
1.0
 40
1.0
 10
15.1074435717
 20
16.8569234014
 30
0.0
 10
15.1392151293
 20
16.8385800748
 30
0.0
 10
15.2056573392
 20
16.8058951895
 30
0.0
 10
15.3117554313
 20
16.7699818594
 30
0.0
 10
15.4239013453
 20
16.7472766989
 30
0.0
 10
15.5413667419
 20
16.7378994193
 30
0.0
 10
15.6634485391
 20
16.7417958066
 30
0.0
 10
15.7894383885
 20
16.7589689372
 30
0.0
 10
15.9186281909
 20
16.7892497885
 30
0.0
 10
16.0045041725
 20
16.8174347206
 30
0.0
 10
16.0477385145
 20
16.8335195591
 30
0.0
  0
SPLINE
  5
236
100
AcDbEntity
  8
0
100
AcDbSpline
 62
7
  6
BYLAYER
 70
0
 71
3
 72
15
 73
11
 74
0
 42
0.0000001
 43
0.0000001
 44
0.0000000001
 40
0.0
 40
0.0
 40
0.0
 40
0.0
 40
0.112648664
 40
0.2266751018
 40
0.3433749224
 40
0.4638973507
 40
0.5891871068
 40
0.7199926546
 40
0.8568232274
 40
1.0
 40
1.0
 40
1.0
 40
1.0
 10
12.2790046711
 20
18.4898864194
 30
0.0
 10
12.2461424715
 20
18.5088594288
 30
0.0
 10
12.1825616435
 20
18.5516444275
 30
0.0
 10
12.095933218
 20
18.6287778785
 30
0.0
 10
12.0183541491
 20
18.7185428177
 30
0.0
 10
11.9503214283
 20
18.8202930821
 30
0.0
 10
11.8921787749
 20
18.9333372683
 30
0.0
 10
11.8443103453
 20
19.0569784865
 30
0.0
 10
11.8069092875
 20
19.1904059727
 30
0.0
 10
11.7895079889
 20
19.2832408506
 30
0.0
 10
11.7824934535
 20
19.3309575038
 30
0.0
  0
SPLINE
  5
237
100
AcDbEntity
  8
0
100
AcDbSpline
 62
7
  6
BYLAYER
 70
0
 71
3
 72
15
 73
11
 74
0
 42
0.0000001
 43
0.0000001
 44
0.0000000001
 40
0.0
 40
0.0
 40
0.0
 40
0.0
 40
0.1423796014
 40
0.2786460621
 40
0.4091348686
 40
0.5343645572
 40
0.6550692332
 40
0.7721582476
 40
0.8867274512
 40
1.0
 40
1.0
 40
1.0
 40
1.0
 10
18.0978357306
 20
20.3844694213
 30
0.0
 10
18.0901459271
 20
20.4299385831
 30
0.0
 10
18.0716101908
 20
20.5183889052
 30
0.0
 10
18.03324199
 20
20.6454076659
 30
0.0
 10
17.9851233867
 20
20.7631208474
 30
0.0
 10
17.9274534114
 20
20.8708038664
 30
0.0
 10
17.8605944721
 20
20.9678412076
 30
0.0
 10
17.7848544358
 20
21.0536057634
 30
0.0
 10
17.700701642
 20
21.1275320764
 30
0.0
 10
17.6391734145
 20
21.1687311779
 30
0.0
 10
17.6074011543
 20
21.1870749101
 30
0.0
  0
SPLINE
  5
238
100
AcDbEntity
  8
0
100
AcDbSpline
 62
7
  6
BYLAYER
 70
0
 71
3
 72
21
 73
17
 74
0
 42
0.0000001
 43
0.0000001
 44
0.0000000001
 40
0.0
 40
0.0
 40
0.0
 40
0.0
 40
0.0524731485
 40
0.107984723
 40
0.1663690732
 40
0.2273601774
 40
0.2906087651
 40
0.3557051953
 40
0.4894958714
 40
0.6247880216
 40
0.6917264983
 40
0.7574913351
 40
0.8215981652
 40
0.8836297258
 40
0.9432228863
 40
1.0
 40
1.0
 40
1.0
 40
1.0
 10
11.7824934535
 20
19.3309575038
 30
0.0
 10
11.772373956
 20
19.3997957842
 30
0.0
 10
11.7595450692
 20
19.5427145086
 30
0.0
 10
11.761352245
 20
19.7635988515
 30
0.0
 10
11.7835538
 20
19.9947069237
 30
0.0
 10
11.8259201221
 20
20.2333635508
 30
0.0
 10
11.8879065691
 20
20.4768718262
 30
0.0
 10
11.9968156685
 20
20.8071962527
 30
0.0
 10
12.176948628
 20
21.2134429393
 30
0.0
 10
12.4069400144
 20
21.5964622471
 30
0.0
 10
12.6178326818
 20
21.8827265181
 30
0.0
 10
12.7859957645
 20
22.0825430796
 30
0.0
 10
12.9627269595
 20
22.2658932097
 30
0.0
 10
13.1460359448
 20
22.4307065707
 30
0.0
 10
13.3337978883
 20
22.5749836122
 30
0.0
 10
13.4637845906
 20
22.6585758551
 30
0.0
 10
13.5289834624
 20
22.6962182166
 30
0.0
  0
SPLINE
  5
239
100
AcDbEntity
  8
0
100
AcDbSpline
 62
7
  6
BYLAYER
 70
0
 71
3
 72
25
 73
21
 74
0
 42
0.0000001
 43
0.0000001
 44
0.0000000001
 40
0.0
 40
0.0
 40
0.0
 40
0.0
 40
0.0623624459
 40
0.128731171
 40
0.1983161544
 40
0.2702914861
 40
0.3436690423
 40
0.4173987832
 40
0.4904227838
 40
0.561710215
 40
0.6303091147
 40
0.6953961573
 40
0.7563443886
 40
0.8127827549
 40
0.864682355
 40
0.9124579497
 40
0.9351024197
 40
0.9571083971
 40
0.9786683601
 40
1.0
 40
1.0
 40
1.0
 40
1.0
 10
24.3124067709
 20
15.6540442931
 30
0.0
 10
24.2585323664
 20
15.6229400768
 30
0.0
 10
24.1514769141
 20
15.5513706748
 30
0.0
 10
23.999842736
 20
15.4238049686
 30
0.0
 10
23.8549068028
 20
15.2749830179
 30
0.0
 10
23.7197810576
 20
15.108155861
 30
0.0
 10
23.5972802299
 20
14.9268529177
 30
0.0
 10
23.4900419752
 20
14.7349299107
 30
0.0
 10
23.4003639946
 20
14.5364782672
 30
0.0
 10
23.3301298585
 20
14.3357358031
 30
0.0
 10
23.2808487725
 20
14.1369612582
 30
0.0
 10
23.2535972372
 20
13.9443460035
 30
0.0
 10
23.2489473254
 20
13.7619250207
 30
0.0
 10
23.2671211936
 20
13.5934419996
 30
0.0
 10
23.3079330351
 20
13.4424161454
 30
0.0
 10
23.3614352025
 20
13.3317080745
 30
0.0
 10
23.4149116131
 20
13.2563834912
 30
0.0
 10
23.4592384925
 20
13.2072012852
 30
0.0
 10
23.5082698184
 20
13.164684205
 30
0.0
 10
23.5439969668
 20
13.1408945622
 30
0.0
 10
23.5624250305
 20
13.1302547978
 30
0.0
  0
SPLINE
  5
23A
100
AcDbEntity
  8
0
100
AcDbSpline
 62
7
  6
BYLAYER
 70
0
 71
3
 72
12
 73
8
 74
0
 42
0.0000001
 43
0.0000001
 44
0.0000000001
 40
0.0
 40
0.0
 40
0.0
 40
0.0
 40
0.1081678375
 40
0.2183538064
 40
0.4513088211
 40
0.7105869577
 40
1.0
 40
1.0
 40
1.0
 40
1.0
 10
24.5623972605
 20
14.86229676
 30
0.0
 10
24.5705933957
 20
14.857560484
 30
0.0
 10
24.5863508669
 20
14.8465584817
 30
0.0
 10
24.6146372269
 20
14.8187691108
 30
0.0
 10
24.6426447521
 20
14.7731011456
 30
0.0
 10
24.662096503
 20
14.7069271838
 30
0.0
 10
24.6659586895
 20
14.6587404369
 30
0.0
 10
24.6659586895
 20
14.6334127443
 30
0.0
  0
SPLINE
  5
23B
100
AcDbEntity
  8
0
100
AcDbSpline
 62
7
  6
BYLAYER
 70
0
 71
3
 72
23
 73
19
 74
0
 42
0.0000001
 43
0.0000001
 44
0.0000000001
 40
0.0
 40
0.0
 40
0.0
 40
0.0
 40
0.062338247
 40
0.1287506155
 40
0.1983711946
 40
0.2703410462
 40
0.3437266046
 40
0.4174697691
 40
0.4905033127
 40
0.5617990639
 40
0.6304075913
 40
0.6955069262
 40
0.756463746
 40
0.8129100245
 40
0.8648198196
 40
0.9126023181
 40
0.9571849249
 40
1.0
 40
1.0
 40
1.0
 40
1.0
 10
24.6659586895
 20
14.6334127443
 30
0.0
 10
24.6659586895
 20
14.6126882628
 30
0.0
 10
24.6631260418
 20
14.5698584556
 30
0.0
 10
24.6515959122
 20
14.504814247
 30
0.0
 10
24.6327777553
 20
14.4381615944
 30
0.0
 10
24.6071481829
 20
14.371346627
 30
0.0
 10
24.5752160297
 20
14.3057806817
 30
0.0
 10
24.537699937
 20
14.2428315085
 30
0.0
 10
24.4953538751
 20
14.1838745524
 30
0.0
 10
24.4491187527
 20
14.1301397389
 30
0.0
 10
24.3999451448
 20
14.0827939013
 30
0.0
 10
24.3488941208
 20
14.0428140366
 30
0.0
 10
24.2970042248
 20
14.0110758741
 30
0.0
 10
24.2453451143
 20
13.9882378667
 30
0.0
 10
24.1949353016
 20
13.9748488763
 30
0.0
 10
24.1467693876
 20
13.9712974711
 30
0.0
 10
24.1019155054
 20
13.9778716228
 30
0.0
 10
24.0747404954
 20
13.9891628182
 30
0.0
 10
24.0624162813
 20
13.9962845748
 30
0.0
  0
SPLINE
  5
23C
100
AcDbEntity
  8
0
100
AcDbSpline
 62
7
  6
BYLAYER
 70
0
 71
3
 72
28
 73
24
 74
0
 42
0.0000001
 43
0.0000001
 44
0.0000000001
 40
0.0
 40
0.0
 40
0.0
 40
0.0
 40
0.0623636851
 40
0.1287082335
 40
0.1982833432
 40
0.2702504716
 40
0.3436172555
 40
0.4173375746
 40
0.4903513297
 40
0.5616279677
 40
0.6302152687
 40
0.6952931762
 40
0.7562324472
 40
0.785039029
 40
0.8126996921
 40
0.8392207038
 40
0.8646405397
 40
0.8890240721
 40
0.9124697612
 40
0.9351117111
 40
0.9571136595
 40
0.9786710514
 40
1.0
 40
1.0
 40
1.0
 40
1.0
 10
16.357422363
 20
21.0632551986
 30
0.0
 10
16.267616484
 20
21.0114060596
 30
0.0
 10
16.0891841202
 20
20.8921438802
 30
0.0
 10
15.8364824582
 20
20.67951458
 30
0.0
 10
15.5949403644
 20
20.4314893999
 30
0.0
 10
15.3696989415
 20
20.1534622679
 30
0.0
 10
15.1655433757
 20
19.8512720391
 30
0.0
 10
14.9868210923
 20
19.5313927024
 30
0.0
 10
14.8373361261
 20
19.2006452182
 30
0.0
 10
14.7202817372
 20
18.8660768065
 30
0.0
 10
14.6381609271
 20
18.5347744196
 30
0.0
 10
14.5927298827
 20
18.2137866728
 30
0.0
 10
14.5861467171
 20
17.9556839754
 30
0.0
 10
14.6010622382
 20
17.760887784
 30
0.0
 10
14.6215293535
 20
17.6242852707
 30
0.0
 10
14.6514355809
 20
17.4951940915
 30
0.0
 10
14.6905895655
 20
17.3742951157
 30
0.0
 10
14.738822969
 20
17.2622437723
 30
0.0
 10
14.795927892
 20
17.159672376
 30
0.0
 10
14.8615710878
 20
17.0671302626
 30
0.0
 10
14.9354737032
 20
16.9851841988
 30
0.0
 10
15.0171961635
 20
16.9143279492
 30
0.0
 10
15.0767291924
 20
16.8746563655
 30
0.0
 10
15.1074435717
 20
16.8569234014
 30
0.0
  0
SPLINE
  5
23D
100
AcDbEntity
  8
0
100
AcDbSpline
 62
7
  6
BYLAYER
 70
0
 71
3
 72
28
 73
24
 74
0
 42
0.0000001
 43
0.0000001
 44
0.0000000001
 40
0.0
 40
0.0
 40
0.0
 40
0.0
 40
0.0623638152
 40
0.1287087391
 40
0.1982845307
 40
0.2702519315
 40
0.3436176075
 40
0.4173378612
 40
0.4903525419
 40
0.5616298295
 40
0.6302173531
 40
0.6952950286
 40
0.7562337511
 40
0.7850400456
 40
0.8127004035
 40
0.8392211718
 40
0.8646408212
 40
0.8890241609
 40
0.9124697751
 40
0.9351116936
 40
0.9571136682
 40
0.9786711317
 40
1.0
 40
1.0
 40
1.0
 40
1.0
 10
17.9484192446
 20
19.9405878966
 30
0.0
 10
17.8675938728
 20
19.893923625
 30
0.0
 10
17.7070043157
 20
19.7865873092
 30
0.0
 10
17.4795719257
 20
19.5952197248
 30
0.0
 10
17.262183391
 20
19.371995365
 30
0.0
 10
17.0594671459
 20
19.1217708868
 30
0.0
 10
16.8757279249
 20
18.8498011967
 30
0.0
 10
16.7148794012
 20
18.5619097695
 30
0.0
 10
16.5803421028
 20
18.2642353339
 30
0.0
 10
16.4749932022
 20
17.9631212224
 30
0.0
 10
16.4010853816
 20
17.6649482227
 30
0.0
 10
16.3601982822
 20
17.3760602777
 30
0.0
 10
16.3542745153
 20
17.1437697003
 30
0.0
 10
16.3676984405
 20
16.9684550321
 30
0.0
 10
16.3861191251
 20
16.8455142043
 30
0.0
 10
16.4130346804
 20
16.7293334253
 30
0.0
 10
16.4482724607
 20
16.6205251753
 30
0.0
 10
16.4916829038
 20
16.5196800003
 30
0.0
 10
16.5430764461
 20
16.4273659532
 30
0.0
 10
16.6021547431
 20
16.3440778403
 30
0.0
 10
16.668667902
 20
16.270327143
 30
0.0
 10
16.742217328
 20
16.2065558299
 30
0.0
 10
16.7957968143
 20
16.1708511018
 30
0.0
 10
16.8234396755
 20
16.1548916051
 30
0.0
  0
SPLINE
  5
23E
100
AcDbEntity
  8
0
100
AcDbSpline
 62
7
  6
BYLAYER
 70
0
 71
3
 72
25
 73
21
 74
0
 42
0.0000001
 43
0.0000001
 44
0.0000000001
 40
0.0
 40
0.0
 40
0.0
 40
0.0
 40
0.0213312299
 40
0.042891015
 40
0.0648968752
 40
0.087541248
 40
0.1353171161
 40
0.1872168597
 40
0.2436549655
 40
0.3046027007
 40
0.3696886343
 40
0.4382859567
 40
0.5095720704
 40
0.5825951679
 40
0.6563252026
 40
0.7297038456
 40
0.8016803586
 40
0.8712669923
 40
0.9376373508
 40
1.0
 40
1.0
 40
1.0
 40
1.0
 10
17.198437182
 20
16.8044210335
 30
0.0
 10
17.1800093198
 20
16.8150603309
 30
0.0
 10
17.1442821556
 20
16.8388490503
 30
0.0
 10
17.095252813
 20
16.8813673343
 30
0.0
 10
17.0509252337
 20
16.9305482308
 30
0.0
 10
16.9974476289
 20
17.0058721686
 30
0.0
 10
16.943946504
 20
17.1165812075
 30
0.0
 10
16.9031343541
 20
17.2676069723
 30
0.0
 10
16.8849592879
 20
17.4360893138
 30
0.0
 10
16.889609662
 20
17.6185084698
 30
0.0
 10
16.9168604581
 20
17.8111205428
 30
0.0
 10
16.9661386114
 20
18.0098917178
 30
0.0
 10
17.0363714268
 20
18.2106306687
 30
0.0
 10
17.1260472867
 20
18.4090810908
 30
0.0
 10
17.2332837004
 20
18.6010057415
 30
0.0
 10
17.3557859674
 20
18.7823108085
 30
0.0
 10
17.4909124003
 20
18.9491424185
 30
0.0
 10
17.6358510499
 20
19.0979680599
 30
0.0
 10
17.787487977
 20
19.2255358907
 30
0.0
 10
17.8945446621
 20
19.2971067647
 30
0.0
 10
17.9484192446
 20
19.3282110838
 30
0.0
  0
SPLINE
  5
23F
100
AcDbEntity
  8
0
100
AcDbSpline
 62
7
  6
BYLAYER
 70
0
 71
3
 72
11
 73
7
 74
0
 42
0.0000001
 43
0.0000001
 44
0.0000000001
 40
0.0
 40
0.0
 40
0.0
 40
0.0
 40
0.277610864
 40
0.536320776
 40
0.7763434729
 40
1.0
 40
1.0
 40
1.0
 40
1.0
 10
16.8877546569
 20
20.246760622
 30
0.0
 10
16.9429442391
 20
20.2786241519
 30
0.0
 10
17.0530267871
 20
20.3344957008
 30
0.0
 10
17.2214099686
 20
20.3945347496
 30
0.0
 10
17.3847594247
 20
20.4267072496
 30
0.0
 10
17.4918977444
 20
20.4290637201
 30
0.0
 10
17.5430791333
 20
20.4250085867
 30
0.0
  0
SPLINE
  5
240
100
AcDbEntity
  8
0
100
AcDbSpline
 62
7
  6
BYLAYER
 70
0
 71
3
 72
15
 73
11
 74
0
 42
0.0000001
 43
0.0000001
 44
0.0000000001
 40
0.0
 40
0.0
 40
0.0
 40
0.0
 40
0.1080103403
 40
0.2180653519
 40
0.3320024599
 40
0.451340887
 40
0.5772499828
 40
0.7105310636
 40
0.851523039
 40
1.0
 40
1.0
 40
1.0
 40
1.0
 10
25.0623885114
 20
15.7283265369
 30
0.0
 10
25.0377970446
 20
15.7425248497
 30
0.0
 10
24.9855885068
 20
15.7669912667
 30
0.0
 10
24.9010948768
 20
15.7903248064
 30
0.0
 10
24.8110399034
 20
15.8003856552
 30
0.0
 10
24.7163652334
 20
15.7970977588
 30
0.0
 10
24.6179685421
 20
15.7805947321
 30
0.0
 10
24.5167580262
 20
15.7510807665
 30
0.0
 10
24.4137468811
 20
15.7088930568
 30
0.0
 10
24.3462118573
 20
15.6735615523
 30
0.0
 10
24.3124067709
 20
15.6540442931
 30
0.0
  0
SPLINE
  5
241
100
AcDbEntity
  8
0
100
AcDbSpline
 62
7
  6
BYLAYER
 70
0
 71
3
 72
15
 73
11
 74
0
 42
0.0000001
 43
0.0000001
 44
0.0000000001
 40
0.0
 40
0.0
 40
0.0
 40
0.0
 40
0.0880904675
 40
0.1764983034
 40
0.2719382178
 40
0.3797710892
 40
0.5038914833
 40
0.6472153555
 40
0.8120121549
 40
1.0
 40
1.0
 40
1.0
 40
1.0
 10
3.6556238879
 20
25.1561059762
 30
0.0
 10
3.6488954943
 20
25.1522211617
 30
0.0
 10
3.6343839587
 20
25.146042202
 30
0.0
 10
3.6103886316
 20
25.1427098586
 30
0.0
 10
3.5845969561
 20
25.1450456846
 30
0.0
 10
3.5566059639
 20
25.1525053582
 30
0.0
 10
3.5257849508
 20
25.1646991519
 30
0.0
 10
3.4914676654
 20
25.1813489974
 30
0.0
 10
3.4529860739
 20
25.2021899479
 30
0.0
 10
3.4259770656
 20
25.2176402335
 30
0.0
 10
3.411618266
 20
25.2259302134
 30
0.0
  0
SPLINE
  5
242
100
AcDbEntity
  8
0
100
AcDbSpline
 62
7
  6
BYLAYER
 70
0
 71
3
 72
15
 73
11
 74
0
 42
0.0000001
 43
0.0000001
 44
0.0000000001
 40
0.0
 40
0.0
 40
0.0
 40
0.0
 40
0.1080102448
 40
0.2180574578
 40
0.332001769
 40
0.4513530905
 40
0.5772578218
 40
0.7104999967
 40
0.8514754674
 40
1.0
 40
1.0
 40
1.0
 40
1.0
 10
19.0733988136
 20
20.052023311
 30
0.0
 10
19.0365111526
 20
20.0733202564
 30
0.0
 10
18.9581865806
 20
20.109982548
 30
0.0
 10
18.8314641117
 20
20.1450475967
 30
0.0
 10
18.6963672663
 20
20.1600851595
 30
0.0
 10
18.5543504376
 20
20.1551740164
 30
0.0
 10
18.4067679382
 20
20.1304063596
 30
0.0
 10
18.2549692905
 20
20.0861633911
 30
0.0
 10
18.1004522879
 20
20.0228853435
 30
0.0
 10
17.9991433291
 20
19.9698732856
 30
0.0
 10
17.9484192446
 20
19.9405878966
 30
0.0
  0
SPLINE
  5
243
100
AcDbEntity
  8
0
100
AcDbSpline
 62
7
  6
BYLAYER
 70
0
 71
3
 72
15
 73
11
 74
0
 42
0.0000001
 43
0.0000001
 44
0.0000000001
 40
0.0
 40
0.0
 40
0.0
 40
0.0
 40
0.1484794585
 40
0.2894714721
 40
0.4227506369
 40
0.5486586524
 40
0.6679968122
 40
0.7819343057
 40
0.8919890566
 40
1.0
 40
1.0
 40
1.0
 40
1.0
 10
17.9484192446
 20
19.3282110838
 30
0.0
 10
17.9822249166
 20
19.3477286811
 30
0.0
 10
18.04976048
 20
19.3830606523
 30
0.0
 10
18.1527718403
 20
19.425248538
 30
0.0
 10
18.2539818259
 20
19.4547615289
 30
0.0
 10
18.3523776451
 20
19.4712652447
 30
0.0
 10
18.447052067
 20
19.4745517861
 30
0.0
 10
18.5371073298
 20
19.4644933303
 30
0.0
 10
18.6216008939
 20
19.4411582106
 30
0.0
 10
18.6738094882
 20
19.4166919308
 30
0.0
 10
18.6984013072
 20
19.4024938826
 30
0.0
  0
SPLINE
  5
244
100
AcDbEntity
  8
0
100
AcDbSpline
 62
7
  6
BYLAYER
 70
0
 71
3
 72
23
 73
19
 74
0
 42
0.0000001
 43
0.0000001
 44
0.0000000001
 40
0.0
 40
0.0
 40
0.0
 40
0.0
 40
0.0451687696
 40
0.0936765602
 40
0.1459651597
 40
0.2021584829
 40
0.2621135495
 40
0.3254856729
 40
0.3917633339
 40
0.4603162478
 40
0.5304284453
 40
0.6013243794
 40
0.6722062304
 40
0.7422741992
 40
0.8107505193
 40
0.876924066
 40
0.94020198
 40
1.0
 40
1.0
 40
1.0
 40
1.0
 10
15.7352345329
 20
17.2936631658
 30
0.0
 10
15.7058421816
 20
17.3363831318
 30
0.0
 10
15.6538889004
 20
17.4313950815
 30
0.0
 10
15.5998917504
 20
17.5907319267
 30
0.0
 10
15.5678777491
 20
17.7686876312
 30
0.0
 10
15.5582575085
 20
17.9622716296
 30
0.0
 10
15.5710188169
 20
18.1683476166
 30
0.0
 10
15.6059483134
 20
18.3835212861
 30
0.0
 10
15.6624260054
 20
18.6042298911
 30
0.0
 10
15.7394849781
 20
18.8267995001
 30
0.0
 10
15.835868191
 20
19.0474880293
 30
0.0
 10
15.9499207722
 20
19.2626064487
 30
0.0
 10
16.0797397165
 20
19.4685355498
 30
0.0
 10
16.2231615833
 20
19.6617945356
 30
0.0
 10
16.3777294238
 20
19.8391685571
 30
0.0
 10
16.5409248154
 20
19.9976933707
 30
0.0
 10
16.7099817678
 20
20.1346304725
 30
0.0
 10
16.8283024996
 20
20.2124361079
 30
0.0
 10
16.8877546569
 20
20.246760622
 30
0.0
  0
SPLINE
  5
245
100
AcDbEntity
  8
0
100
AcDbSpline
 62
7
  6
BYLAYER
 70
0
 71
3
 72
24
 73
20
 74
0
 42
0.0000001
 43
0.0000001
 44
0.0000000001
 40
0.0
 40
0.0
 40
0.0
 40
0.0
 40
0.0451656309
 40
0.0689872188
 40
0.0937121243
 40
0.1459989536
 40
0.2021885101
 40
0.2621429844
 40
0.3255118891
 40
0.3917866197
 40
0.4603377338
 40
0.5304464404
 40
0.6013403743
 40
0.6722187826
 40
0.7422835899
 40
0.8107598974
 40
0.8769293265
 40
0.9401989673
 40
1.0
 40
1.0
 40
1.0
 40
1.0
 10
16.2118447244
 20
16.600996868
 30
0.0
 10
16.1765764738
 20
16.6522603213
 30
0.0
 10
16.1306127097
 20
16.7362659991
 30
0.0
 10
16.0836298551
 20
16.8566038734
 30
0.0
 10
16.0436083188
 20
16.9897822742
 30
0.0
 10
16.0110235863
 20
17.1710367804
 30
0.0
 10
15.999451003
 20
17.4033166317
 30
0.0
 10
16.0147887879
 20
17.6506127476
 30
0.0
 10
16.0566990708
 20
17.9088197321
 30
0.0
 10
16.1244582143
 20
18.1736749128
 30
0.0
 10
16.216949593
 20
18.4407509671
 30
0.0
 10
16.3325977868
 20
18.705583012
 30
0.0
 10
16.4694585311
 20
18.9637263243
 30
0.0
 10
16.6252521526
 20
19.2108334475
 30
0.0
 10
16.7973473898
 20
19.4427550987
 30
0.0
 10
16.9828375011
 20
19.6555984566
 30
0.0
 10
17.1786679475
 20
19.8458222099
 30
0.0
 10
17.3815265862
 20
20.0101550424
 30
0.0
 10
17.5235153897
 20
20.1035151599
 30
0.0
 10
17.594864382
 20
20.1447082739
 30
0.0
  0
SPLINE
  5
246
100
AcDbEntity
  8
0
100
AcDbSpline
 62
7
  6
BYLAYER
 70
0
 71
3
 72
15
 73
11
 74
0
 42
0.0000001
 43
0.0000001
 44
0.0000000001
 40
0.0
 40
0.0
 40
0.0
 40
0.0
 40
0.1080128885
 40
0.2180623029
 40
0.3320069026
 40
0.4513579802
 40
0.5772614802
 40
0.7105013592
 40
0.8514750511
 40
1.0
 40
1.0
 40
1.0
 40
1.0
 10
17.6074011543
 20
21.1870749101
 30
0.0
 10
17.5664138939
 20
21.2107389279
 30
0.0
 10
17.4793836581
 20
21.2514739043
 30
0.0
 10
17.3385788562
 20
21.2904362353
 30
0.0
 10
17.1884698028
 20
21.3071436095
 30
0.0
 10
17.0306738086
 20
21.3016841188
 30
0.0
 10
16.8666948343
 20
21.2741643029
 30
0.0
 10
16.6980318823
 20
21.2250054595
 30
0.0
 10
16.5263475728
 20
21.1546971519
 30
0.0
 10
16.4137826797
 20
21.0957946484
 30
0.0
 10
16.357422363
 20
21.0632551986
 30
0.0
  0
SPLINE
  5
247
100
AcDbEntity
  8
0
100
AcDbSpline
 62
7
  6
BYLAYER
 70
0
 71
3
 72
11
 73
7
 74
0
 42
0.0000001
 43
0.0000001
 44
0.0000000001
 40
0.0
 40
0.0
 40
0.0
 40
0.0
 40
0.2776391036
 40
0.5363156564
 40
0.7763316795
 40
1.0
 40
1.0
 40
1.0
 40
1.0
 10
17.594864382
 20
20.1447082739
 30
0.0
 10
17.6610988095
 20
20.1829485101
 30
0.0
 10
17.7931933248
 20
20.250002356
 30
0.0
 10
17.9952558277
 20
20.3220336879
 30
0.0
 10
18.1912668661
 20
20.3606440384
 30
0.0
 10
18.3198341611
 20
20.3634715844
 30
0.0
 10
18.3812556997
 20
20.3586109057
 30
0.0
  0
SPLINE
  5
248
100
AcDbEntity
  8
0
100
AcDbSpline
 62
7
  6
BYLAYER
 70
0
 71
3
 72
9
 73
5
 74
0
 42
0.0000001
 43
0.0000001
 44
0.0000000001
 40
0.0
 40
0.0
 40
0.0
 40
0.0
 40
0.2440724106
 40
1.0
 40
1.0
 40
1.0
 40
1.0
 10
23.9593751229
 20
14.2254724199
 30
0.0
 10
23.9634416787
 20
14.2278271023
 30
0.0
 10
23.9799589388
 20
14.2377220913
 30
0.0
 10
23.9959002541
 20
14.2485709765
 30
0.0
 10
24.0076095695
 20
14.2572140963
 30
0.0
  0
SPLINE
  5
249
100
AcDbEntity
  8
0
100
AcDbSpline
 62
7
  6
BYLAYER
 70
0
 71
3
 72
15
 73
11
 74
0
 42
0.0000001
 43
0.0000001
 44
0.0000000001
 40
0.0
 40
0.0
 40
0.0
 40
0.0
 40
0.1190993638
 40
0.2449623964
 40
0.3752514803
 40
0.5073147498
 40
0.6383664681
 40
0.7657138284
 40
0.887010094
 40
1.0
 40
1.0
 40
1.0
 40
1.0
 10
24.0076095695
 20
14.2572140963
 30
0.0
 10
24.0290766832
 20
14.2730598422
 30
0.0
 10
24.07099071
 20
14.3087544242
 30
0.0
 10
24.128281489
 20
14.3704983216
 30
0.0
 10
24.180350161
 20
14.4403653955
 30
0.0
 10
24.2255598686
 20
14.5161978181
 30
0.0
 10
24.2625613506
 20
14.5956323755
 30
0.0
 10
24.2901892678
 20
14.6762699066
 30
0.0
 10
24.3075537273
 20
14.7555872467
 30
0.0
 10
24.3121619449
 20
14.8080779713
 30
0.0
 10
24.3123854794
 20
14.8333901939
 30
0.0
  0
ENDSEC
  0
SECTION
  2
OBJECTS
  0
DICTIONARY
  5
C
100
AcDbDictionary
280
0
281
1
  3
ACAD_GROUP
350
D
  3
ACAD_MLINESTYLE
350
17
  3
ACAD_LAYOUT
350
1A
  3
ACAD_PLOTSETTINGS
350
19
  3
ACAD_PLOTSTYLENAME
350
E
  0
DICTIONARY
  5
D
102
{ACAD_REACTORS
330
C
102
}
100
AcDbDictionary
280
0
281
1
  0
ACDBDICTIONARYWDFLT
  5
E
102
{ACAD_REACTORS
330
C
102
}
100
AcDbDictionary
281
1
  3
Normal
350
F
100
AcDbDictionaryWithDefault
340
F
  0
DICTIONARY
  5
17
102
{ACAD_REACTORS
330
C
102
}
100
AcDbDictionary
280
0
281
1
  3
Standard
350
18
  0
DICTIONARY
  5
19
102
{ACAD_REACTORS
330
C
102
}
100
AcDbDictionary
281
1
  0
DICTIONARY
  5
1A
102
{ACAD_REACTORS
330
C
102
}
100
AcDbDictionary
281
1
  3
Model
350
24A
  3
Layout1
350
24B
  0
ACDBPLACEHOLDER
  5
F
102
{ACAD_REACTORS
330
E
102
}
  0
MLINESTYLE
  5
18
102
{ACAD_REACTORS
330
17
102
}
100
AcDbMlineStyle
  2
STANDARD
 70
0
  3

 62
256
 51
90.0
 52
90.0
 71
2
 49
0.5
 62
256
  6
BYLAYER
 49
-0.5
 62
256
  6
BYLAYER
  0
LAYOUT
  5
24A
102
{ACAD_REACTORS
330
1A
102
}
100
AcDbPlotSettings
  1

  2
none_device
  4

  6

 40
0.0
 41
0.0
 42
0.0
 43
0.0
 44
210.0
 45
297.0
 46
0.0
 47
0.0
 48
0.0
 49
0.0
140
0.0
141
0.0
142
1.0
143
1.0
 70
1024
 72
1
 73
0
 74
0
  7

 75
0
147
1.0
148
0.0
149
0.0
100
AcDbLayout
  1
Model
 70
0
 71
0
 10
0.0
 20
0.0
 11
210.0
 21
297.0
 12
0.0
 22
0.0
 32
0.0
 14
0.0
 24
0.0
 34
0.0
 15
0.0
 25
0.0
 35
0.0
146
0.0
 13
0.0
 23
0.0
 33
0.0
 16
1.0
 26
0.0
 36
0.0
 17
0.0
 27
1.0
 37
0.0
 76
0
330
210
345
0
346
0
  0
LAYOUT
  5
24B
102
{ACAD_REACTORS
330
1A
102
}
100
AcDbPlotSettings
  1

  2
none_device
  4

  6

 40
0.0
 41
0.0
 42
0.0
 43
0.0
 44
210.0
 45
297.0
 46
0.0
 47
0.0
 48
0.0
 49
0.0
140
0.0
141
0.0
142
1.0
143
1.0
 70
0
 72
1
 73
0
 74
0
  7

 75
0
147
1.0
148
0.0
149
0.0
100
AcDbLayout
  1
Layout1
 70
0
 71
1
 10
0.0
 20
0.0
 11
210.0
 21
297.0
 12
0.0
 22
0.0
 32
0.0
 14
0.0
 24
0.0
 34
0.0
 15
0.0
 25
0.0
 35
0.0
146
0.0
 13
0.0
 23
0.0
 33
0.0
 16
1.0
 26
0.0
 36
0.0
 17
0.0
 27
1.0
 37
0.0
 76
0
330
211
345
0
346
0
  0
ENDSEC
  0
EOF
