999
DXF file: C:\Users\sesa63760\Dev\_Creo\CAD\MCADID0003987_3D-CAD\drw0001_5.dxf
999
Pro/ENGINEER 2019471 by Parametric Technology Corporation
  0
SECTION
  2
HEADER
  9
$ACADVER
  1
AC1024
  9
$DWGCODEPAGE
  3
ANSI_1252
  9
$EXTMAX
 10
61.6691974208
 20
87.2178649238
 30
0.0
  9
$EXTMIN
 10
0.0
 20
0.0
 30
0.0
  9
$LIMMIN
 10
0.0
 20
0.0
  9
$LIMMAX
 10
61.6691974208
 20
87.2178649238
  9
$VIEWCTR
 10
30.8345987104
 20
43.6089324619
  9
$VIEWSIZE
 40
87.2178649238
  9
$CLAYER
  8
0
  9
$LTSCALE
 40
5.6853126765
  9
$CELTYPE
  6
BYLAYER
  9
$DIMSCALE
 40
1.0
  9
$DIMASZ
 40
0.7341571122
  9
$DIMEXO
 40
1.0
  9
$DIMDLI
 40
3.9280342129
  9
$DIMEXE
 40
1.0
  9
$DIMCEN
 40
0.9303238925
  9
$DIMLFAC
 40
1.0
  9
$DIMBLK
  1
_FILLED
  9
$DIMALT
 70
0
  9
$DIMALTF
 40
0.0393700787
  9
$DIMTXT
 40
1.027819957
  9
$DIMTOL
 70
1
  9
$DIMLIM
 70
0
  9
$DIMTFAC
 40
1.0
  9
$DIMTP
 40
0.01
  9
$DIMTM
 40
0.01
  9
$DIMGAP
 40
0.625
  9
$DIMDSEP
 70
46
  9
$AUNITS
 70
0
  9
$PDMODE
 70
3
  9
$PDSIZE
 40
0.3125
  9
$HANDSEED
  5
33B
  9
$TILEMODE
 70
1
  9
$MEASUREMENT
 70
1
  9
$INSUNITS
 70
4
  0
ENDSEC
  0
SECTION
  2
CLASSES
  0
CLASS
  1
ACDBDICTIONARYWDFLT
  2
AcDbDictionaryWithDefault
  3
AutoCAD 2000
 90
0
 91
1
280
0
281
0
  0
CLASS
  1
ACDBPLACEHOLDER
  2
AcDbPlaceHolder
  3
AutoCAD 2000
 90
0
 91
1
280
0
281
0
  0
CLASS
  1
LAYOUT
  2
AcDbLayout
  3
AutoCAD 2000
 90
0
 91
0
280
0
281
0
  0
ENDSEC
  0
SECTION
  2
TABLES
  0
TABLE
  2
VPORT
  5
8
100
AcDbSymbolTable
 70
2
  0
VPORT
  5
1F4
100
AcDbSymbolTableRecord
100
AcDbViewportTableRecord
  2
*ACTIVE
 70
0
 10
0.0
 20
0.0
 11
1.0
 21
1.0
 12
30.8345987104
 22
43.6089324619
 13
0.0
 23
0.0
 14
1.0
 24
1.0
 15
0.0
 25
0.0
 16
0.0
 26
0.0
 36
1.0
 17
0.0
 27
0.0
 37
0.0
 40
87.2178649238
 41
0.7070707071
 42
50.0
 43
0.0
 44
0.0
 50
0.0
 51
0.0
 71
0
 72
100
 73
1
 74
1
 75
0
 76
0
 77
0
 78
0
  0
ENDTAB
  0
TABLE
  2
LTYPE
  5
5
100
AcDbSymbolTable
 70
6
  0
LTYPE
  5
14
100
AcDbSymbolTableRecord
100
AcDbLinetypeTableRecord
  2
BYBLOCK
 70
0
  3

 72
65
 73
0
 40
0.0
  0
LTYPE
  5
15
100
AcDbSymbolTableRecord
100
AcDbLinetypeTableRecord
  2
BYLAYER
 70
0
  3

 72
65
 73
0
 40
0.0
  0
LTYPE
  5
16
100
AcDbSymbolTableRecord
100
AcDbLinetypeTableRecord
  2
CONTINUOUS
 70
64
  3
Solid line
 72
65
 73
0
 40
0.0
  0
LTYPE
  5
1F5
100
AcDbSymbolTableRecord
100
AcDbLinetypeTableRecord
  2
CENTER
 70
64
  3
____ _ ____ _ ____ _ ____ _ ____ _ ____ _ ____
 72
65
 73
4
 40
0.6
 49
0.375
 74
0
 49
-0.075
 74
0
 49
0.075
 74
0
 49
-0.075
 74
0
  0
LTYPE
  5
1F6
100
AcDbSymbolTableRecord
100
AcDbLinetypeTableRecord
  2
HIDDEN
 70
64
  3
- - - - - - - - - - - - - - - - - - - -
 72
65
 73
2
 40
0.2
 49
0.1
 74
0
 49
-0.1
 74
0
  0
LTYPE
  5
1F7
100
AcDbSymbolTableRecord
100
AcDbLinetypeTableRecord
  2
PHANTOM
 70
64
  3
_____ _ _ _____ _ _ _____ _ _ _____
 72
65
 73
6
 40
0.8
 49
0.45
 74
0
 49
-0.05
 74
0
 49
0.1
 74
0
 49
-0.05
 74
0
 49
0.1
 74
0
 49
-0.05
 74
0
  0
LTYPE
  5
1F8
100
AcDbSymbolTableRecord
100
AcDbLinetypeTableRecord
  2
DOT
 70
64
  3
. . . . . . . . . . . . . . . . . . . .
 72
65
 73
2
 40
0.2
 49
0.1
 74
0
 49
-0.1
 74
0
  0
LTYPE
  5
1F9
100
AcDbSymbolTableRecord
100
AcDbLinetypeTableRecord
  2
DASHED
 70
64
  3
- - - - - - - - - - - - - - - - - - - -
 72
65
 73
2
 40
0.2
 49
0.1
 74
0
 49
-0.1
 74
0
  0
ENDTAB
  0
TABLE
  2
LAYER
  5
2
100
AcDbSymbolTable
 70
36
  0
LAYER
  5
10
100
AcDbSymbolTableRecord
100
AcDbLayerTableRecord
  2
0
 70
0
 62
7
  6
CONTINUOUS
370
-3
390
F
  0
LAYER
  5
1FA
100
AcDbSymbolTableRecord
100
AcDbLayerTableRecord
  2
DEFAULT_1
 70
0
 62
7
  6
CENTER
370
-3
390
F
  0
LAYER
  5
1FB
100
AcDbSymbolTableRecord
100
AcDbLayerTableRecord
  2
DEFAULT_2
 70
0
 62
7
  6
HIDDEN
370
-3
390
F
  0
LAYER
  5
1FC
100
AcDbSymbolTableRecord
100
AcDbLayerTableRecord
  2
DEFAULT_3
 70
0
 62
7
  6
PHANTOM
370
-3
390
F
  0
LAYER
  5
1FD
100
AcDbSymbolTableRecord
100
AcDbLayerTableRecord
  2
00_COMPONENTS
 70
0
 62
7
  6
CONTINUOUS
370
-3
390
F
  0
LAYER
  5
1FE
100
AcDbSymbolTableRecord
100
AcDbLayerTableRecord
  2
01_1_DEFAULT_DATUMS
 70
0
 62
7
  6
CONTINUOUS
370
-3
390
F
  0
LAYER
  5
1FF
100
AcDbSymbolTableRecord
100
AcDbLayerTableRecord
  2
01_PLANES
 70
0
 62
7
  6
CONTINUOUS
370
-3
390
F
  0
LAYER
  5
200
100
AcDbSymbolTableRecord
100
AcDbLayerTableRecord
  2
02_COORD_SYS
 70
0
 62
7
  6
CONTINUOUS
370
-3
390
F
  0
LAYER
  5
201
100
AcDbSymbolTableRecord
100
AcDbLayerTableRecord
  2
03_AXES
 70
0
 62
7
  6
CONTINUOUS
370
-3
390
F
  0
LAYER
  5
202
100
AcDbSymbolTableRecord
100
AcDbLayerTableRecord
  2
04_POINTS
 70
0
 62
7
  6
CONTINUOUS
370
-3
390
F
  0
LAYER
  5
203
100
AcDbSymbolTableRecord
100
AcDbLayerTableRecord
  2
05_CURVES
 70
0
 62
7
  6
CONTINUOUS
370
-3
390
F
  0
LAYER
  5
204
100
AcDbSymbolTableRecord
100
AcDbLayerTableRecord
  2
06_SURFS
 70
0
 62
7
  6
CONTINUOUS
370
-3
390
F
  0
LAYER
  5
205
100
AcDbSymbolTableRecord
100
AcDbLayerTableRecord
  2
07_COSMETICS
 70
0
 62
7
  6
CONTINUOUS
370
-3
390
F
  0
LAYER
  5
206
100
AcDbSymbolTableRecord
100
AcDbLayerTableRecord
  2
10_NOTES
 70
0
 62
7
  6
CONTINUOUS
370
-3
390
F
  0
LAYER
  5
207
100
AcDbSymbolTableRecord
100
AcDbLayerTableRecord
  2
11_NOTES_PUB
 70
0
 62
7
  6
CONTINUOUS
370
-3
390
F
  0
LAYER
  5
208
100
AcDbSymbolTableRecord
100
AcDbLayerTableRecord
  2
13_REF_GTOL
 70
0
 62
7
  6
CONTINUOUS
370
-3
390
F
  0
LAYER
  5
209
100
AcDbSymbolTableRecord
100
AcDbLayerTableRecord
  2
16_MISC
 70
0
 62
7
  6
CONTINUOUS
370
-3
390
F
  0
LAYER
  5
20A
100
AcDbSymbolTableRecord
100
AcDbLayerTableRecord
  2
17_NO_PRINT
 70
0
 62
7
  6
CONTINUOUS
370
-3
390
F
  0
LAYER
  5
20B
100
AcDbSymbolTableRecord
100
AcDbLayerTableRecord
  2
18_DATUM_CAMS_JOINTS
 70
0
 62
7
  6
CONTINUOUS
370
-3
390
F
  0
LAYER
  5
20C
100
AcDbSymbolTableRecord
100
AcDbLayerTableRecord
  2
19_DATUM_FUNCTIONAL
 70
0
 62
7
  6
CONTINUOUS
370
-3
390
F
  0
LAYER
  5
20D
100
AcDbSymbolTableRecord
100
AcDbLayerTableRecord
  2
20_DATUM_KINEMATIC_SCHEME
 70
0
 62
7
  6
CONTINUOUS
370
-3
390
F
  0
ENDTAB
  0
TABLE
  2
STYLE
  5
3
100
AcDbSymbolTable
 70
1
  0
STYLE
  5
11
100
AcDbSymbolTableRecord
100
AcDbTextStyleTableRecord
  2
STANDARD
 70
0
 40
0.0
 41
1.0
 50
0.0
 71
0
 42
0.2
  3
ARIAL.TTF
  4

  0
STYLE
  5
20E
100
AcDbSymbolTableRecord
100
AcDbTextStyleTableRecord
  2
TEXTSTYLE_1
 70
0
 40
0.0
 41
0.8
 50
0.0
 71
0
 42
0.2
  3
gdt
  4

  0
ENDTAB
  0
TABLE
  2
VIEW
  5
6
100
AcDbSymbolTable
 70
0
  0
ENDTAB
  0
TABLE
  2
UCS
  5
7
100
AcDbSymbolTable
 70
0
  0
ENDTAB
  0
TABLE
  2
APPID
  5
9
100
AcDbSymbolTable
 70
1
  0
APPID
  5
20F
100
AcDbSymbolTableRecord
100
AcDbRegAppTableRecord
  2
ACAD
 70
0
  0
ENDTAB
  0
TABLE
  2
BLOCK_RECORD
  5
1
100
AcDbSymbolTable
 70
0
  0
BLOCK_RECORD
  5
210
100
AcDbSymbolTableRecord
100
AcDbBlockTableRecord
  2
*Model_Space
  0
BLOCK_RECORD
  5
211
100
AcDbSymbolTableRecord
100
AcDbBlockTableRecord
  2
*Paper_Space
  0
BLOCK_RECORD
  5
212
100
AcDbSymbolTableRecord
100
AcDbBlockTableRecord
  2
_FILLED
  0
ENDTAB
  0
TABLE
  2
DIMSTYLE
  5
A
100
AcDbSymbolTable
 70
1
100
AcDbDimStyleTable
 71
0
  0
DIMSTYLE
105
213
100
AcDbSymbolTableRecord
100
AcDbDimStyleTableRecord
  2
STANDARD
 70
0
  3

  4

 40
1.0
 41
0.7341571122
 42
1.0
 43
0.38
 44
1.0
 45
0.0
 46
0.0
 47
0.01
 48
0.01
140
1.027819957
141
0.09
142
0.0
143
25.4
144
1.0
145
0.0
146
1.0
147
0.625
 71
1
 72
0
 73
0
 74
0
 75
0
 76
0
 77
1
 78
8
 79
2
170
0
171
1
172
0
173
0
174
0
175
0
176
0
177
0
178
0
270
2
179
2
271
2
272
2
273
2
274
2
275
0
280
0
281
0
282
0
283
1
284
8
285
0
286
0
287
3
288
0
340
11
278
46
341
212
342
212
343
212
344
212
  0
ENDTAB
  0
ENDSEC
  0
SECTION
  2
BLOCKS
  0
BLOCK
  5
20
100
AcDbEntity
  8
0
100
AcDbBlockBegin
  2
*Model_Space
 70
0
 10
0.0
 20
0.0
 30
0.0
  3
*Model_Space
  1

  0
ENDBLK
  5
21
100
AcDbEntity
  8
0
100
AcDbBlockEnd
  0
BLOCK
  5
1C
100
AcDbEntity
  8
0
100
AcDbBlockBegin
  2
*Paper_Space
 70
0
 10
0.0
 20
0.0
 30
0.0
  3
*Paper_Space
  1

  0
ENDBLK
  5
1D
100
AcDbEntity
  8
0
100
AcDbBlockEnd
  0
BLOCK
  5
214
100
AcDbEntity
  8
0
100
AcDbBlockBegin
  2
_FILLED
 70
64
 10
0.0
 20
0.0
  3
_FILLED
  1

  0
SOLID
  5
215
100
AcDbEntity
  8
0
  6
BYBLOCK
 62
0
100
AcDbTrace
 10
0.0
 20
0.0
 11
-1.0
 21
0.25
 12
-1.0
 22
-0.25
 13
-1.0
 23
-0.25
  0
ENDBLK
  5
216
100
AcDbEntity
  8
0
  6
BYBLOCK
 62
0
100
AcDbBlockEnd
  0
ENDSEC
  0
SECTION
  2
ENTITIES
  0
LINE
  5
217
100
AcDbEntity
  8
0
100
AcDbLine
 62
7
  6
BYLAYER
 10
7.1886292115
 20
38.665686688
 11
7.1886292115
 21
48.7656902139
  0
LINE
  5
218
100
AcDbEntity
  8
0
100
AcDbLine
 62
7
  6
BYLAYER
 10
7.3886292115
 20
38.5156862745
 11
7.3886292115
 21
48.9156862745
  0
LINE
  5
219
100
AcDbEntity
  8
0
100
AcDbLine
 62
7
  6
BYLAYER
 10
7.5886292115
 20
37.9156793336
 11
7.5886292115
 21
49.515627792
  0
LINE
  5
21A
100
AcDbEntity
  8
0
100
AcDbLine
 62
7
  6
BYLAYER
 10
7.7886292115
 20
37.7156862745
 11
7.7886292115
 21
49.7156862745
  0
LINE
  5
21B
100
AcDbEntity
  8
0
100
AcDbLine
 62
7
  6
BYLAYER
 10
10.1886292115
 20
52.2156862745
 11
10.8395654146
 21
53.3431408507
  0
LINE
  5
21C
100
AcDbEntity
  8
0
100
AcDbLine
 62
7
  6
BYLAYER
 10
10.1886292115
 20
35.2156862745
 11
10.8395654146
 21
34.0882316983
  0
LINE
  5
21D
100
AcDbEntity
  8
0
100
AcDbLine
 62
7
  6
BYLAYER
 10
10.1886292115
 20
35.2156891421
 11
10.1886292115
 21
52.215683407
  0
LINE
  5
21E
100
AcDbEntity
  8
0
100
AcDbLine
 62
7
  6
BYLAYER
 10
7.5886292115
 20
49.5156862745
 11
7.7886292115
 21
49.7156862745
  0
LINE
  5
21F
100
AcDbEntity
  8
0
100
AcDbLine
 62
7
  6
BYLAYER
 10
7.5886292115
 20
37.9156862745
 11
7.7886292115
 21
37.7156862745
  0
LINE
  5
220
100
AcDbEntity
  8
0
100
AcDbLine
 62
7
  6
BYLAYER
 10
13.1886292115
 20
52.215683407
 11
13.1886292115
 21
35.2156891421
  0
LINE
  5
221
100
AcDbEntity
  8
0
100
AcDbLine
 62
7
  6
BYLAYER
 10
13.8886292115
 20
51.3309146348
 11
13.8886292115
 21
51.0138225231
  0
LINE
  5
222
100
AcDbEntity
  8
0
100
AcDbLine
 62
7
  6
BYLAYER
 10
13.8886292115
 20
50.9097573928
 11
13.8886292115
 21
50.6295128054
  0
LINE
  5
223
100
AcDbEntity
  8
0
100
AcDbLine
 62
7
  6
BYLAYER
 10
13.8886292115
 20
50.3470160947
 11
13.8886292115
 21
50.0229870143
  0
LINE
  5
224
100
AcDbEntity
  8
0
100
AcDbLine
 62
7
  6
BYLAYER
 10
13.8886292115
 20
49.5711383999
 11
13.8886292115
 21
49.2137393877
  0
LINE
  5
225
100
AcDbEntity
  8
0
100
AcDbLine
 62
7
  6
BYLAYER
 10
13.8886292115
 20
48.6070616558
 11
13.8886292115
 21
48.2277798103
  0
LINE
  5
226
100
AcDbEntity
  8
0
100
AcDbLine
 62
7
  6
BYLAYER
 10
13.8886292115
 20
47.4857720824
 11
13.8886292115
 21
47.0967978341
  0
LINE
  5
227
100
AcDbEntity
  8
0
100
AcDbLine
 62
7
  6
BYLAYER
 10
13.8886292115
 20
46.2433088491
 11
13.8886292115
 21
45.8571441504
  0
LINE
  5
228
100
AcDbEntity
  8
0
100
AcDbLine
 62
7
  6
BYLAYER
 10
13.8886292115
 20
44.9196057465
 11
13.8886292115
 21
44.5486622485
  0
LINE
  5
229
100
AcDbEntity
  8
0
100
AcDbLine
 62
7
  6
BYLAYER
 10
13.8886292115
 20
43.5572076815
 11
13.8886292115
 21
43.1908530106
  0
LINE
  5
22A
100
AcDbEntity
  8
0
100
AcDbLine
 62
7
  6
BYLAYER
 10
13.8886292115
 20
42.2224580517
 11
13.8886292115
 21
41.8423738461
  0
LINE
  5
22B
100
AcDbEntity
  8
0
100
AcDbLine
 62
7
  6
BYLAYER
 10
13.8886292115
 20
40.9432405052
 11
13.8886292115
 21
40.5541044845
  0
LINE
  5
22C
100
AcDbEntity
  8
0
100
AcDbLine
 62
7
  6
BYLAYER
 10
13.8886292115
 20
39.7531316468
 11
13.8886292115
 21
39.3674509629
  0
LINE
  5
22D
100
AcDbEntity
  8
0
100
AcDbLine
 62
7
  6
BYLAYER
 10
13.8886292115
 20
38.6903825546
 11
13.8886292115
 21
38.320553302
  0
LINE
  5
22E
100
AcDbEntity
  8
0
100
AcDbLine
 62
7
  6
BYLAYER
 10
13.8886292115
 20
37.7891508588
 11
13.8886292115
 21
37.4470596539
  0
LINE
  5
22F
100
AcDbEntity
  8
0
100
AcDbLine
 62
7
  6
BYLAYER
 10
13.8886292115
 20
37.0784028876
 11
13.8886292115
 21
36.7750448233
  0
LINE
  5
230
100
AcDbEntity
  8
0
100
AcDbLine
 62
7
  6
BYLAYER
 10
13.8886292115
 20
36.5809826656
 11
13.8886292115
 21
36.3261079197
  0
LINE
  5
231
100
AcDbEntity
  8
0
100
AcDbLine
 62
7
  6
BYLAYER
 10
13.8886292115
 20
36.3128776881
 11
13.8886292115
 21
36.1146781446
  0
LINE
  5
232
100
AcDbEntity
  8
0
100
AcDbLine
 62
7
  6
BYLAYER
 10
13.6603052496
 20
49.8310852043
 11
13.6298083772
 21
49.7892369331
  0
LINE
  5
233
100
AcDbEntity
  8
0
100
AcDbLine
 62
7
  6
BYLAYER
 10
13.6550518889
 20
37.2637740541
 11
13.6603052496
 21
37.2567317436
  0
LINE
  5
234
100
AcDbEntity
  8
0
100
AcDbLine
 62
7
  6
BYLAYER
 10
17.1886292115
 20
52.2156862745
 11
17.8395654146
 21
53.3431408507
  0
LINE
  5
235
100
AcDbEntity
  8
0
100
AcDbLine
 62
7
  6
BYLAYER
 10
17.1886292115
 20
35.2156862745
 11
17.8395654146
 21
34.0882316983
  0
LINE
  5
236
100
AcDbEntity
  8
0
100
AcDbLine
 62
7
  6
BYLAYER
 10
16.4886292115
 20
36.1146781446
 11
16.4886292115
 21
36.3128776881
  0
LINE
  5
237
100
AcDbEntity
  8
0
100
AcDbLine
 62
7
  6
BYLAYER
 10
16.4886292115
 20
36.3261079197
 11
16.4886292115
 21
36.5809826656
  0
LINE
  5
238
100
AcDbEntity
  8
0
100
AcDbLine
 62
7
  6
BYLAYER
 10
16.4886292115
 20
36.7750448233
 11
16.4886292115
 21
37.0784028876
  0
LINE
  5
239
100
AcDbEntity
  8
0
100
AcDbLine
 62
7
  6
BYLAYER
 10
16.4886292115
 20
37.4470596539
 11
16.4886292115
 21
37.7891508588
  0
LINE
  5
23A
100
AcDbEntity
  8
0
100
AcDbLine
 62
7
  6
BYLAYER
 10
16.4886292115
 20
38.320553302
 11
16.4886292115
 21
38.6903825546
  0
LINE
  5
23B
100
AcDbEntity
  8
0
100
AcDbLine
 62
7
  6
BYLAYER
 10
16.4886292115
 20
39.3674509629
 11
16.4886292115
 21
39.7531316468
  0
LINE
  5
23C
100
AcDbEntity
  8
0
100
AcDbLine
 62
7
  6
BYLAYER
 10
16.4886292115
 20
40.5541044845
 11
16.4886292115
 21
40.9432405052
  0
LINE
  5
23D
100
AcDbEntity
  8
0
100
AcDbLine
 62
7
  6
BYLAYER
 10
16.4886292115
 20
41.8423738461
 11
16.4886292115
 21
42.2224580517
  0
LINE
  5
23E
100
AcDbEntity
  8
0
100
AcDbLine
 62
7
  6
BYLAYER
 10
16.4886292115
 20
43.1908530106
 11
16.4886292115
 21
43.5572076815
  0
LINE
  5
23F
100
AcDbEntity
  8
0
100
AcDbLine
 62
7
  6
BYLAYER
 10
16.4886292115
 20
44.5486622485
 11
16.4886292115
 21
44.9196057465
  0
LINE
  5
240
100
AcDbEntity
  8
0
100
AcDbLine
 62
7
  6
BYLAYER
 10
16.4886292115
 20
45.8571441504
 11
16.4886292115
 21
46.2433088491
  0
LINE
  5
241
100
AcDbEntity
  8
0
100
AcDbLine
 62
7
  6
BYLAYER
 10
16.4886292115
 20
47.0967978341
 11
16.4886292115
 21
47.4857720824
  0
LINE
  5
242
100
AcDbEntity
  8
0
100
AcDbLine
 62
7
  6
BYLAYER
 10
16.4886292115
 20
48.2277798103
 11
16.4886292115
 21
48.6070616558
  0
LINE
  5
243
100
AcDbEntity
  8
0
100
AcDbLine
 62
7
  6
BYLAYER
 10
16.4886292115
 20
49.2137393877
 11
16.4886292115
 21
49.5711383999
  0
LINE
  5
244
100
AcDbEntity
  8
0
100
AcDbLine
 62
7
  6
BYLAYER
 10
16.4886292115
 20
50.0229870143
 11
16.4886292115
 21
50.3470160947
  0
LINE
  5
245
100
AcDbEntity
  8
0
100
AcDbLine
 62
7
  6
BYLAYER
 10
16.4886292115
 20
50.6295128054
 11
16.4886292115
 21
50.9097573928
  0
LINE
  5
246
100
AcDbEntity
  8
0
100
AcDbLine
 62
7
  6
BYLAYER
 10
16.4886292115
 20
51.0138225231
 11
16.4886292115
 21
51.3309146348
  0
LINE
  5
247
100
AcDbEntity
  8
0
100
AcDbLine
 62
7
  6
BYLAYER
 10
17.1886292115
 20
35.2156891421
 11
17.1886292115
 21
52.215683407
  0
LINE
  5
248
100
AcDbEntity
  8
0
100
AcDbLine
 62
7
  6
BYLAYER
 10
13.8750170467
 20
36.3193048359
 11
13.8886292115
 21
36.3128776881
  0
LINE
  5
249
100
AcDbEntity
  8
0
100
AcDbLine
 62
7
  6
BYLAYER
 10
20.1886292115
 20
52.215683407
 11
20.1886292115
 21
35.2156891421
  0
LINE
  5
24A
100
AcDbEntity
  8
0
100
AcDbLine
 62
7
  6
BYLAYER
 10
13.1886292115
 20
35.2156862745
 11
12.5376930084
 21
34.0882316983
  0
LINE
  5
24B
100
AcDbEntity
  8
0
100
AcDbLine
 62
7
  6
BYLAYER
 10
16.9886292115
 20
35.964276113
 11
17.1886292115
 21
35.9106862745
  0
LINE
  5
24C
100
AcDbEntity
  8
0
100
AcDbLine
 62
7
  6
BYLAYER
 10
13.1886292115
 20
52.2156862745
 11
12.5376930084
 21
53.3431408507
  0
LINE
  5
24D
100
AcDbEntity
  8
0
100
AcDbLine
 62
7
  6
BYLAYER
 10
56.1886292115
 20
38.5449113494
 11
54.8886292115
 21
38.3156862745
  0
LINE
  5
24E
100
AcDbEntity
  8
0
100
AcDbLine
 62
7
  6
BYLAYER
 10
12.5140267577
 20
34.0507316983
 11
10.8632316653
 21
34.0507316983
  0
LINE
  5
24F
100
AcDbEntity
  8
0
100
AcDbLine
 62
7
  6
BYLAYER
 10
17.8632316653
 20
34.0507316983
 11
19.5140267886
 21
34.0507316983
  0
LINE
  5
250
100
AcDbEntity
  8
0
100
AcDbLine
 62
7
  6
BYLAYER
 10
12.5681219269
 20
34.1507316983
 11
10.8091365753
 21
34.1507316983
  0
LINE
  5
251
100
AcDbEntity
  8
0
100
AcDbLine
 62
7
  6
BYLAYER
 10
17.8091364961
 20
34.1507316983
 11
19.5681215485
 21
34.1507316983
  0
LINE
  5
252
100
AcDbEntity
  8
0
100
AcDbLine
 62
7
  6
BYLAYER
 10
16.7221974951
 20
37.2637863593
 11
16.7169531734
 21
37.2567317436
  0
LINE
  5
253
100
AcDbEntity
  8
0
100
AcDbLine
 62
7
  6
BYLAYER
 10
16.7169531734
 20
49.8310852043
 11
16.7474899734
 21
49.7892795928
  0
LINE
  5
254
100
AcDbEntity
  8
0
100
AcDbLine
 62
7
  6
BYLAYER
 10
20.1886292115
 20
35.2156862745
 11
19.5376930084
 21
34.0882316983
  0
LINE
  5
255
100
AcDbEntity
  8
0
100
AcDbLine
 62
7
  6
BYLAYER
 10
7.7886292115
 20
37.7156862745
 11
10.1886292115
 21
37.7156862745
  0
LINE
  5
256
100
AcDbEntity
  8
0
100
AcDbLine
 62
7
  6
BYLAYER
 10
13.8886292115
 20
37.7156862745
 11
16.4886292115
 21
37.7156862745
  0
LINE
  5
257
100
AcDbEntity
  8
0
100
AcDbLine
 62
7
  6
BYLAYER
 10
20.1886292115
 20
37.7156862745
 11
36.5886292115
 21
37.7156862745
  0
LINE
  5
258
100
AcDbEntity
  8
0
100
AcDbLine
 62
7
  6
BYLAYER
 10
48.0886292115
 20
37.7156862745
 11
53.5886292115
 21
37.7156862745
  0
LINE
  5
259
100
AcDbEntity
  8
0
100
AcDbLine
 62
7
  6
BYLAYER
 10
54.6886292115
 20
38.3156862745
 11
54.8886292115
 21
38.3156862745
  0
LINE
  5
25A
100
AcDbEntity
  8
0
100
AcDbLine
 62
7
  6
BYLAYER
 10
38.3556165096
 20
38.3656862745
 11
47.4386292115
 21
38.3656862745
  0
LINE
  5
25B
100
AcDbEntity
  8
0
100
AcDbLine
 62
7
  6
BYLAYER
 10
54.2386292115
 20
38.3656862745
 11
54.6886292115
 21
38.3656862745
  0
LINE
  5
25C
100
AcDbEntity
  8
0
100
AcDbLine
 62
7
  6
BYLAYER
 10
7.2563416352
 20
38.5156862745
 11
7.5886292115
 21
38.5156862745
  0
LINE
  5
25D
100
AcDbEntity
  8
0
100
AcDbLine
 62
7
  6
BYLAYER
 10
12.5681219226
 20
38.5582089864
 11
10.8091368773
 21
38.5582089864
  0
LINE
  5
25E
100
AcDbEntity
  8
0
100
AcDbLine
 62
7
  6
BYLAYER
 10
17.8091365004
 20
38.5582089864
 11
19.5681218437
 21
38.5582089864
  0
LINE
  5
25F
100
AcDbEntity
  8
0
100
AcDbLine
 62
7
  6
BYLAYER
 10
20.1886292115
 20
52.2156862745
 11
19.5376930084
 21
53.3431408507
  0
LINE
  5
260
100
AcDbEntity
  8
0
100
AcDbLine
 62
7
  6
BYLAYER
 10
12.5140266697
 20
39.1082089864
 11
10.8632317461
 21
39.1082089864
  0
LINE
  5
261
100
AcDbEntity
  8
0
100
AcDbLine
 62
7
  6
BYLAYER
 10
17.8632317533
 20
39.1082089864
 11
19.5140266697
 21
39.1082089864
  0
LINE
  5
262
100
AcDbEntity
  8
0
100
AcDbLine
 62
7
  6
BYLAYER
 10
13.3886292115
 20
35.964276113
 11
13.1886292115
 21
35.9106862745
  0
LINE
  5
263
100
AcDbEntity
  8
0
100
AcDbLine
 62
7
  6
BYLAYER
 10
36.7886292115
 20
48.3156862745
 11
37.8556165096
 21
48.9317116783
  0
LINE
  5
264
100
AcDbEntity
  8
0
100
AcDbLine
 62
7
  6
BYLAYER
 10
16.502232445
 20
36.3193546019
 11
16.4886292115
 21
36.3128776881
  0
LINE
  5
265
100
AcDbEntity
  8
0
100
AcDbLine
 62
7
  6
BYLAYER
 10
36.7886292115
 20
39.1156862745
 11
37.8556165096
 21
38.4996608707
  0
LINE
  5
266
100
AcDbEntity
  8
0
100
AcDbLine
 62
7
  6
BYLAYER
 10
13.8886292115
 20
51.3331218398
 11
13.1886292115
 21
51.5206862745
  0
LINE
  5
267
100
AcDbEntity
  8
0
100
AcDbLine
 62
7
  6
BYLAYER
 10
36.5886292115
 20
49.7156862745
 11
36.5886292115
 21
37.7156862745
  0
LINE
  5
268
100
AcDbEntity
  8
0
100
AcDbLine
 62
7
  6
BYLAYER
 10
36.7886292115
 20
49.5156931777
 11
36.7886292115
 21
37.9156793713
  0
LINE
  5
269
100
AcDbEntity
  8
0
100
AcDbLine
 62
7
  6
BYLAYER
 10
12.5140266697
 20
48.3231635626
 11
10.8632317533
 21
48.3231635626
  0
LINE
  5
26A
100
AcDbEntity
  8
0
100
AcDbLine
 62
7
  6
BYLAYER
 10
17.8632317533
 20
48.3231635626
 11
19.5140266769
 21
48.3231635626
  0
LINE
  5
26B
100
AcDbEntity
  8
0
100
AcDbLine
 62
7
  6
BYLAYER
 10
12.5681219269
 20
48.8731635626
 11
10.8091365753
 21
48.8731635626
  0
LINE
  5
26C
100
AcDbEntity
  8
0
100
AcDbLine
 62
7
  6
BYLAYER
 10
17.8091364961
 20
48.8731635626
 11
19.5681219269
 21
48.8731635626
  0
LINE
  5
26D
100
AcDbEntity
  8
0
100
AcDbLine
 62
7
  6
BYLAYER
 10
7.5886292115
 20
48.9156862745
 11
7.2563416352
 21
48.9156862745
  0
LINE
  5
26E
100
AcDbEntity
  8
0
100
AcDbLine
 62
7
  6
BYLAYER
 10
38.3556165096
 20
49.0656862745
 11
47.4386292115
 21
49.0656862745
  0
LINE
  5
26F
100
AcDbEntity
  8
0
100
AcDbLine
 62
7
  6
BYLAYER
 10
54.2386292115
 20
49.0656862745
 11
54.6886292115
 21
49.0656862745
  0
LINE
  5
270
100
AcDbEntity
  8
0
100
AcDbLine
 62
7
  6
BYLAYER
 10
54.6886292115
 20
49.1156862745
 11
54.8886292115
 21
49.1156862745
  0
LINE
  5
271
100
AcDbEntity
  8
0
100
AcDbLine
 62
7
  6
BYLAYER
 10
37.8556165096
 20
48.9317116783
 11
37.8556165096
 21
38.4996608707
  0
LINE
  5
272
100
AcDbEntity
  8
0
100
AcDbLine
 62
7
  6
BYLAYER
 10
38.3556165096
 20
38.3656862745
 11
38.3556165096
 21
49.0656862745
  0
LINE
  5
273
100
AcDbEntity
  8
0
100
AcDbLine
 62
7
  6
BYLAYER
 10
7.7886292115
 20
49.7156862745
 11
10.1886292115
 21
49.7156862745
  0
LINE
  5
274
100
AcDbEntity
  8
0
100
AcDbLine
 62
7
  6
BYLAYER
 10
13.7182979458
 20
49.7156862745
 11
16.6589568809
 21
49.7156862745
  0
LINE
  5
275
100
AcDbEntity
  8
0
100
AcDbLine
 62
7
  6
BYLAYER
 10
20.1886292115
 20
49.7156862745
 11
36.5886292115
 21
49.7156862745
  0
LINE
  5
276
100
AcDbEntity
  8
0
100
AcDbLine
 62
7
  6
BYLAYER
 10
48.0886292115
 20
49.7156862745
 11
53.5886292115
 21
49.7156862745
  0
LINE
  5
277
100
AcDbEntity
  8
0
100
AcDbLine
 62
7
  6
BYLAYER
 10
47.4386292115
 20
49.0656862745
 11
48.0886292115
 21
49.7156862745
  0
LINE
  5
278
100
AcDbEntity
  8
0
100
AcDbLine
 62
7
  6
BYLAYER
 10
36.7886292115
 20
37.9156862745
 11
36.5886292115
 21
37.7156862745
  0
LINE
  5
279
100
AcDbEntity
  8
0
100
AcDbLine
 62
7
  6
BYLAYER
 10
47.4386292115
 20
38.3656862745
 11
48.0886292115
 21
37.7156862745
  0
LINE
  5
27A
100
AcDbEntity
  8
0
100
AcDbLine
 62
7
  6
BYLAYER
 10
36.7886292115
 20
49.5156862745
 11
36.5886292115
 21
49.7156862745
  0
LINE
  5
27B
100
AcDbEntity
  8
0
100
AcDbLine
 62
7
  6
BYLAYER
 10
12.5681219226
 20
53.2806408507
 11
10.8091365004
 21
53.2806408507
  0
LINE
  5
27C
100
AcDbEntity
  8
0
100
AcDbLine
 62
7
  6
BYLAYER
 10
17.8091365004
 20
53.2806408507
 11
19.5681218437
 21
53.2806408507
  0
LINE
  5
27D
100
AcDbEntity
  8
0
100
AcDbLine
 62
7
  6
BYLAYER
 10
12.5140267589
 20
53.3806408507
 11
10.8632316332
 21
53.3806408507
  0
LINE
  5
27E
100
AcDbEntity
  8
0
100
AcDbLine
 62
7
  6
BYLAYER
 10
17.8632316641
 20
53.3806408507
 11
19.5140266528
 21
53.3806408507
  0
LINE
  5
27F
100
AcDbEntity
  8
0
100
AcDbLine
 62
7
  6
BYLAYER
 10
56.1886292115
 20
48.8864611996
 11
54.8886292115
 21
49.1156862745
  0
LINE
  5
280
100
AcDbEntity
  8
0
100
AcDbLine
 62
7
  6
BYLAYER
 10
16.4886292115
 20
51.3331218398
 11
17.1886292115
 21
51.5206862745
  0
LINE
  5
281
100
AcDbEntity
  8
0
100
AcDbLine
 62
7
  6
BYLAYER
 10
47.4386292115
 20
49.0656862745
 11
47.4386292115
 21
38.3656862745
  0
LINE
  5
282
100
AcDbEntity
  8
0
100
AcDbLine
 62
7
  6
BYLAYER
 10
48.0886292115
 20
37.7156862745
 11
48.0886292115
 21
49.7156862745
  0
LINE
  5
283
100
AcDbEntity
  8
0
100
AcDbLine
 62
7
  6
BYLAYER
 10
54.2386292115
 20
38.3656862745
 11
53.5886292115
 21
37.7156862745
  0
LINE
  5
284
100
AcDbEntity
  8
0
100
AcDbLine
 62
7
  6
BYLAYER
 10
54.2386292115
 20
49.0656862745
 11
53.5886292115
 21
49.7156862745
  0
LINE
  5
285
100
AcDbEntity
  8
0
100
AcDbLine
 62
7
  6
BYLAYER
 10
53.5886292115
 20
49.7156862745
 11
53.5886292115
 21
37.7156862745
  0
LINE
  5
286
100
AcDbEntity
  8
0
100
AcDbLine
 62
7
  6
BYLAYER
 10
54.2386292115
 20
38.3656862745
 11
54.2386292115
 21
49.0656862745
  0
LINE
  5
287
100
AcDbEntity
  8
0
100
AcDbLine
 62
7
  6
BYLAYER
 10
54.6886292115
 20
38.3156774197
 11
54.6886292115
 21
49.1156578715
  0
LINE
  5
288
100
AcDbEntity
  8
0
100
AcDbLine
 62
7
  6
BYLAYER
 10
54.8886292115
 20
49.1156862745
 11
54.8886292115
 21
38.3156862745
  0
LINE
  5
289
100
AcDbEntity
  8
0
100
AcDbLine
 62
7
  6
BYLAYER
 10
56.1886292115
 20
48.8865095485
 11
56.1886292115
 21
38.5448630005
  0
ARC
  5
28A
100
AcDbEntity
  8
0
100
AcDbCircle
 62
7
  6
BYLAYER
 10
-81.6839883435
 20
-37.1163556379
 40
128.5606107521
100
AcDbArc
 50
39.9138785048
 51
40.0569589093
  0
ARC
  5
28B
100
AcDbEntity
  8
0
100
AcDbCircle
 62
7
  6
BYLAYER
 10
-58.4988429117
 20
-26.1687697012
 40
103.9752530248
100
AcDbArc
 50
43.6640128139
 51
43.8459429001
  0
ARC
  5
28C
100
AcDbEntity
  8
0
100
AcDbCircle
 62
7
  6
BYLAYER
 10
-51.4344986228
 20
-5.6353581445
 40
86.0247577885
100
AcDbArc
 50
37.4290469535
 51
37.6055372308
  0
ARC
  5
28D
100
AcDbEntity
  8
0
100
AcDbCircle
 62
7
  6
BYLAYER
 10
-38.1498010232
 20
7.8156467978
 40
68.0071855988
100
AcDbArc
 50
36.0476282794
 51
36.2176071282
  0
ARC
  5
28E
100
AcDbEntity
  8
0
100
AcDbCircle
 62
7
  6
BYLAYER
 10
-25.7666952656
 20
6.3273675752
 40
58.7167683911
100
AcDbArc
 50
43.6528706996
 51
43.9746867688
  0
ARC
  5
28F
100
AcDbEntity
  8
0
100
AcDbCircle
 62
7
  6
BYLAYER
 10
-29.5938077299
 20
15.6530942819
 40
57.0671907897
100
AcDbArc
 50
35.6246114608
 51
35.7559907202
  0
ARC
  5
290
100
AcDbEntity
  8
0
100
AcDbCircle
 62
7
  6
BYLAYER
 10
-11.5857091667
 20
20.1104354981
 40
39.7335315137
100
AcDbArc
 50
44.5766797026
 51
45.0438509386
  0
ARC
  5
291
100
AcDbEntity
  8
0
100
AcDbCircle
 62
7
  6
BYLAYER
 10
-2.9838678094
 20
28.23967848
 40
28.619737441
100
AcDbArc
 50
46.4991892432
 51
47.1261087628
  0
ARC
  5
292
100
AcDbEntity
  8
0
100
AcDbCircle
 62
7
  6
BYLAYER
 10
-61.6944192928
 20
103.9718271798
 40
100.4532330931
100
AcDbArc
 50
321.3133342138
 51
321.4809110161
  0
ARC
  5
293
100
AcDbEntity
  8
0
100
AcDbCircle
 62
7
  6
BYLAYER
 10
-37.8970090829
 20
93.0874355982
 40
75.3446397203
100
AcDbArc
 50
316.205355204
 51
316.456812745
  0
ARC
  5
294
100
AcDbEntity
  8
0
100
AcDbCircle
 62
7
  6
BYLAYER
 10
-43.0595971716
 20
84.6914395214
 40
74.6433828367
100
AcDbArc
 50
323.2092938722
 51
323.3891753339
  0
ARC
  5
295
100
AcDbEntity
  8
0
100
AcDbCircle
 62
7
  6
BYLAYER
 10
-33.5303137488
 20
75.2540442549
 40
62.0115575292
100
AcDbArc
 50
324.1241518612
 51
324.2786680899
  0
ARC
  5
296
100
AcDbEntity
  8
0
100
AcDbCircle
 62
7
  6
BYLAYER
 10
-17.6499241922
 20
73.1706386244
 40
47.772069257
100
AcDbArc
 50
315.6115121003
 51
316.0043624624
  0
ARC
  5
297
100
AcDbEntity
  8
0
100
AcDbCircle
 62
7
  6
BYLAYER
 10
-6.873388727
 20
62.8411096775
 40
33.6012128162
100
AcDbArc
 50
314.048980282
 51
314.5931697624
  0
ARC
  5
298
100
AcDbEntity
  8
0
100
AcDbCircle
 62
7
  6
BYLAYER
 10
0.2380324108
 20
56.2134437641
 40
24.566979168
100
AcDbArc
 50
311.4129416223
 51
312.126924586
  0
ARC
  5
299
100
AcDbEntity
  8
0
100
AcDbCircle
 62
7
  6
BYLAYER
 10
3.0072309488
 20
33.7510960296
 40
21.1310798431
100
AcDbArc
 50
49.5492480528
 51
50.3579665646
  0
ARC
  5
29A
100
AcDbEntity
  8
0
100
AcDbCircle
 62
7
  6
BYLAYER
 10
5.3564482262
 20
51.5668610725
 40
18.271312872
100
AcDbArc
 50
307.5368098508
 51
308.4453075527
  0
ARC
  5
29B
100
AcDbEntity
  8
0
100
AcDbCircle
 62
7
  6
BYLAYER
 10
7.4043856083
 20
37.6883828187
 40
15.8112721555
100
AcDbArc
 50
54.0564170448
 51
54.9324192402
  0
ARC
  5
29C
100
AcDbEntity
  8
0
100
AcDbCircle
 62
7
  6
BYLAYER
 10
9.1691681099
 20
48.2004798048
 40
13.7327063824
100
AcDbArc
 50
302.2080256636
 51
302.9511971882
  0
ARC
  5
29D
100
AcDbEntity
  8
0
100
AcDbCircle
 62
7
  6
BYLAYER
 10
10.6564451106
 20
40.4643882996
 40
12.0542496167
100
AcDbArc
 50
60.5657401623
 51
61.0642819866
  0
ARC
  5
29E
100
AcDbEntity
  8
0
100
AcDbCircle
 62
7
  6
BYLAYER
 10
1.9335165132
 20
37.789902584
 40
10.6623227743
100
AcDbArc
 50
4.1322045606
 51
7.1023153364
  0
ARC
  5
29F
100
AcDbEntity
  8
0
100
AcDbCircle
 62
7
  6
BYLAYER
 10
8.9507413512
 20
49.6397742311
 40
10.6450204568
100
AcDbArc
 50
352.8952788228
 51
355.8702182298
  0
ARC
  5
2A0
100
AcDbEntity
  8
0
100
AcDbCircle
 62
7
  6
BYLAYER
 10
8.979305116
 20
37.7944077813
 40
10.6163285543
100
AcDbArc
 50
4.1257603783
 51
7.1087417282
  0
ARC
  5
2A1
100
AcDbEntity
  8
0
100
AcDbCircle
 62
7
  6
BYLAYER
 10
1.9995630172
 20
49.6349740433
 40
10.5959800225
100
AcDbArc
 50
352.8883840006
 51
355.8770952172
  0
ARC
  5
2A2
100
AcDbEntity
  8
0
100
AcDbCircle
 62
7
  6
BYLAYER
 10
7.3886292115
 20
38.6656862745
 40
0.2
100
AcDbArc
 50
180.0
 51
228.5903778907
  0
ARC
  5
2A3
100
AcDbEntity
  8
0
100
AcDbCircle
 62
7
  6
BYLAYER
 10
7.3886292115
 20
48.7656862745
 40
0.2
100
AcDbArc
 50
131.4096221093
 51
180.0
  0
ARC
  5
2A4
100
AcDbEntity
  8
0
100
AcDbCircle
 62
7
  6
BYLAYER
 10
112.6310468099
 20
-37.5944504257
 40
129.304415931
100
AcDbArc
 50
139.9433769595
 51
140.0856343472
  0
ARC
  5
2A5
100
AcDbEntity
  8
0
100
AcDbCircle
 62
7
  6
BYLAYER
 10
88.9497012983
 20
-26.2392385937
 40
104.0771490175
100
AcDbArc
 50
136.1541461586
 51
136.3358981273
  0
ARC
  5
2A6
100
AcDbEntity
  8
0
100
AcDbCircle
 62
7
  6
BYLAYER
 10
82.2781403188
 20
-5.9936728605
 40
86.6128923519
100
AcDbArc
 50
142.3949452118
 51
142.5702393691
  0
ARC
  5
2A7
100
AcDbEntity
  8
0
100
AcDbCircle
 62
7
  6
BYLAYER
 10
68.837898128
 20
7.5889346864
 40
68.3919173271
100
AcDbArc
 50
143.7830242387
 51
143.9520514819
  0
ARC
  5
2A8
100
AcDbEntity
  8
0
100
AcDbCircle
 62
7
  6
BYLAYER
 10
56.1854497016
 20
6.287555169
 40
58.7742742233
100
AcDbArc
 50
136.025470667
 51
136.3469718646
  0
ARC
  5
2A9
100
AcDbEntity
  8
0
100
AcDbCircle
 62
7
  6
BYLAYER
 10
59.8763341781
 20
15.7218595891
 40
56.9501326302
100
AcDbArc
 50
144.2444607738
 51
144.3761090617
  0
ARC
  5
2AA
100
AcDbEntity
  8
0
100
AcDbCircle
 62
7
  6
BYLAYER
 10
41.9905587956
 20
20.0830264261
 40
39.7724224734
100
AcDbArc
 50
134.9563774714
 51
135.4230918874
  0
ARC
  5
2AB
100
AcDbEntity
  8
0
100
AcDbCircle
 62
7
  6
BYLAYER
 10
33.3802880615
 20
28.2192641751
 40
28.6477355855
100
AcDbArc
 50
132.8741975923
 51
133.5005044018
  0
ARC
  5
2AC
100
AcDbEntity
  8
0
100
AcDbCircle
 62
7
  6
BYLAYER
 10
92.519991702
 20
104.3300311676
 40
101.027075534
100
AcDbArc
 50
218.5196919959
 51
218.6863151872
  0
ARC
  5
2AD
100
AcDbEntity
  8
0
100
AcDbCircle
 62
7
  6
BYLAYER
 10
74.1773429555
 20
85.243439278
 40
75.566975432
100
AcDbArc
 50
216.6119526562
 51
216.7896324488
  0
ARC
  5
2AE
100
AcDbEntity
  8
0
100
AcDbCircle
 62
7
  6
BYLAYER
 10
68.2742675072
 20
93.0874355994
 40
75.344639722
100
AcDbArc
 50
223.543187255
 51
223.794644796
  0
ARC
  5
2AF
100
AcDbEntity
  8
0
100
AcDbCircle
 62
7
  6
BYLAYER
 10
64.081567561
 20
75.3790111341
 40
62.2257784844
100
AcDbArc
 50
215.7212112075
 51
215.875196775
  0
ARC
  5
2B0
100
AcDbEntity
  8
0
100
AcDbCircle
 62
7
  6
BYLAYER
 10
47.9936788711
 20
73.1380666862
 40
47.7253423232
100
AcDbArc
 50
223.9954452208
 51
224.3886802164
  0
ARC
  5
2B1
100
AcDbEntity
  8
0
100
AcDbCircle
 62
7
  6
BYLAYER
 10
37.2276969732
 20
62.8176090573
 40
33.5683652074
100
AcDbArc
 50
225.4065639831
 51
225.9512859725
  0
ARC
  5
2B2
100
AcDbEntity
  8
0
100
AcDbCircle
 62
7
  6
BYLAYER
 10
30.1232352153
 20
56.1955401316
 40
24.5429745174
100
AcDbArc
 50
227.8727262483
 51
228.5874075435
  0
ARC
  5
2B3
100
AcDbEntity
  8
0
100
AcDbCircle
 62
7
  6
BYLAYER
 10
27.3833229957
 20
33.7352770744
 40
21.151743555
100
AcDbArc
 50
129.6424284715
 51
130.4503569111
  0
ARC
  5
2B4
100
AcDbEntity
  8
0
100
AcDbCircle
 62
7
  6
BYLAYER
 10
25.0098241897
 20
51.5527951007
 40
18.2534656348
100
AcDbArc
 50
231.5542482984
 51
232.4636342981
  0
ARC
  5
2B5
100
AcDbEntity
  8
0
100
AcDbCircle
 62
7
  6
BYLAYER
 10
22.9814516409
 20
37.6763820407
 40
15.8260233899
100
AcDbArc
 50
125.0680390981
 51
125.9432304474
  0
ARC
  5
2B6
100
AcDbEntity
  8
0
100
AcDbCircle
 62
7
  6
BYLAYER
 10
21.2206817424
 20
48.2202601452
 40
13.7561540614
100
AcDbArc
 50
237.0495573039
 51
237.791511915
  0
ARC
  5
2B7
100
AcDbEntity
  8
0
100
AcDbCircle
 62
7
  6
BYLAYER
 10
19.7037665577
 20
40.4948315086
 40
12.0193591475
100
AcDbArc
 50
118.9348150948
 51
119.4347615457
  0
ARC
  5
2B8
100
AcDbEntity
  8
0
100
AcDbCircle
 62
7
  6
BYLAYER
 10
21.4434112996
 20
49.641435861
 40
10.6619904913
100
AcDbArc
 50
184.1321498181
 51
187.1023531355
  0
ARC
  5
2B9
100
AcDbEntity
  8
0
100
AcDbCircle
 62
7
  6
BYLAYER
 10
28.4264896072
 20
37.791599435
 40
10.6449930577
100
AcDbArc
 50
172.8952665011
 51
175.8702136102
  0
ARC
  5
2BA
100
AcDbEntity
  8
0
100
AcDbCircle
 62
7
  6
BYLAYER
 10
28.3979146681
 20
49.6369627085
 40
10.6162899504
100
AcDbArc
 50
184.1257642644
 51
187.1087565116
  0
ARC
  5
2BB
100
AcDbEntity
  8
0
100
AcDbCircle
 62
7
  6
BYLAYER
 10
21.3769829664
 20
37.7964703152
 40
10.595264181
100
AcDbArc
 50
172.8882923731
 51
175.8772055121
  0
ARC
  5
2BC
100
AcDbEntity
  8
0
100
AcDbCircle
 62
7
  6
BYLAYER
 10
38.3556165096
 20
39.3656862745
 40
1.0
100
AcDbArc
 50
240.0
 51
270.0
  0
ARC
  5
2BD
100
AcDbEntity
  8
0
100
AcDbCircle
 62
7
  6
BYLAYER
 10
38.3556165096
 20
48.0656862745
 40
1.0
100
AcDbArc
 50
90.0
 51
120.0
  0
CIRCLE
  5
2BE
100
AcDbEntity
  8
0
100
AcDbCircle
 62
7
  6
BYLAYER
 10
39.6886292115
 20
43.7156862745
 40
0.5
  0
SPLINE
  5
2BF
100
AcDbEntity
  8
0
100
AcDbSpline
 62
7
  6
BYLAYER
 70
0
 71
3
 72
9
 73
5
 74
0
 42
0.0000001
 43
0.0000001
 44
0.0000000001
 40
0.0
 40
0.0
 40
0.0
 40
0.0
 40
0.2456458236
 40
1.0
 40
1.0
 40
1.0
 40
1.0
 10
10.8395640171
 20
53.3431408672
 30
0.0
 10
10.8413795716
 20
53.3462859468
 30
0.0
 10
10.8489013696
 20
53.3590134706
 30
0.0
 10
10.8569316755
 20
53.371438845
 30
0.0
 10
10.8632316332
 20
53.3806408507
 30
0.0
  0
SPLINE
  5
2C0
100
AcDbEntity
  8
0
100
AcDbSpline
 62
7
  6
BYLAYER
 70
0
 71
3
 72
9
 73
5
 74
0
 42
0.0000001
 43
0.0000001
 44
0.0000000001
 40
0.0
 40
0.0
 40
0.0
 40
0.0
 40
0.2456456716
 40
1.0
 40
1.0
 40
1.0
 40
1.0
 10
12.5376942099
 20
34.0882316841
 30
0.0
 10
12.5358786734
 20
34.0850866048
 30
0.0
 10
12.5283569485
 20
34.0723590709
 30
0.0
 10
12.5203267037
 20
34.0599336889
 30
0.0
 10
12.5140267577
 20
34.0507316983
 30
0.0
  0
LINE
  5
2C1
100
AcDbEntity
  8
0
100
AcDbLine
 62
7
  6
BYLAYER
 10
13.6062477138
 20
38.0680207517
 11
13.6603052496
 21
37.9930805422
  0
LINE
  5
2C2
100
AcDbEntity
  8
0
100
AcDbLine
 62
7
  6
BYLAYER
 10
13.4323383335
 20
42.7141385532
 11
13.6603052496
 21
42.4582886894
  0
LINE
  5
2C3
100
AcDbEntity
  8
0
100
AcDbLine
 62
7
  6
BYLAYER
 10
13.8886292115
 20
43.5572076815
 11
13.7322638836
 21
43.7156863021
  0
LINE
  5
2C4
100
AcDbEntity
  8
0
100
AcDbLine
 62
7
  6
BYLAYER
 10
13.6603052496
 20
44.3173685859
 11
13.4033151961
 21
44.0493316371
  0
LINE
  5
2C5
100
AcDbEntity
  8
0
100
AcDbLine
 62
7
  6
BYLAYER
 10
13.6603052496
 20
44.3173685859
 11
13.8886292115
 21
44.5486622485
  0
LINE
  5
2C6
100
AcDbEntity
  8
0
100
AcDbLine
 62
7
  6
BYLAYER
 10
13.6603052496
 20
42.4582886894
 11
13.8886292115
 21
42.2224580517
  0
LINE
  5
2C7
100
AcDbEntity
  8
0
100
AcDbLine
 62
7
  6
BYLAYER
 10
13.7322638836
 20
43.7156863021
 11
13.3886292115
 21
44.0634519764
  0
SPLINE
  5
2C8
100
AcDbEntity
  8
0
100
AcDbSpline
 62
7
  6
BYLAYER
 70
0
 71
3
 72
9
 73
5
 74
0
 42
0.0000001
 43
0.0000001
 44
0.0000000001
 40
0.0
 40
0.0
 40
0.0
 40
0.0
 40
0.2544694054
 40
1.0
 40
1.0
 40
1.0
 40
1.0
 10
12.5140267589
 20
53.3806408507
 30
0.0
 10
12.5161519357
 20
53.3775367197
 30
0.0
 10
12.5243935489
 20
53.3652636839
 30
0.0
 10
12.5321841107
 20
53.3526860867
 30
0.0
 10
12.5376942097
 20
53.3431408649
 30
0.0
  0
SPLINE
  5
2C9
100
AcDbEntity
  8
0
100
AcDbSpline
 62
7
  6
BYLAYER
 70
0
 71
3
 72
9
 73
5
 74
0
 42
0.0000001
 43
0.0000001
 44
0.0000000001
 40
0.0
 40
0.0
 40
0.0
 40
0.0
 40
0.2544691143
 40
1.0
 40
1.0
 40
1.0
 40
1.0
 10
10.8632316344
 20
34.0507316983
 30
0.0
 10
10.8611064555
 20
34.0538358316
 30
0.0
 10
10.8528648101
 20
34.0661088802
 30
0.0
 10
10.8450741694
 20
34.0786864613
 30
0.0
 10
10.8395640163
 20
34.0882316818
 30
0.0
  0
SPLINE
  5
2CA
100
AcDbEntity
  8
0
100
AcDbSpline
 62
7
  6
BYLAYER
 70
0
 71
3
 72
9
 73
5
 74
0
 42
0.0000001
 43
0.0000001
 44
0.0000000001
 40
0.0
 40
0.0
 40
0.0
 40
0.0
 40
0.2567409433
 40
1.0
 40
1.0
 40
1.0
 40
1.0
 10
10.8395640163
 20
34.0882316818
 30
0.0
 10
10.8365883888
 20
34.0933863519
 30
0.0
 10
10.8253361534
 20
34.1136551528
 30
0.0
 10
10.81547865
 20
34.1347107439
 30
0.0
 10
10.8091365753
 20
34.1507316983
 30
0.0
  0
SPLINE
  5
2CB
100
AcDbEntity
  8
0
100
AcDbSpline
 62
7
  6
BYLAYER
 70
0
 71
3
 72
9
 73
5
 74
0
 42
0.0000001
 43
0.0000001
 44
0.0000000001
 40
0.0
 40
0.0
 40
0.0
 40
0.0
 40
0.25674013
 40
1.0
 40
1.0
 40
1.0
 40
1.0
 10
12.5376942097
 20
53.3431408649
 30
0.0
 10
12.5406698103
 20
53.3379861903
 30
0.0
 10
12.5519219573
 20
53.3177173043
 30
0.0
 10
12.561779823
 20
53.2966618444
 30
0.0
 10
12.5681219226
 20
53.2806408507
 30
0.0
  0
SPLINE
  5
2CC
100
AcDbEntity
  8
0
100
AcDbSpline
 62
7
  6
BYLAYER
 70
0
 71
3
 72
11
 73
7
 74
0
 42
0.0000001
 43
0.0000001
 44
0.0000000001
 40
0.0
 40
0.0
 40
0.0
 40
0.0
 40
0.2601191801
 40
0.5124273073
 40
0.7581436908
 40
1.0
 40
1.0
 40
1.0
 40
1.0
 10
12.5681219226
 20
53.2806408507
 30
0.0
 10
12.6621904296
 20
53.1036657017
 30
0.0
 10
12.8339681422
 20
52.7474962642
 30
0.0
 10
13.0335557847
 20
52.1971797951
 30
0.0
 10
13.1596952646
 20
51.6395026892
 30
0.0
 10
13.1886267931
 20
51.2632528987
 30
0.0
 10
13.1886262913
 20
51.0769021993
 30
0.0
  0
SPLINE
  5
2CD
100
AcDbEntity
  8
0
100
AcDbSpline
 62
7
  6
BYLAYER
 70
0
 71
3
 72
13
 73
9
 74
0
 42
0.0000001
 43
0.0000001
 44
0.0000000001
 40
0.0
 40
0.0
 40
0.0
 40
0.0
 40
0.1207149154
 40
0.2419468734
 40
0.3641507109
 40
0.4877239385
 40
0.7399567383
 40
1.0
 40
1.0
 40
1.0
 40
1.0
 10
13.1886262913
 20
51.0769021993
 30
0.0
 10
13.1886266046
 20
50.9838623722
 30
0.0
 10
13.1815162942
 20
50.797308488
 30
0.0
 10
13.1498266234
 20
50.51819543
 30
0.0
 10
13.0976766113
 20
50.2399308865
 30
0.0
 10
13.0014221267
 20
49.8680982787
 30
0.0
 10
12.8339539688
 20
49.4062889043
 30
0.0
 10
12.6621920763
 20
49.0501418015
 30
0.0
 10
12.5681219269
 20
48.8731635626
 30
0.0
  0
SPLINE
  5
2CE
100
AcDbEntity
  8
0
100
AcDbSpline
 62
7
  6
BYLAYER
 70
0
 71
3
 72
11
 73
7
 74
0
 42
0.0000001
 43
0.0000001
 44
0.0000000001
 40
0.0
 40
0.0
 40
0.0
 40
0.0
 40
0.2500091952
 40
0.500011479
 40
0.7500069635
 40
1.0
 40
1.0
 40
1.0
 40
1.0
 10
12.5140266697
 20
48.3231635626
 30
0.0
 10
12.6172689463
 20
47.9479213655
 30
0.0
 10
12.8056692981
 20
47.1922725893
 30
0.0
 10
13.0214273876
 20
46.0440557906
 30
0.0
 10
13.1575203991
 20
44.8835078809
 30
0.0
 10
13.1886292115
 20
44.1048470325
 30
0.0
 10
13.1886292115
 20
43.7156862745
 30
0.0
  0
SPLINE
  5
2CF
100
AcDbEntity
  8
0
100
AcDbSpline
 62
7
  6
BYLAYER
 70
0
 71
3
 72
11
 73
7
 74
0
 42
0.0000001
 43
0.0000001
 44
0.0000000001
 40
0.0
 40
0.0
 40
0.0
 40
0.0
 40
0.2499930752
 40
0.4999885631
 40
0.7499908315
 40
1.0
 40
1.0
 40
1.0
 40
1.0
 10
13.1886292115
 20
43.7156862745
 30
0.0
 10
13.1886292115
 20
43.3265254563
 30
0.0
 10
13.1575204327
 20
42.54786454
 30
0.0
 10
13.0214273517
 20
41.3873165947
 30
0.0
 10
12.8056692428
 20
40.2390998631
 30
0.0
 10
12.6172689353
 20
39.4834511435
 30
0.0
 10
12.5140266697
 20
39.1082089864
 30
0.0
  0
SPLINE
  5
2D0
100
AcDbEntity
  8
0
100
AcDbSpline
 62
7
  6
BYLAYER
 70
0
 71
3
 72
11
 73
7
 74
0
 42
0.0000001
 43
0.0000001
 44
0.0000000001
 40
0.0
 40
0.0
 40
0.0
 40
0.0
 40
0.2601191801
 40
0.5124273073
 40
0.7581436908
 40
1.0
 40
1.0
 40
1.0
 40
1.0
 10
12.5681219226
 20
38.5582089864
 30
0.0
 10
12.6621904296
 20
38.3812338374
 30
0.0
 10
12.8339681422
 20
38.0250643998
 30
0.0
 10
13.0335557847
 20
37.4747479308
 30
0.0
 10
13.1596952646
 20
36.9170708248
 30
0.0
 10
13.1886267931
 20
36.5408210344
 30
0.0
 10
13.1886262913
 20
36.354470335
 30
0.0
  0
SPLINE
  5
2D1
100
AcDbEntity
  8
0
100
AcDbSpline
 62
7
  6
BYLAYER
 70
0
 71
3
 72
11
 73
7
 74
0
 42
0.0000001
 43
0.0000001
 44
0.0000000001
 40
0.0
 40
0.0
 40
0.0
 40
0.0
 40
0.2500091952
 40
0.500011479
 40
0.7500069635
 40
1.0
 40
1.0
 40
1.0
 40
1.0
 10
10.8632317533
 20
39.1082089864
 30
0.0
 10
10.7599894786
 20
39.483451184
 30
0.0
 10
10.5715891238
 20
40.2390999594
 30
0.0
 10
10.3558310358
 20
41.3873167586
 30
0.0
 10
10.2197380237
 20
42.5478646681
 30
0.0
 10
10.1886292115
 20
43.3265255165
 30
0.0
 10
10.1886292115
 20
43.7156862745
 30
0.0
  0
SPLINE
  5
2D2
100
AcDbEntity
  8
0
100
AcDbSpline
 62
7
  6
BYLAYER
 70
0
 71
3
 72
13
 73
9
 74
0
 42
0.0000001
 43
0.0000001
 44
0.0000000001
 40
0.0
 40
0.0
 40
0.0
 40
0.0
 40
0.1207149741
 40
0.2419471712
 40
0.3641507347
 40
0.487723004
 40
0.7399554857
 40
1.0
 40
1.0
 40
1.0
 40
1.0
 10
10.188632129
 20
36.3544703712
 30
0.0
 10
10.1886308772
 20
36.447510242
 30
0.0
 10
10.1957472789
 20
36.6340643495
 30
0.0
 10
10.2274444125
 20
36.9131763251
 30
0.0
 10
10.2795896724
 20
37.191440616
 30
0.0
 10
10.3758234908
 20
37.563277393
 30
0.0
 10
10.5432950472
 20
38.0250869623
 30
0.0
 10
10.7150662965
 20
38.3812298869
 30
0.0
 10
10.8091368773
 20
38.5582089864
 30
0.0
  0
SPLINE
  5
2D3
100
AcDbEntity
  8
0
100
AcDbSpline
 62
7
  6
BYLAYER
 70
0
 71
3
 72
11
 73
7
 74
0
 42
0.0000001
 43
0.0000001
 44
0.0000000001
 40
0.0
 40
0.0
 40
0.0
 40
0.0
 40
0.2499930752
 40
0.4999885631
 40
0.7499908315
 40
1.0
 40
1.0
 40
1.0
 40
1.0
 10
10.1886292115
 20
43.7156862745
 30
0.0
 10
10.1886292115
 20
44.1048470928
 30
0.0
 10
10.2197379902
 20
44.8835080091
 30
0.0
 10
10.3558310717
 20
46.0440559543
 30
0.0
 10
10.571589179
 20
47.1922726862
 30
0.0
 10
10.7599894896
 20
47.947921405
 30
0.0
 10
10.8632317533
 20
48.3231635626
 30
0.0
  0
SPLINE
  5
2D4
100
AcDbEntity
  8
0
100
AcDbSpline
 62
7
  6
BYLAYER
 70
0
 71
3
 72
11
 73
7
 74
0
 42
0.0000001
 43
0.0000001
 44
0.0000000001
 40
0.0
 40
0.0
 40
0.0
 40
0.0
 40
0.2601191806
 40
0.5124273075
 40
0.7581436906
 40
1.0
 40
1.0
 40
1.0
 40
1.0
 10
10.8091364961
 20
48.8731635626
 30
0.0
 10
10.7150680114
 20
49.0501387223
 30
0.0
 10
10.5432902641
 20
49.4063081386
 30
0.0
 10
10.3437026376
 20
49.9566246119
 30
0.0
 10
10.2175631704
 20
50.5143017143
 30
0.0
 10
10.1886316306
 20
50.890551501
 30
0.0
 10
10.1886321317
 20
51.0769021993
 30
0.0
  0
SPLINE
  5
2D5
100
AcDbEntity
  8
0
100
AcDbSpline
 62
7
  6
BYLAYER
 70
0
 71
3
 72
13
 73
9
 74
0
 42
0.0000001
 43
0.0000001
 44
0.0000000001
 40
0.0
 40
0.0
 40
0.0
 40
0.0
 40
0.1207149153
 40
0.2419468732
 40
0.3641507106
 40
0.4877239387
 40
0.7399567387
 40
1.0
 40
1.0
 40
1.0
 40
1.0
 10
10.1886321317
 20
51.0769021993
 30
0.0
 10
10.188631818
 20
51.169942027
 30
0.0
 10
10.195742125
 20
51.3564959124
 30
0.0
 10
10.2274317916
 20
51.6356089728
 30
0.0
 10
10.2795818046
 20
51.9138735187
 30
0.0
 10
10.375836303
 20
52.2857061259
 30
0.0
 10
10.5433044485
 20
52.7475155099
 30
0.0
 10
10.7150663711
 20
53.1036625999
 30
0.0
 10
10.8091365004
 20
53.2806408507
 30
0.0
  0
SPLINE
  5
2D6
100
AcDbEntity
  8
0
100
AcDbSpline
 62
7
  6
BYLAYER
 70
0
 71
3
 72
9
 73
5
 74
0
 42
0.0000001
 43
0.0000001
 44
0.0000000001
 40
0.0
 40
0.0
 40
0.0
 40
0.0
 40
0.2437249862
 40
1.0
 40
1.0
 40
1.0
 40
1.0
 10
10.8091365793
 20
53.2806408507
 30
0.0
 10
10.8112162785
 20
53.2858944573
 30
0.0
 10
10.8201807447
 20
53.3072780563
 30
0.0
 10
10.8307986023
 20
53.3279565656
 30
0.0
 10
10.8395640171
 20
53.3431408672
 30
0.0
  0
SPLINE
  5
2D7
100
AcDbEntity
  8
0
100
AcDbSpline
 62
7
  6
BYLAYER
 70
0
 71
3
 72
13
 73
9
 74
0
 42
0.0000001
 43
0.0000001
 44
0.0000000001
 40
0.0
 40
0.0
 40
0.0
 40
0.0
 40
0.1207149154
 40
0.2419468734
 40
0.3641507109
 40
0.4877239385
 40
0.7399567383
 40
1.0
 40
1.0
 40
1.0
 40
1.0
 10
13.1886262913
 20
36.354470335
 30
0.0
 10
13.1886266046
 20
36.2614305079
 30
0.0
 10
13.1815162942
 20
36.0748766236
 30
0.0
 10
13.1498266234
 20
35.7957635656
 30
0.0
 10
13.0976766113
 20
35.5174990222
 30
0.0
 10
13.0014221267
 20
35.1456664143
 30
0.0
 10
12.8339539688
 20
34.68385704
 30
0.0
 10
12.6621920763
 20
34.3277099372
 30
0.0
 10
12.5681219269
 20
34.1507316983
 30
0.0
  0
SPLINE
  5
2D8
100
AcDbEntity
  8
0
100
AcDbSpline
 62
7
  6
BYLAYER
 70
0
 71
3
 72
9
 73
5
 74
0
 42
0.0000001
 43
0.0000001
 44
0.0000000001
 40
0.0
 40
0.0
 40
0.0
 40
0.0
 40
0.2437251867
 40
1.0
 40
1.0
 40
1.0
 40
1.0
 10
12.5681219269
 20
34.1507316983
 30
0.0
 10
12.5660422199
 20
34.1454780796
 30
0.0
 10
12.5570775328
 20
34.1240945274
 30
0.0
 10
12.5464595725
 20
34.1034160446
 30
0.0
 10
12.5376942099
 20
34.0882316841
 30
0.0
  0
SPLINE
  5
2D9
100
AcDbEntity
  8
0
100
AcDbSpline
 62
7
  6
BYLAYER
 70
0
 71
3
 72
11
 73
7
 74
0
 42
0.0000001
 43
0.0000001
 44
0.0000000001
 40
0.0
 40
0.0
 40
0.0
 40
0.0
 40
0.2601203797
 40
0.5124283479
 40
0.7581434355
 40
1.0
 40
1.0
 40
1.0
 40
1.0
 10
10.8091368655
 20
34.1507316983
 30
0.0
 10
10.7150679307
 20
34.3277077014
 30
0.0
 10
10.5432809314
 20
34.683873015
 30
0.0
 10
10.3436888624
 20
35.2341900759
 30
0.0
 10
10.2175857764
 20
35.7918728942
 30
0.0
 10
10.1886301242
 20
36.1681194465
 30
0.0
 10
10.188632129
 20
36.3544703712
 30
0.0
  0
SPLINE
  5
2DA
100
AcDbEntity
  8
0
100
AcDbSpline
 62
7
  6
BYLAYER
 70
0
 71
3
 72
9
 73
5
 74
0
 42
0.0000001
 43
0.0000001
 44
0.0000000001
 40
0.0
 40
0.0
 40
0.0
 40
0.0
 40
0.2456243926
 40
1.0
 40
1.0
 40
1.0
 40
1.0
 10
19.5376980415
 20
53.34314091
 30
0.0
 10
19.5358831697
 20
53.3462862035
 30
0.0
 10
19.5283617986
 20
53.3590147899
 30
0.0
 10
19.5203272057
 20
53.3714381758
 30
0.0
 10
19.5140267898
 20
53.3806408507
 30
0.0
  0
SPLINE
  5
2DB
100
AcDbEntity
  8
0
100
AcDbSpline
 62
7
  6
BYLAYER
 70
0
 71
3
 72
9
 73
5
 74
0
 42
0.0000001
 43
0.0000001
 44
0.0000000001
 40
0.0
 40
0.0
 40
0.0
 40
0.0
 40
0.2456244201
 40
1.0
 40
1.0
 40
1.0
 40
1.0
 10
17.8395603528
 20
34.0882316387
 30
0.0
 10
17.8413752301
 20
34.0850863448
 30
0.0
 10
17.8488966257
 20
34.0723577604
 30
0.0
 10
17.8569312461
 20
34.0599343802
 30
0.0
 10
17.8632316653
 20
34.0507316983
 30
0.0
  0
LINE
  5
2DC
100
AcDbEntity
  8
0
100
AcDbLine
 62
7
  6
BYLAYER
 10
16.6449945394
 20
43.7156863021
 11
16.9886292115
 21
44.0634519764
  0
LINE
  5
2DD
100
AcDbEntity
  8
0
100
AcDbLine
 62
7
  6
BYLAYER
 10
16.4886292115
 20
43.5572076815
 11
16.6449945394
 21
43.7156863021
  0
LINE
  5
2DE
100
AcDbEntity
  8
0
100
AcDbLine
 62
7
  6
BYLAYER
 10
16.7169531734
 20
44.3173685859
 11
16.9739435279
 21
44.0493313104
  0
LINE
  5
2DF
100
AcDbEntity
  8
0
100
AcDbLine
 62
7
  6
BYLAYER
 10
16.7169531734
 20
44.3173685859
 11
16.4886292115
 21
44.5486622485
  0
SPLINE
  5
2E0
100
AcDbEntity
  8
0
100
AcDbSpline
 62
7
  6
BYLAYER
 70
0
 71
3
 72
9
 73
5
 74
0
 42
0.0000001
 43
0.0000001
 44
0.0000000001
 40
0.0
 40
0.0
 40
0.0
 40
0.0
 40
0.254471482
 40
1.0
 40
1.0
 40
1.0
 40
1.0
 10
19.5140267886
 20
34.0507316983
 30
0.0
 10
19.5161520787
 20
34.0538359941
 30
0.0
 10
19.52439529
 20
34.0661087112
 30
0.0
 10
19.5321895051
 20
34.0786849787
 30
0.0
 10
19.5376980423
 20
34.088231639
 30
0.0
  0
SPLINE
  5
2E1
100
AcDbEntity
  8
0
100
AcDbSpline
 62
7
  6
BYLAYER
 70
0
 71
3
 72
9
 73
5
 74
0
 42
0.0000001
 43
0.0000001
 44
0.0000000001
 40
0.0
 40
0.0
 40
0.0
 40
0.0
 40
0.2544713825
 40
1.0
 40
1.0
 40
1.0
 40
1.0
 10
17.8632316641
 20
53.3806408507
 30
0.0
 10
17.8611063737
 20
53.3775365539
 30
0.0
 10
17.8528631512
 20
53.3652638325
 30
0.0
 10
17.8450689064
 20
53.352687572
 30
0.0
 10
17.8395603538
 20
53.3431409103
 30
0.0
  0
LINE
  5
2E2
100
AcDbEntity
  8
0
100
AcDbLine
 62
7
  6
BYLAYER
 10
16.7710109882
 20
38.0680193264
 11
16.7169531734
 21
37.9930805422
  0
LINE
  5
2E3
100
AcDbEntity
  8
0
100
AcDbLine
 62
7
  6
BYLAYER
 10
16.7169531734
 20
42.4582886894
 11
16.4886292115
 21
42.2224580517
  0
LINE
  5
2E4
100
AcDbEntity
  8
0
100
AcDbLine
 62
7
  6
BYLAYER
 10
16.9449206135
 20
42.7141393865
 11
16.7169531734
 21
42.4582886894
  0
SPLINE
  5
2E5
100
AcDbEntity
  8
0
100
AcDbSpline
 62
7
  6
BYLAYER
 70
0
 71
3
 72
13
 73
9
 74
0
 42
0.0000001
 43
0.0000001
 44
0.0000000001
 40
0.0
 40
0.0
 40
0.0
 40
0.0
 40
0.1207149743
 40
0.2419471718
 40
0.364150735
 40
0.4877230035
 40
0.7399554838
 40
1.0
 40
1.0
 40
1.0
 40
1.0
 10
20.188626294
 20
36.3544703802
 30
0.0
 10
20.1886275475
 20
36.2614305066
 30
0.0
 10
20.1815111396
 20
36.0748763933
 30
0.0
 10
20.1498139995
 20
35.7957644108
 30
0.0
 10
20.0976687478
 20
35.5175001112
 30
0.0
 10
20.0014349468
 20
35.1456633208
 30
0.0
 10
19.833963403
 20
34.6838537313
 30
0.0
 10
19.6621921325
 20
34.327710804
 30
0.0
 10
19.5681215485
 20
34.1507316983
 30
0.0
  0
SPLINE
  5
2E6
100
AcDbEntity
  8
0
100
AcDbSpline
 62
7
  6
BYLAYER
 70
0
 71
3
 72
11
 73
7
 74
0
 42
0.0000001
 43
0.0000001
 44
0.0000000001
 40
0.0
 40
0.0
 40
0.0
 40
0.0
 40
0.2601203779
 40
0.5124283474
 40
0.7581434361
 40
1.0
 40
1.0
 40
1.0
 40
1.0
 10
19.5681215547
 20
38.5582089864
 30
0.0
 10
19.6621904863
 20
38.3812329895
 30
0.0
 10
19.833977466
 20
38.025067679
 30
0.0
 10
20.0335695477
 20
37.474750642
 30
0.0
 10
20.1596726649
 20
36.9170678432
 30
0.0
 10
20.1886282954
 20
36.5408212992
 30
0.0
 10
20.188626294
 20
36.3544703802
 30
0.0
  0
SPLINE
  5
2E7
100
AcDbEntity
  8
0
100
AcDbSpline
 62
7
  6
BYLAYER
 70
0
 71
3
 72
9
 73
5
 74
0
 42
0.0000001
 43
0.0000001
 44
0.0000000001
 40
0.0
 40
0.0
 40
0.0
 40
0.0
 40
0.2567075078
 40
1.0
 40
1.0
 40
1.0
 40
1.0
 10
19.5376980423
 20
34.088231639
 30
0.0
 10
19.5406722114
 20
34.0933860711
 30
0.0
 10
19.5519151244
 20
34.1136592448
 30
0.0
 10
19.5617796582
 20
34.1347104542
 30
0.0
 10
19.5681218477
 20
34.1507316983
 30
0.0
  0
SPLINE
  5
2E8
100
AcDbEntity
  8
0
100
AcDbSpline
 62
7
  6
BYLAYER
 70
0
 71
3
 72
11
 73
7
 74
0
 42
0.0000001
 43
0.0000001
 44
0.0000000001
 40
0.0
 40
0.0
 40
0.0
 40
0.0
 40
0.2499930752
 40
0.4999885631
 40
0.7499908315
 40
1.0
 40
1.0
 40
1.0
 40
1.0
 10
20.1886292115
 20
43.7156862745
 30
0.0
 10
20.1886292115
 20
43.3265254563
 30
0.0
 10
20.1575204328
 20
42.5478645399
 30
0.0
 10
20.0214273513
 20
41.3873165948
 30
0.0
 10
19.805669244
 20
40.2390998628
 30
0.0
 10
19.6172689334
 20
39.483451144
 30
0.0
 10
19.5140266697
 20
39.1082089864
 30
0.0
  0
SPLINE
  5
2E9
100
AcDbEntity
  8
0
100
AcDbSpline
 62
7
  6
BYLAYER
 70
0
 71
3
 72
13
 73
9
 74
0
 42
0.0000001
 43
0.0000001
 44
0.0000000001
 40
0.0
 40
0.0
 40
0.0
 40
0.0
 40
0.1207149153
 40
0.2419468732
 40
0.3641507106
 40
0.4877239387
 40
0.739956739
 40
1.0
 40
1.0
 40
1.0
 40
1.0
 10
17.1886321317
 20
36.354470335
 30
0.0
 10
17.188631818
 20
36.4475101626
 30
0.0
 10
17.1957421249
 20
36.6340640481
 30
0.0
 10
17.2274317917
 20
36.9131771085
 30
0.0
 10
17.2795818052
 20
37.1914416541
 30
0.0
 10
17.3758363001
 20
37.5632742629
 30
0.0
 10
17.5433044624
 20
38.0250836388
 30
0.0
 10
17.7150663506
 20
38.3812307467
 30
0.0
 10
17.8091365004
 20
38.5582089864
 30
0.0
  0
SPLINE
  5
2EA
100
AcDbEntity
  8
0
100
AcDbSpline
 62
7
  6
BYLAYER
 70
0
 71
3
 72
11
 73
7
 74
0
 42
0.0000001
 43
0.0000001
 44
0.0000000001
 40
0.0
 40
0.0
 40
0.0
 40
0.0
 40
0.2500091952
 40
0.500011479
 40
0.7500069635
 40
1.0
 40
1.0
 40
1.0
 40
1.0
 10
17.8632317533
 20
39.1082089864
 30
0.0
 10
17.7599894767
 20
39.4834511835
 30
0.0
 10
17.571589125
 20
40.2390999597
 30
0.0
 10
17.3558310354
 20
41.3873167585
 30
0.0
 10
17.2197380239
 20
42.5478646681
 30
0.0
 10
17.1886292115
 20
43.3265255165
 30
0.0
 10
17.1886292115
 20
43.7156862745
 30
0.0
  0
SPLINE
  5
2EB
100
AcDbEntity
  8
0
100
AcDbSpline
 62
7
  6
BYLAYER
 70
0
 71
3
 72
9
 73
5
 74
0
 42
0.0000001
 43
0.0000001
 44
0.0000000001
 40
0.0
 40
0.0
 40
0.0
 40
0.0
 40
0.256707554
 40
1.0
 40
1.0
 40
1.0
 40
1.0
 10
17.8395603538
 20
53.3431409103
 30
0.0
 10
17.8365861774
 20
53.3379864791
 30
0.0
 10
17.8253432443
 20
53.3177133081
 30
0.0
 10
17.8154786995
 20
53.2966620957
 30
0.0
 10
17.8091365004
 20
53.2806408507
 30
0.0
  0
SPLINE
  5
2EC
100
AcDbEntity
  8
0
100
AcDbSpline
 62
7
  6
BYLAYER
 70
0
 71
3
 72
11
 73
7
 74
0
 42
0.0000001
 43
0.0000001
 44
0.0000000001
 40
0.0
 40
0.0
 40
0.0
 40
0.0
 40
0.2499930752
 40
0.4999885631
 40
0.7499908315
 40
1.0
 40
1.0
 40
1.0
 40
1.0
 10
17.1886292115
 20
43.7156862745
 30
0.0
 10
17.1886292115
 20
44.1048470928
 30
0.0
 10
17.2197379903
 20
44.883508009
 30
0.0
 10
17.3558310713
 20
46.0440559543
 30
0.0
 10
17.5715891802
 20
47.1922726859
 30
0.0
 10
17.7599894877
 20
47.9479214055
 30
0.0
 10
17.8632317533
 20
48.3231635626
 30
0.0
  0
SPLINE
  5
2ED
100
AcDbEntity
  8
0
100
AcDbSpline
 62
7
  6
BYLAYER
 70
0
 71
3
 72
11
 73
7
 74
0
 42
0.0000001
 43
0.0000001
 44
0.0000000001
 40
0.0
 40
0.0
 40
0.0
 40
0.0
 40
0.2601191807
 40
0.5124273075
 40
0.7581436906
 40
1.0
 40
1.0
 40
1.0
 40
1.0
 10
17.8091364961
 20
48.8731635626
 30
0.0
 10
17.7150679896
 20
49.0501387108
 30
0.0
 10
17.5432902725
 20
49.4063081433
 30
0.0
 10
17.3437026357
 20
49.9566246108
 30
0.0
 10
17.2175631709
 20
50.5143017146
 30
0.0
 10
17.1886316306
 20
50.890551501
 30
0.0
 10
17.1886321317
 20
51.0769021993
 30
0.0
  0
SPLINE
  5
2EE
100
AcDbEntity
  8
0
100
AcDbSpline
 62
7
  6
BYLAYER
 70
0
 71
3
 72
11
 73
7
 74
0
 42
0.0000001
 43
0.0000001
 44
0.0000000001
 40
0.0
 40
0.0
 40
0.0
 40
0.0
 40
0.26011918
 40
0.5124273073
 40
0.7581436908
 40
1.0
 40
1.0
 40
1.0
 40
1.0
 10
19.5681219226
 20
53.2806408507
 30
0.0
 10
19.6621904079
 20
53.1036656903
 30
0.0
 10
19.8339681506
 20
52.7474962688
 30
0.0
 10
20.0335557829
 20
52.197179794
 30
0.0
 10
20.159695265
 20
51.6395026895
 30
0.0
 10
20.1886267931
 20
51.2632528987
 30
0.0
 10
20.1886262913
 20
51.0769021993
 30
0.0
  0
SPLINE
  5
2EF
100
AcDbEntity
  8
0
100
AcDbSpline
 62
7
  6
BYLAYER
 70
0
 71
3
 72
11
 73
7
 74
0
 42
0.0000001
 43
0.0000001
 44
0.0000000001
 40
0.0
 40
0.0
 40
0.0
 40
0.0
 40
0.2500091952
 40
0.500011479
 40
0.7500069635
 40
1.0
 40
1.0
 40
1.0
 40
1.0
 10
19.5140266697
 20
48.3231635626
 30
0.0
 10
19.6172689444
 20
47.947921365
 30
0.0
 10
19.8056692992
 20
47.1922725896
 30
0.0
 10
20.0214273872
 20
46.0440557905
 30
0.0
 10
20.1575203993
 20
44.883507881
 30
0.0
 10
20.1886292115
 20
44.1048470325
 30
0.0
 10
20.1886292115
 20
43.7156862745
 30
0.0
  0
SPLINE
  5
2F0
100
AcDbEntity
  8
0
100
AcDbSpline
 62
7
  6
BYLAYER
 70
0
 71
3
 72
13
 73
9
 74
0
 42
0.0000001
 43
0.0000001
 44
0.0000000001
 40
0.0
 40
0.0
 40
0.0
 40
0.0
 40
0.1207149154
 40
0.2419468734
 40
0.3641507108
 40
0.4877239385
 40
0.739956738
 40
1.0
 40
1.0
 40
1.0
 40
1.0
 10
20.1886262913
 20
51.0769021993
 30
0.0
 10
20.1886266046
 20
50.9838623722
 30
0.0
 10
20.1815162942
 20
50.797308488
 30
0.0
 10
20.1498266234
 20
50.51819543
 30
0.0
 10
20.0976766119
 20
50.2399308863
 30
0.0
 10
20.0014221237
 20
49.86809828
 30
0.0
 10
19.8339539829
 20
49.4062888975
 30
0.0
 10
19.6621920555
 20
49.0501418128
 30
0.0
 10
19.5681219269
 20
48.8731635626
 30
0.0
  0
SPLINE
  5
2F1
100
AcDbEntity
  8
0
100
AcDbSpline
 62
7
  6
BYLAYER
 70
0
 71
3
 72
13
 73
9
 74
0
 42
0.0000001
 43
0.0000001
 44
0.0000000001
 40
0.0
 40
0.0
 40
0.0
 40
0.0
 40
0.1207149153
 40
0.2419468732
 40
0.3641507106
 40
0.4877239387
 40
0.739956739
 40
1.0
 40
1.0
 40
1.0
 40
1.0
 10
17.1886321317
 20
51.0769021993
 30
0.0
 10
17.188631818
 20
51.169942027
 30
0.0
 10
17.1957421249
 20
51.3564959124
 30
0.0
 10
17.2274317917
 20
51.6356089728
 30
0.0
 10
17.2795818052
 20
51.9138735184
 30
0.0
 10
17.3758363001
 20
52.2857061272
 30
0.0
 10
17.5433044624
 20
52.7475155032
 30
0.0
 10
17.7150663506
 20
53.103662611
 30
0.0
 10
17.8091365004
 20
53.2806408507
 30
0.0
  0
SPLINE
  5
2F2
100
AcDbEntity
  8
0
100
AcDbSpline
 62
7
  6
BYLAYER
 70
0
 71
3
 72
11
 73
7
 74
0
 42
0.0000001
 43
0.0000001
 44
0.0000000001
 40
0.0
 40
0.0
 40
0.0
 40
0.0
 40
0.2601191807
 40
0.5124273075
 40
0.7581436906
 40
1.0
 40
1.0
 40
1.0
 40
1.0
 10
17.8091364961
 20
34.1507316983
 30
0.0
 10
17.7150679896
 20
34.3277068465
 30
0.0
 10
17.5432902725
 20
34.6838762789
 30
0.0
 10
17.3437026357
 20
35.2341927465
 30
0.0
 10
17.2175631709
 20
35.7918698502
 30
0.0
 10
17.1886316306
 20
36.1681196367
 30
0.0
 10
17.1886321317
 20
36.354470335
 30
0.0
  0
SPLINE
  5
2F3
100
AcDbEntity
  8
0
100
AcDbSpline
 62
7
  6
BYLAYER
 70
0
 71
3
 72
9
 73
5
 74
0
 42
0.0000001
 43
0.0000001
 44
0.0000000001
 40
0.0
 40
0.0
 40
0.0
 40
0.0
 40
0.2437474318
 40
1.0
 40
1.0
 40
1.0
 40
1.0
 10
19.5681218437
 20
53.2806408507
 30
0.0
 10
19.5660420074
 20
53.2858948042
 30
0.0
 10
19.5570709369
 20
53.3072749787
 30
0.0
 10
19.5464600481
 20
53.3279557701
 30
0.0
 10
19.5376980415
 20
53.34314091
 30
0.0
  0
SPLINE
  5
2F4
100
AcDbEntity
  8
0
100
AcDbSpline
 62
7
  6
BYLAYER
 70
0
 71
3
 72
9
 73
5
 74
0
 42
0.0000001
 43
0.0000001
 44
0.0000000001
 40
0.0
 40
0.0
 40
0.0
 40
0.0
 40
0.243747406
 40
1.0
 40
1.0
 40
1.0
 40
1.0
 10
17.8091364961
 20
34.1507316983
 30
0.0
 10
17.8112163357
 20
34.1454777447
 30
0.0
 10
17.8201874221
 20
34.1240975682
 30
0.0
 10
17.8307983241
 20
34.1034167735
 30
0.0
 10
17.8395603528
 20
34.0882316387
 30
0.0
  0
ELLIPSE
  5
2F5
100
AcDbEntity
  8
0
100
AcDbEllipse
 62
7
  6
BYLAYER
 10
11.1509898398
 20
42.9294361339
 30
0.0
 11
7.084000063
 21
6.4779641088
 31
0.0
 40
0.6826531162
 41
-1.8575939396
 42
-1.7948600409
  0
ELLIPSE
  5
2F6
100
AcDbEntity
  8
0
100
AcDbEllipse
 62
7
  6
BYLAYER
 10
11.1509898398
 20
42.5680026577
 30
0.0
 11
7.3841983811
 21
7.0131458112
 31
0.0
 40
0.5561450433
 41
-1.7854840708
 42
-1.7227501721
  0
ELLIPSE
  5
2F7
100
AcDbEntity
  8
0
100
AcDbEllipse
 62
7
  6
BYLAYER
 10
11.1509898398
 20
42.2434566772
 30
0.0
 11
7.6732594207
 21
7.439498634
 31
0.0
 40
0.4429672902
 41
-1.7051854317
 42
-1.642451533
  0
ELLIPSE
  5
2F8
100
AcDbEntity
  8
0
100
AcDbEllipse
 62
7
  6
BYLAYER
 10
11.1509898398
 20
41.9662293673
 30
0.0
 11
7.9214559825
 21
7.7813255478
 31
0.0
 40
0.3397569986
 41
-1.6216551135
 42
-1.5589212148
  0
ELLIPSE
  5
2F9
100
AcDbEntity
  8
0
100
AcDbEllipse
 62
7
  6
BYLAYER
 10
11.1509898398
 20
43.3161403366
 30
0.0
 11
6.9023799451
 21
5.6884471334
 31
0.0
 40
0.8263497679
 41
-1.8974052139
 42
-1.8346713152
  0
ELLIPSE
  5
2FA
100
AcDbEntity
  8
0
100
AcDbEllipse
 62
7
  6
BYLAYER
 10
11.1509898398
 20
43.7156862745
 30
0.0
 11
8.3509838241
 21
0.0
 31
0.0
 40
0.963433044
 41
-1.2995325731
 42
-1.2367986744
  0
ELLIPSE
  5
2FB
100
AcDbEntity
  8
0
100
AcDbEllipse
 62
7
  6
BYLAYER
 10
11.1509898398
 20
41.4982980722
 30
0.0
 11
8.333433108
 21
8.3279952762
 31
0.0
 40
0.0649774206
 41
-1.3643765566
 42
-1.3016426579
  0
ELLIPSE
  5
2FC
100
AcDbEntity
  8
0
100
AcDbEllipse
 62
7
  6
BYLAYER
 10
11.1509898398
 20
41.587564769
 30
0.0
 11
8.2557716223
 21
8.2260681246
 31
0.0
 40
0.1528608948
 41
-1.450681815
 42
-1.3879479163
  0
ELLIPSE
  5
2FD
100
AcDbEntity
  8
0
100
AcDbEllipse
 62
7
  6
BYLAYER
 10
11.1509898398
 20
41.7452310419
 30
0.0
 11
8.117466273
 21
8.0434984904
 31
0.0
 40
0.2438041777
 41
-1.536573414
 42
-1.4738395153
  0
ELLIPSE
  5
2FE
100
AcDbEntity
  8
0
100
AcDbEllipse
 62
7
  6
BYLAYER
 10
11.1509898398
 20
43.9162667214
 30
0.0
 11
7.1167322142
 21
-4.8305503843
 31
0.0
 40
0.9045203251
 41
1.7874137859
 42
1.8501476846
  0
ELLIPSE
  5
2FF
100
AcDbEntity
  8
0
100
AcDbEllipse
 62
7
  6
BYLAYER
 10
11.1509898398
 20
44.3109807945
 30
0.0
 11
6.9578857343
 21
-6.1399374695
 31
0.0
 40
0.7521396115
 41
1.8227587284
 42
1.8854926271
  0
ELLIPSE
  5
300
100
AcDbEntity
  8
0
100
AcDbEllipse
 62
7
  6
BYLAYER
 10
11.1509898398
 20
44.6865616119
 30
0.0
 11
7.2319691818
 21
-6.7625506865
 31
0.0
 40
0.6174932746
 41
1.7604441387
 42
1.8231780374
  0
ELLIPSE
  5
301
100
AcDbEntity
  8
0
100
AcDbEllipse
 62
7
  6
BYLAYER
 10
11.1509898398
 20
45.0309376971
 30
0.0
 11
7.5327025616
 21
-7.2376102948
 31
0.0
 40
0.4981174544
 41
1.6831832728
 42
1.7459171715
  0
ELLIPSE
  5
302
100
AcDbEntity
  8
0
100
AcDbEllipse
 62
7
  6
BYLAYER
 10
11.1509898398
 20
45.3330405195
 30
0.0
 11
7.8033763488
 21
-7.6204835111
 31
0.0
 40
0.3902986392
 41
1.6009510273
 42
1.663684926
  0
ELLIPSE
  5
303
100
AcDbEntity
  8
0
100
AcDbEllipse
 62
7
  6
BYLAYER
 10
11.1509898398
 20
45.5831602456
 30
0.0
 11
8.0264104398
 21
-7.9223157113
 31
0.0
 40
0.2910225948
 41
1.5165160115
 42
1.5792499103
  0
ELLIPSE
  5
304
100
AcDbEntity
  8
0
100
AcDbEllipse
 62
7
  6
BYLAYER
 10
11.1509898398
 20
45.7732578217
 30
0.0
 11
8.1940587861
 21
-8.1447938309
 31
0.0
 40
0.1978335621
 41
1.4309653653
 42
1.493699264
  0
ELLIPSE
  5
305
100
AcDbEntity
  8
0
100
AcDbEllipse
 62
7
  6
BYLAYER
 10
11.1509898398
 20
45.8972233553
 30
0.0
 11
8.3023008481
 21
-8.2871775495
 31
0.0
 40
0.108650535
 41
1.344829064
 42
1.4075629627
  0
ELLIPSE
  5
306
100
AcDbEntity
  8
0
100
AcDbEllipse
 62
7
  6
BYLAYER
 10
11.1509898398
 20
42.4004348519
 30
0.0
 11
7.5327025616
 21
7.2376102948
 31
0.0
 40
0.4981174544
 41
0.7904140759
 42
0.8531479746
  0
ELLIPSE
  5
307
100
AcDbEntity
  8
0
100
AcDbEllipse
 62
7
  6
BYLAYER
 10
11.1509898398
 20
42.7448109371
 30
0.0
 11
7.2319691818
 21
6.7625506865
 31
0.0
 40
0.6174932746
 41
0.71315321
 42
0.7758871087
  0
ELLIPSE
  5
308
100
AcDbEntity
  8
0
100
AcDbEllipse
 62
7
  6
BYLAYER
 10
11.1509898398
 20
43.1203917546
 30
0.0
 11
6.9578857343
 21
6.1399374695
 31
0.0
 40
0.7521396115
 41
0.6508386203
 42
0.713572519
  0
ELLIPSE
  5
309
100
AcDbEntity
  8
0
100
AcDbEllipse
 62
7
  6
BYLAYER
 10
11.1509898398
 20
43.5151058277
 30
0.0
 11
7.1167322142
 21
4.8305503843
 31
0.0
 40
0.9045203251
 41
0.6861835629
 42
0.7489174616
  0
ELLIPSE
  5
30A
100
AcDbEntity
  8
0
100
AcDbEllipse
 62
7
  6
BYLAYER
 10
11.1509898398
 20
44.1152322124
 30
0.0
 11
6.9023799451
 21
-5.6884471334
 31
0.0
 40
0.8263497679
 41
-0.7016599322
 42
-0.6389260335
  0
ELLIPSE
  5
30B
100
AcDbEntity
  8
0
100
AcDbEllipse
 62
7
  6
BYLAYER
 10
11.1509898398
 20
45.9330744768
 30
0.0
 11
8.333433108
 21
-8.3279952762
 31
0.0
 40
0.0649774206
 41
-1.2346885895
 42
-1.1719546908
  0
ELLIPSE
  5
30C
100
AcDbEntity
  8
0
100
AcDbEllipse
 62
7
  6
BYLAYER
 10
11.1509898398
 20
45.8438077801
 30
0.0
 11
8.2557716223
 21
-8.2260681246
 31
0.0
 40
0.1528608948
 41
-1.1483833311
 42
-1.0856494324
  0
ELLIPSE
  5
30D
100
AcDbEntity
  8
0
100
AcDbEllipse
 62
7
  6
BYLAYER
 10
11.1509898398
 20
45.6861415071
 30
0.0
 11
8.117466273
 21
-8.0434984904
 31
0.0
 40
0.2438041777
 41
-1.0624917322
 42
-0.9997578335
  0
ELLIPSE
  5
30E
100
AcDbEntity
  8
0
100
AcDbEllipse
 62
7
  6
BYLAYER
 10
11.1509898398
 20
41.4803000568
 30
0.0
 11
8.3490323781
 21
8.3484285061
 31
0.0
 40
0.0216237981
 41
1.2151798089
 42
1.2779137076
  0
ELLIPSE
  5
30F
100
AcDbEntity
  8
0
100
AcDbEllipse
 62
7
  6
BYLAYER
 10
11.1509898398
 20
45.4651431817
 30
0.0
 11
7.9214559825
 21
-7.7813255478
 31
0.0
 40
0.3397569986
 41
-0.9774100326
 42
-0.9146761339
  0
ELLIPSE
  5
310
100
AcDbEntity
  8
0
100
AcDbEllipse
 62
7
  6
BYLAYER
 10
11.1509898398
 20
45.1879158718
 30
0.0
 11
7.6732594207
 21
-7.439498634
 31
0.0
 40
0.4429672902
 41
-0.8938797144
 42
-0.8311458157
  0
ELLIPSE
  5
311
100
AcDbEntity
  8
0
100
AcDbEllipse
 62
7
  6
BYLAYER
 10
11.1509898398
 20
41.5341491937
 30
0.0
 11
8.3023008481
 21
8.2871775495
 31
0.0
 40
0.108650535
 41
1.1287682847
 42
1.1915021834
  0
ELLIPSE
  5
312
100
AcDbEntity
  8
0
100
AcDbEllipse
 62
7
  6
BYLAYER
 10
11.1509898398
 20
44.8633698913
 30
0.0
 11
7.3841983811
 21
-7.0131458112
 31
0.0
 40
0.5561450433
 41
-0.8135810753
 42
-0.7508471766
  0
ELLIPSE
  5
313
100
AcDbEntity
  8
0
100
AcDbEllipse
 62
7
  6
BYLAYER
 10
11.1509898398
 20
44.5019364151
 30
0.0
 11
7.084000063
 21
-6.4779641088
 31
0.0
 40
0.6826531162
 41
-0.7414712065
 42
-0.6787373078
  0
ELLIPSE
  5
314
100
AcDbEntity
  8
0
100
AcDbEllipse
 62
7
  6
BYLAYER
 10
11.1509898398
 20
41.6581147273
 30
0.0
 11
8.1940587861
 21
8.1447938309
 31
0.0
 40
0.1978335621
 41
1.0426319834
 42
1.1053658821
  0
ELLIPSE
  5
315
100
AcDbEntity
  8
0
100
AcDbEllipse
 62
7
  6
BYLAYER
 10
11.1509898398
 20
41.8482123034
 30
0.0
 11
8.0264104398
 21
7.9223157113
 31
0.0
 40
0.2910225948
 41
0.9570813372
 42
1.0198152359
  0
ELLIPSE
  5
316
100
AcDbEntity
  8
0
100
AcDbEllipse
 62
7
  6
BYLAYER
 10
11.1509898398
 20
42.0983320296
 30
0.0
 11
7.8033763488
 21
7.6204835111
 31
0.0
 40
0.3902986392
 41
0.8726463214
 42
0.9353802201
  0
ELLIPSE
  5
317
100
AcDbEntity
  8
0
100
AcDbEllipse
 62
7
  6
BYLAYER
 10
19.2262685832
 20
45.8972233553
 30
0.0
 11
8.3023008481
 21
8.2871775495
 31
0.0
 40
0.108650535
 41
1.7340296909
 42
1.7967635896
  0
ELLIPSE
  5
318
100
AcDbEntity
  8
0
100
AcDbEllipse
 62
7
  6
BYLAYER
 10
19.2262685832
 20
45.7732578217
 30
0.0
 11
8.1940587861
 21
8.1447938309
 31
0.0
 40
0.1978335621
 41
1.6478933896
 42
1.7106272883
  0
ELLIPSE
  5
319
100
AcDbEntity
  8
0
100
AcDbEllipse
 62
7
  6
BYLAYER
 10
19.2262685832
 20
45.5831602456
 30
0.0
 11
8.0264104398
 21
7.9223157113
 31
0.0
 40
0.2910225948
 41
1.5623427433
 42
1.625076642
  0
ELLIPSE
  5
31A
100
AcDbEntity
  8
0
100
AcDbEllipse
 62
7
  6
BYLAYER
 10
19.2262685832
 20
45.3330405195
 30
0.0
 11
7.8033763488
 21
7.6204835111
 31
0.0
 40
0.3902986392
 41
1.4779077276
 42
1.5406416263
  0
ELLIPSE
  5
31B
100
AcDbEntity
  8
0
100
AcDbEllipse
 62
7
  6
BYLAYER
 10
19.2262685832
 20
45.0309376971
 30
0.0
 11
7.5327025616
 21
7.2376102948
 31
0.0
 40
0.4981174544
 41
1.3956754821
 42
1.4584093808
  0
ELLIPSE
  5
31C
100
AcDbEntity
  8
0
100
AcDbEllipse
 62
7
  6
BYLAYER
 10
19.2262685832
 20
44.6865616119
 30
0.0
 11
7.2319691818
 21
6.7625506865
 31
0.0
 40
0.6174932746
 41
1.3184146161
 42
1.3811485149
  0
ELLIPSE
  5
31D
100
AcDbEntity
  8
0
100
AcDbEllipse
 62
7
  6
BYLAYER
 10
19.2262685832
 20
44.3109807945
 30
0.0
 11
6.9578857343
 21
6.1399374695
 31
0.0
 40
0.7521396115
 41
1.2561000265
 42
1.3188339252
  0
ELLIPSE
  5
31E
100
AcDbEntity
  8
0
100
AcDbEllipse
 62
7
  6
BYLAYER
 10
19.2262685832
 20
43.9162667214
 30
0.0
 11
7.1167322142
 21
4.8305503843
 31
0.0
 40
0.9045203251
 41
1.291444969
 42
1.3541788677
  0
ELLIPSE
  5
31F
100
AcDbEntity
  8
0
100
AcDbEllipse
 62
7
  6
BYLAYER
 10
19.2262685832
 20
43.3161403366
 30
0.0
 11
6.9023799451
 21
-5.6884471334
 31
0.0
 40
0.8263497679
 41
-1.3069213383
 42
-1.2441874396
  0
ELLIPSE
  5
320
100
AcDbEntity
  8
0
100
AcDbEllipse
 62
7
  6
BYLAYER
 10
19.2262685832
 20
42.9294361339
 30
0.0
 11
7.084000063
 21
-6.4779641088
 31
0.0
 40
0.6826531162
 41
-1.3467326127
 42
-1.283998714
  0
ELLIPSE
  5
321
100
AcDbEntity
  8
0
100
AcDbEllipse
 62
7
  6
BYLAYER
 10
19.2262685832
 20
42.5680026577
 30
0.0
 11
7.3841983811
 21
-7.0131458112
 31
0.0
 40
0.5561450433
 41
-1.4188424815
 42
-1.3561085828
  0
ELLIPSE
  5
322
100
AcDbEntity
  8
0
100
AcDbEllipse
 62
7
  6
BYLAYER
 10
19.2262685832
 20
42.2434566772
 30
0.0
 11
7.6732594207
 21
-7.439498634
 31
0.0
 40
0.4429672902
 41
-1.4991411205
 42
-1.4364072218
  0
ELLIPSE
  5
323
100
AcDbEntity
  8
0
100
AcDbEllipse
 62
7
  6
BYLAYER
 10
19.2262685832
 20
41.9662293673
 30
0.0
 11
7.9214559825
 21
-7.7813255478
 31
0.0
 40
0.3397569986
 41
-1.5826714388
 42
-1.5199375401
  0
ELLIPSE
  5
324
100
AcDbEntity
  8
0
100
AcDbEllipse
 62
7
  6
BYLAYER
 10
19.2262685832
 20
41.7452310419
 30
0.0
 11
8.117466273
 21
-8.0434984904
 31
0.0
 40
0.2438041777
 41
-1.6677531383
 42
-1.6050192396
  0
ELLIPSE
  5
325
100
AcDbEntity
  8
0
100
AcDbEllipse
 62
7
  6
BYLAYER
 10
19.2262685832
 20
41.587564769
 30
0.0
 11
8.2557716223
 21
-8.2260681246
 31
0.0
 40
0.1528608948
 41
-1.7536447373
 42
-1.6909108386
  0
ELLIPSE
  5
326
100
AcDbEntity
  8
0
100
AcDbEllipse
 62
7
  6
BYLAYER
 10
19.2262685832
 20
41.4982980722
 30
0.0
 11
8.333433108
 21
-8.3279952762
 31
0.0
 40
0.0649774206
 41
-1.8399499957
 42
-1.777216097
  0
ELLIPSE
  5
327
100
AcDbEntity
  8
0
100
AcDbEllipse
 62
7
  6
BYLAYER
 10
19.2262685832
 20
43.7156862745
 30
0.0
 11
8.3509838241
 21
0.0
 31
0.0
 40
0.963433044
 41
-1.9047939792
 42
-1.8420600805
  0
ELLIPSE
  5
328
100
AcDbEntity
  8
0
100
AcDbEllipse
 62
7
  6
BYLAYER
 10
19.2262685832
 20
44.1152322124
 30
0.0
 11
6.9023799451
 21
5.6884471334
 31
0.0
 40
0.8263497679
 41
-2.5026666201
 42
-2.4399327214
  0
ELLIPSE
  5
329
100
AcDbEntity
  8
0
100
AcDbEllipse
 62
7
  6
BYLAYER
 10
19.2262685832
 20
44.5019364151
 30
0.0
 11
7.084000063
 21
6.4779641088
 31
0.0
 40
0.6826531162
 41
-2.4628553458
 42
-2.4001214471
  0
ELLIPSE
  5
32A
100
AcDbEntity
  8
0
100
AcDbEllipse
 62
7
  6
BYLAYER
 10
19.2262685832
 20
44.8633698913
 30
0.0
 11
7.3841983811
 21
7.0131458112
 31
0.0
 40
0.5561450433
 41
-2.390745477
 42
-2.3280115783
  0
ELLIPSE
  5
32B
100
AcDbEntity
  8
0
100
AcDbEllipse
 62
7
  6
BYLAYER
 10
19.2262685832
 20
45.1879158718
 30
0.0
 11
7.6732594207
 21
7.439498634
 31
0.0
 40
0.4429672902
 41
-2.3104468379
 42
-2.2477129392
  0
ELLIPSE
  5
32C
100
AcDbEntity
  8
0
100
AcDbEllipse
 62
7
  6
BYLAYER
 10
19.2262685832
 20
45.4651431817
 30
0.0
 11
7.9214559825
 21
7.7813255478
 31
0.0
 40
0.3397569986
 41
-2.2269165197
 42
-2.164182621
  0
ELLIPSE
  5
32D
100
AcDbEntity
  8
0
100
AcDbEllipse
 62
7
  6
BYLAYER
 10
19.2262685832
 20
45.6861415071
 30
0.0
 11
8.117466273
 21
8.0434984904
 31
0.0
 40
0.2438041777
 41
-2.1418348201
 42
-2.0791009214
  0
ELLIPSE
  5
32E
100
AcDbEntity
  8
0
100
AcDbEllipse
 62
7
  6
BYLAYER
 10
19.2262685832
 20
45.8438077801
 30
0.0
 11
8.2557716223
 21
8.2260681246
 31
0.0
 40
0.1528608948
 41
-2.0559432212
 42
-1.9932093225
  0
ELLIPSE
  5
32F
100
AcDbEntity
  8
0
100
AcDbEllipse
 62
7
  6
BYLAYER
 10
19.2262685832
 20
45.9330744768
 30
0.0
 11
8.333433108
 21
8.3279952762
 31
0.0
 40
0.0649774206
 41
-1.9696379628
 42
-1.9069040641
  0
ELLIPSE
  5
330
100
AcDbEntity
  8
0
100
AcDbEllipse
 62
7
  6
BYLAYER
 10
19.2262685832
 20
43.5151058277
 30
0.0
 11
7.1167322142
 21
-4.8305503843
 31
0.0
 40
0.9045203251
 41
2.392675192
 42
2.4554090907
  0
ELLIPSE
  5
331
100
AcDbEntity
  8
0
100
AcDbEllipse
 62
7
  6
BYLAYER
 10
19.2262685832
 20
43.1203917546
 30
0.0
 11
6.9578857343
 21
-6.1399374695
 31
0.0
 40
0.7521396115
 41
2.4280201346
 42
2.4907540333
  0
ELLIPSE
  5
332
100
AcDbEntity
  8
0
100
AcDbEllipse
 62
7
  6
BYLAYER
 10
19.2262685832
 20
42.7448109371
 30
0.0
 11
7.2319691818
 21
-6.7625506865
 31
0.0
 40
0.6174932746
 41
2.3657055449
 42
2.4284394436
  0
ELLIPSE
  5
333
100
AcDbEntity
  8
0
100
AcDbEllipse
 62
7
  6
BYLAYER
 10
19.2262685832
 20
42.4004348519
 30
0.0
 11
7.5327025616
 21
-7.2376102948
 31
0.0
 40
0.4981174544
 41
2.288444679
 42
2.3511785777
  0
ELLIPSE
  5
334
100
AcDbEntity
  8
0
100
AcDbEllipse
 62
7
  6
BYLAYER
 10
19.2262685832
 20
42.0983320296
 30
0.0
 11
7.8033763488
 21
-7.6204835111
 31
0.0
 40
0.3902986392
 41
2.2062124334
 42
2.2689463321
  0
ELLIPSE
  5
335
100
AcDbEntity
  8
0
100
AcDbEllipse
 62
7
  6
BYLAYER
 10
19.2262685832
 20
41.8482123034
 30
0.0
 11
8.0264104398
 21
-7.9223157113
 31
0.0
 40
0.2910225948
 41
2.1217774177
 42
2.1845113164
  0
ELLIPSE
  5
336
100
AcDbEntity
  8
0
100
AcDbEllipse
 62
7
  6
BYLAYER
 10
19.2262685832
 20
41.6581147273
 30
0.0
 11
8.1940587861
 21
-8.1447938309
 31
0.0
 40
0.1978335621
 41
2.0362267715
 42
2.0989606702
  0
ELLIPSE
  5
337
100
AcDbEntity
  8
0
100
AcDbEllipse
 62
7
  6
BYLAYER
 10
19.2262685832
 20
41.5341491937
 30
0.0
 11
8.3023008481
 21
-8.2871775495
 31
0.0
 40
0.108650535
 41
1.9500904702
 42
2.0128243689
  0
ELLIPSE
  5
338
100
AcDbEntity
  8
0
100
AcDbEllipse
 62
7
  6
BYLAYER
 10
19.2262685832
 20
41.4803000568
 30
0.0
 11
8.3490323781
 21
-8.3484285061
 31
0.0
 40
0.0216237981
 41
1.863678946
 42
1.9264128447
  0
ENDSEC
  0
SECTION
  2
OBJECTS
  0
DICTIONARY
  5
C
100
AcDbDictionary
280
0
281
1
  3
ACAD_GROUP
350
D
  3
ACAD_MLINESTYLE
350
17
  3
ACAD_LAYOUT
350
1A
  3
ACAD_PLOTSETTINGS
350
19
  3
ACAD_PLOTSTYLENAME
350
E
  0
DICTIONARY
  5
D
102
{ACAD_REACTORS
330
C
102
}
100
AcDbDictionary
280
0
281
1
  0
ACDBDICTIONARYWDFLT
  5
E
102
{ACAD_REACTORS
330
C
102
}
100
AcDbDictionary
281
1
  3
Normal
350
F
100
AcDbDictionaryWithDefault
340
F
  0
DICTIONARY
  5
17
102
{ACAD_REACTORS
330
C
102
}
100
AcDbDictionary
280
0
281
1
  3
Standard
350
18
  0
DICTIONARY
  5
19
102
{ACAD_REACTORS
330
C
102
}
100
AcDbDictionary
281
1
  0
DICTIONARY
  5
1A
102
{ACAD_REACTORS
330
C
102
}
100
AcDbDictionary
281
1
  3
Model
350
339
  3
Layout1
350
33A
  0
ACDBPLACEHOLDER
  5
F
102
{ACAD_REACTORS
330
E
102
}
  0
MLINESTYLE
  5
18
102
{ACAD_REACTORS
330
17
102
}
100
AcDbMlineStyle
  2
STANDARD
 70
0
  3

 62
256
 51
90.0
 52
90.0
 71
2
 49
0.5
 62
256
  6
BYLAYER
 49
-0.5
 62
256
  6
BYLAYER
  0
LAYOUT
  5
339
102
{ACAD_REACTORS
330
1A
102
}
100
AcDbPlotSettings
  1

  2
none_device
  4

  6

 40
0.0
 41
0.0
 42
0.0
 43
0.0
 44
210.0
 45
297.0
 46
0.0
 47
0.0
 48
0.0
 49
0.0
140
0.0
141
0.0
142
1.0
143
1.0
 70
1024
 72
1
 73
0
 74
0
  7

 75
0
147
1.0
148
0.0
149
0.0
100
AcDbLayout
  1
Model
 70
0
 71
0
 10
0.0
 20
0.0
 11
210.0
 21
297.0
 12
0.0
 22
0.0
 32
0.0
 14
0.0
 24
0.0
 34
0.0
 15
0.0
 25
0.0
 35
0.0
146
0.0
 13
0.0
 23
0.0
 33
0.0
 16
1.0
 26
0.0
 36
0.0
 17
0.0
 27
1.0
 37
0.0
 76
0
330
210
345
0
346
0
  0
LAYOUT
  5
33A
102
{ACAD_REACTORS
330
1A
102
}
100
AcDbPlotSettings
  1

  2
none_device
  4

  6

 40
0.0
 41
0.0
 42
0.0
 43
0.0
 44
210.0
 45
297.0
 46
0.0
 47
0.0
 48
0.0
 49
0.0
140
0.0
141
0.0
142
1.0
143
1.0
 70
0
 72
1
 73
0
 74
0
  7

 75
0
147
1.0
148
0.0
149
0.0
100
AcDbLayout
  1
Layout1
 70
0
 71
1
 10
0.0
 20
0.0
 11
210.0
 21
297.0
 12
0.0
 22
0.0
 32
0.0
 14
0.0
 24
0.0
 34
0.0
 15
0.0
 25
0.0
 35
0.0
146
0.0
 13
0.0
 23
0.0
 33
0.0
 16
1.0
 26
0.0
 36
0.0
 17
0.0
 27
1.0
 37
0.0
 76
0
330
211
345
0
346
0
  0
ENDSEC
  0
EOF
