999
DXF file: C:\Users\sesa63760\Dev\_Creo\CAD\MCADID0004042_3D-CAD\drw0001_1.dxf
999
Pro/ENGINEER 2019471 by Parametric Technology Corporation
  0
SECTION
  2
HEADER
  9
$ACADVER
  1
AC1024
  9
$DWGCODEPAGE
  3
ANSI_1252
  9
$EXTMAX
 10
78.1242933868
 20
110.4900720757
 30
0.0
  9
$EXTMIN
 10
0.0
 20
0.0
 30
0.0
  9
$LIMMIN
 10
0.0
 20
0.0
  9
$LIMMAX
 10
78.1242933868
 20
110.4900720757
  9
$VIEWCTR
 10
39.0621466934
 20
55.2450360378
  9
$VIEWSIZE
 40
110.4900720757
  9
$CLAYER
  8
0
  9
$LTSCALE
 40
7.2023158094
  9
$CELTYPE
  6
BYLAYER
  9
$DIMSCALE
 40
1.0
  9
$DIMASZ
 40
0.9300511117
  9
$DIMEXO
 40
1.0
  9
$DIMDLI
 40
4.9761454683
  9
$DIMEXE
 40
1.0
  9
$DIMCEN
 40
1.1785607688
  9
$DIMLFAC
 40
1.0
  9
$DIMBLK
  1
_FILLED
  9
$DIMALT
 70
0
  9
$DIMALTF
 40
0.0393700787
  9
$DIMTXT
 40
1.3020715564
  9
$DIMTOL
 70
1
  9
$DIMLIM
 70
0
  9
$DIMTFAC
 40
1.0
  9
$DIMTP
 40
0.01
  9
$DIMTM
 40
0.01
  9
$DIMGAP
 40
0.625
  9
$DIMDSEP
 70
46
  9
$AUNITS
 70
0
  9
$PDMODE
 70
3
  9
$PDSIZE
 40
0.3125
  9
$HANDSEED
  5
40C
  9
$TILEMODE
 70
1
  9
$MEASUREMENT
 70
1
  9
$INSUNITS
 70
4
  0
ENDSEC
  0
SECTION
  2
CLASSES
  0
CLASS
  1
ACDBDICTIONARYWDFLT
  2
AcDbDictionaryWithDefault
  3
AutoCAD 2000
 90
0
 91
1
280
0
281
0
  0
CLASS
  1
ACDBPLACEHOLDER
  2
AcDbPlaceHolder
  3
AutoCAD 2000
 90
0
 91
1
280
0
281
0
  0
CLASS
  1
LAYOUT
  2
AcDbLayout
  3
AutoCAD 2000
 90
0
 91
0
280
0
281
0
  0
ENDSEC
  0
SECTION
  2
TABLES
  0
TABLE
  2
VPORT
  5
8
100
AcDbSymbolTable
 70
2
  0
VPORT
  5
1F4
100
AcDbSymbolTableRecord
100
AcDbViewportTableRecord
  2
*ACTIVE
 70
0
 10
0.0
 20
0.0
 11
1.0
 21
1.0
 12
39.0621466934
 22
55.2450360378
 13
0.0
 23
0.0
 14
1.0
 24
1.0
 15
0.0
 25
0.0
 16
0.0
 26
0.0
 36
1.0
 17
0.0
 27
0.0
 37
0.0
 40
110.4900720757
 41
0.7070707071
 42
50.0
 43
0.0
 44
0.0
 50
0.0
 51
0.0
 71
0
 72
100
 73
1
 74
1
 75
0
 76
0
 77
0
 78
0
  0
ENDTAB
  0
TABLE
  2
LTYPE
  5
5
100
AcDbSymbolTable
 70
6
  0
LTYPE
  5
14
100
AcDbSymbolTableRecord
100
AcDbLinetypeTableRecord
  2
BYBLOCK
 70
0
  3

 72
65
 73
0
 40
0.0
  0
LTYPE
  5
15
100
AcDbSymbolTableRecord
100
AcDbLinetypeTableRecord
  2
BYLAYER
 70
0
  3

 72
65
 73
0
 40
0.0
  0
LTYPE
  5
16
100
AcDbSymbolTableRecord
100
AcDbLinetypeTableRecord
  2
CONTINUOUS
 70
64
  3
Solid line
 72
65
 73
0
 40
0.0
  0
LTYPE
  5
1F5
100
AcDbSymbolTableRecord
100
AcDbLinetypeTableRecord
  2
CENTER
 70
64
  3
____ _ ____ _ ____ _ ____ _ ____ _ ____ _ ____
 72
65
 73
4
 40
0.6
 49
0.375
 74
0
 49
-0.075
 74
0
 49
0.075
 74
0
 49
-0.075
 74
0
  0
LTYPE
  5
1F6
100
AcDbSymbolTableRecord
100
AcDbLinetypeTableRecord
  2
HIDDEN
 70
64
  3
- - - - - - - - - - - - - - - - - - - -
 72
65
 73
2
 40
0.2
 49
0.1
 74
0
 49
-0.1
 74
0
  0
LTYPE
  5
1F7
100
AcDbSymbolTableRecord
100
AcDbLinetypeTableRecord
  2
PHANTOM
 70
64
  3
_____ _ _ _____ _ _ _____ _ _ _____
 72
65
 73
6
 40
0.8
 49
0.45
 74
0
 49
-0.05
 74
0
 49
0.1
 74
0
 49
-0.05
 74
0
 49
0.1
 74
0
 49
-0.05
 74
0
  0
LTYPE
  5
1F8
100
AcDbSymbolTableRecord
100
AcDbLinetypeTableRecord
  2
DOT
 70
64
  3
. . . . . . . . . . . . . . . . . . . .
 72
65
 73
2
 40
0.2
 49
0.1
 74
0
 49
-0.1
 74
0
  0
LTYPE
  5
1F9
100
AcDbSymbolTableRecord
100
AcDbLinetypeTableRecord
  2
DASHED
 70
64
  3
- - - - - - - - - - - - - - - - - - - -
 72
65
 73
2
 40
0.2
 49
0.1
 74
0
 49
-0.1
 74
0
  0
ENDTAB
  0
TABLE
  2
LAYER
  5
2
100
AcDbSymbolTable
 70
36
  0
LAYER
  5
10
100
AcDbSymbolTableRecord
100
AcDbLayerTableRecord
  2
0
 70
0
 62
7
  6
CONTINUOUS
370
-3
390
F
  0
LAYER
  5
1FA
100
AcDbSymbolTableRecord
100
AcDbLayerTableRecord
  2
DEFAULT_1
 70
0
 62
7
  6
CENTER
370
-3
390
F
  0
LAYER
  5
1FB
100
AcDbSymbolTableRecord
100
AcDbLayerTableRecord
  2
DEFAULT_2
 70
0
 62
7
  6
HIDDEN
370
-3
390
F
  0
LAYER
  5
1FC
100
AcDbSymbolTableRecord
100
AcDbLayerTableRecord
  2
DEFAULT_3
 70
0
 62
7
  6
PHANTOM
370
-3
390
F
  0
LAYER
  5
1FD
100
AcDbSymbolTableRecord
100
AcDbLayerTableRecord
  2
00_COMPONENTS
 70
0
 62
7
  6
CONTINUOUS
370
-3
390
F
  0
LAYER
  5
1FE
100
AcDbSymbolTableRecord
100
AcDbLayerTableRecord
  2
01_1_DEFAULT_DATUMS
 70
0
 62
7
  6
CONTINUOUS
370
-3
390
F
  0
LAYER
  5
1FF
100
AcDbSymbolTableRecord
100
AcDbLayerTableRecord
  2
01_PLANES
 70
0
 62
7
  6
CONTINUOUS
370
-3
390
F
  0
LAYER
  5
200
100
AcDbSymbolTableRecord
100
AcDbLayerTableRecord
  2
02_COORD_SYS
 70
0
 62
7
  6
CONTINUOUS
370
-3
390
F
  0
LAYER
  5
201
100
AcDbSymbolTableRecord
100
AcDbLayerTableRecord
  2
03_AXES
 70
0
 62
7
  6
CONTINUOUS
370
-3
390
F
  0
LAYER
  5
202
100
AcDbSymbolTableRecord
100
AcDbLayerTableRecord
  2
04_POINTS
 70
0
 62
7
  6
CONTINUOUS
370
-3
390
F
  0
LAYER
  5
203
100
AcDbSymbolTableRecord
100
AcDbLayerTableRecord
  2
05_CURVES
 70
0
 62
7
  6
CONTINUOUS
370
-3
390
F
  0
LAYER
  5
204
100
AcDbSymbolTableRecord
100
AcDbLayerTableRecord
  2
06_SURFS
 70
0
 62
7
  6
CONTINUOUS
370
-3
390
F
  0
LAYER
  5
205
100
AcDbSymbolTableRecord
100
AcDbLayerTableRecord
  2
07_COSMETICS
 70
0
 62
7
  6
CONTINUOUS
370
-3
390
F
  0
LAYER
  5
206
100
AcDbSymbolTableRecord
100
AcDbLayerTableRecord
  2
10_NOTES
 70
0
 62
7
  6
CONTINUOUS
370
-3
390
F
  0
LAYER
  5
207
100
AcDbSymbolTableRecord
100
AcDbLayerTableRecord
  2
11_NOTES_PUB
 70
0
 62
7
  6
CONTINUOUS
370
-3
390
F
  0
LAYER
  5
208
100
AcDbSymbolTableRecord
100
AcDbLayerTableRecord
  2
13_REF_GTOL
 70
0
 62
7
  6
CONTINUOUS
370
-3
390
F
  0
LAYER
  5
209
100
AcDbSymbolTableRecord
100
AcDbLayerTableRecord
  2
16_MISC
 70
0
 62
7
  6
CONTINUOUS
370
-3
390
F
  0
LAYER
  5
20A
100
AcDbSymbolTableRecord
100
AcDbLayerTableRecord
  2
17_NO_PRINT
 70
0
 62
7
  6
CONTINUOUS
370
-3
390
F
  0
LAYER
  5
20B
100
AcDbSymbolTableRecord
100
AcDbLayerTableRecord
  2
18_DATUM_CAMS_JOINTS
 70
0
 62
7
  6
CONTINUOUS
370
-3
390
F
  0
LAYER
  5
20C
100
AcDbSymbolTableRecord
100
AcDbLayerTableRecord
  2
19_DATUM_FUNCTIONAL
 70
0
 62
7
  6
CONTINUOUS
370
-3
390
F
  0
LAYER
  5
20D
100
AcDbSymbolTableRecord
100
AcDbLayerTableRecord
  2
20_DATUM_KINEMATIC_SCHEME
 70
0
 62
7
  6
CONTINUOUS
370
-3
390
F
  0
ENDTAB
  0
TABLE
  2
STYLE
  5
3
100
AcDbSymbolTable
 70
1
  0
STYLE
  5
11
100
AcDbSymbolTableRecord
100
AcDbTextStyleTableRecord
  2
STANDARD
 70
0
 40
0.0
 41
1.0
 50
0.0
 71
0
 42
0.2
  3
ARIAL.TTF
  4

  0
STYLE
  5
20E
100
AcDbSymbolTableRecord
100
AcDbTextStyleTableRecord
  2
TEXTSTYLE_1
 70
0
 40
0.0
 41
0.8
 50
0.0
 71
0
 42
0.2
  3
gdt
  4

  0
ENDTAB
  0
TABLE
  2
VIEW
  5
6
100
AcDbSymbolTable
 70
0
  0
ENDTAB
  0
TABLE
  2
UCS
  5
7
100
AcDbSymbolTable
 70
0
  0
ENDTAB
  0
TABLE
  2
APPID
  5
9
100
AcDbSymbolTable
 70
1
  0
APPID
  5
20F
100
AcDbSymbolTableRecord
100
AcDbRegAppTableRecord
  2
ACAD
 70
0
  0
ENDTAB
  0
TABLE
  2
BLOCK_RECORD
  5
1
100
AcDbSymbolTable
 70
0
  0
BLOCK_RECORD
  5
210
100
AcDbSymbolTableRecord
100
AcDbBlockTableRecord
  2
*Model_Space
  0
BLOCK_RECORD
  5
211
100
AcDbSymbolTableRecord
100
AcDbBlockTableRecord
  2
*Paper_Space
  0
BLOCK_RECORD
  5
212
100
AcDbSymbolTableRecord
100
AcDbBlockTableRecord
  2
_FILLED
  0
ENDTAB
  0
TABLE
  2
DIMSTYLE
  5
A
100
AcDbSymbolTable
 70
1
100
AcDbDimStyleTable
 71
0
  0
DIMSTYLE
105
213
100
AcDbSymbolTableRecord
100
AcDbDimStyleTableRecord
  2
STANDARD
 70
0
  3

  4

 40
1.0
 41
0.9300511117
 42
1.0
 43
0.38
 44
1.0
 45
0.0
 46
0.0
 47
0.01
 48
0.01
140
1.3020715564
141
0.09
142
0.0
143
25.4
144
1.0
145
0.0
146
1.0
147
0.625
 71
1
 72
0
 73
0
 74
0
 75
0
 76
0
 77
1
 78
8
 79
2
170
0
171
1
172
0
173
0
174
0
175
0
176
0
177
0
178
0
270
2
179
2
271
2
272
2
273
2
274
2
275
0
280
0
281
0
282
0
283
1
284
8
285
0
286
0
287
3
288
0
340
11
278
46
341
212
342
212
343
212
344
212
  0
ENDTAB
  0
ENDSEC
  0
SECTION
  2
BLOCKS
  0
BLOCK
  5
20
100
AcDbEntity
  8
0
100
AcDbBlockBegin
  2
*Model_Space
 70
0
 10
0.0
 20
0.0
 30
0.0
  3
*Model_Space
  1

  0
ENDBLK
  5
21
100
AcDbEntity
  8
0
100
AcDbBlockEnd
  0
BLOCK
  5
1C
100
AcDbEntity
  8
0
100
AcDbBlockBegin
  2
*Paper_Space
 70
0
 10
0.0
 20
0.0
 30
0.0
  3
*Paper_Space
  1

  0
ENDBLK
  5
1D
100
AcDbEntity
  8
0
100
AcDbBlockEnd
  0
BLOCK
  5
214
100
AcDbEntity
  8
0
100
AcDbBlockBegin
  2
_FILLED
 70
64
 10
0.0
 20
0.0
  3
_FILLED
  1

  0
SOLID
  5
215
100
AcDbEntity
  8
0
  6
BYBLOCK
 62
0
100
AcDbTrace
 10
0.0
 20
0.0
 11
-1.0
 21
0.25
 12
-1.0
 22
-0.25
 13
-1.0
 23
-0.25
  0
ENDBLK
  5
216
100
AcDbEntity
  8
0
  6
BYBLOCK
 62
0
100
AcDbBlockEnd
  0
ENDSEC
  0
SECTION
  2
ENTITIES
  0
LINE
  5
217
100
AcDbEntity
  8
0
100
AcDbLine
 62
7
  6
BYLAYER
 10
14.1238612693
 20
56.2461210995
 11
14.1014328417
 21
56.2244056302
  0
LINE
  5
218
100
AcDbEntity
  8
0
100
AcDbLine
 62
7
  6
BYLAYER
 10
36.9120876076
 20
75.9213562949
 11
35.0096397038
 21
74.8229840419
  0
LINE
  5
219
100
AcDbEntity
  8
0
100
AcDbLine
 62
7
  6
BYLAYER
 10
42.0806780768
 20
78.9054255811
 11
43.9831259855
 21
80.0037978369
  0
LWPOLYLINE
  5
21A
100
AcDbEntity
  8
0
100
AcDbPolyline
 62
7
  6
BYLAYER
 90
5
 70
0
 10
26.3231766148
 20
30.380486378
 10
23.6873045712
 20
29.6956723276
 10
20.5768531122
 20
30.3483225798
 10
17.3293292888
 20
32.2782875792
 10
15.0710062274
 20
34.4993456689
  0
LINE
  5
21B
100
AcDbEntity
  8
0
100
AcDbLine
 62
7
  6
BYLAYER
 10
28.3598239952
 20
31.5611236676
 11
28.3737580116
 21
31.564428589
  0
LINE
  5
21C
100
AcDbEntity
  8
0
100
AcDbLine
 62
7
  6
BYLAYER
 10
46.3469836758
 20
77.171960053
 11
46.3673548509
 21
77.1867073294
  0
LINE
  5
21D
100
AcDbEntity
  8
0
100
AcDbLine
 62
7
  6
BYLAYER
 10
14.1238507221
 20
56.2461393671
 11
14.0976614767
 21
56.2309056366
  0
LINE
  5
21E
100
AcDbEntity
  8
0
100
AcDbLine
 62
7
  6
BYLAYER
 10
39.6192881152
 20
71.8318944552
 11
16.8954552926
 21
58.7123617711
  0
LINE
  5
21F
100
AcDbEntity
  8
0
100
AcDbLine
 62
7
  6
BYLAYER
 10
48.782737729
 20
76.9817786851
 11
46.8802897357
 21
75.8834063804
  0
LINE
  5
220
100
AcDbEntity
  8
0
100
AcDbLine
 62
7
  6
BYLAYER
 10
53.9513281429
 20
79.9658479394
 11
55.8537761065
 21
81.0642202269
  0
LINE
  5
221
100
AcDbEntity
  8
0
100
AcDbLine
 62
7
  6
BYLAYER
 10
16.7401257359
 20
57.7566586336
 11
14.1238415382
 21
56.2461552643
  0
LINE
  5
222
100
AcDbEntity
  8
0
100
AcDbLine
 62
7
  6
BYLAYER
 10
14.0531311545
 20
56.2053308489
 11
12.0732404103
 21
55.0622472181
  0
LINE
  5
223
100
AcDbEntity
  8
0
100
AcDbLine
 62
7
  6
BYLAYER
 10
49.4994792974
 20
76.6287178544
 11
47.6332481288
 21
75.5512552185
  0
LINE
  5
224
100
AcDbEntity
  8
0
100
AcDbLine
 62
7
  6
BYLAYER
 10
54.7042865004
 20
79.6336967569
 11
56.5705176732
 21
80.7111593953
  0
LINE
  5
225
100
AcDbEntity
  8
0
100
AcDbLine
 62
7
  6
BYLAYER
 10
26.0444347312
 20
51.3230621169
 11
26.0627013843
 21
51.3010216437
  0
LINE
  5
226
100
AcDbEntity
  8
0
100
AcDbLine
 62
7
  6
BYLAYER
 10
26.0796517073
 20
51.3270630057
 11
26.0655533018
 21
51.3440791593
  0
LINE
  5
227
100
AcDbEntity
  8
0
100
AcDbLine
 62
7
  6
BYLAYER
 10
13.4402796073
 20
46.5173764658
 11
15.1867358072
 21
48.1053632993
  0
LINE
  5
228
100
AcDbEntity
  8
0
100
AcDbLine
 62
7
  6
BYLAYER
 10
26.0428480597
 20
51.3206078134
 11
26.0627013843
 21
51.3010216437
  0
LINE
  5
229
100
AcDbEntity
  8
0
100
AcDbLine
 62
7
  6
BYLAYER
 10
26.0796517073
 20
51.3270630057
 11
26.0643452094
 21
51.3422133863
  0
LINE
  5
22A
100
AcDbEntity
  8
0
100
AcDbLine
 62
7
  6
BYLAYER
 10
19.1615343584
 20
36.5219887987
 11
18.8618747206
 21
36.1232936602
  0
LINE
  5
22B
100
AcDbEntity
  8
0
100
AcDbLine
 62
7
  6
BYLAYER
 10
61.1430364483
 20
67.5155884011
 11
61.2269057894
 21
67.5640117722
  0
LINE
  5
22C
100
AcDbEntity
  8
0
100
AcDbLine
 62
7
  6
BYLAYER
 10
61.8301634395
 20
66.305726766
 11
61.921023327
 21
66.3413051791
  0
LINE
  5
22D
100
AcDbEntity
  8
0
100
AcDbLine
 62
7
  6
BYLAYER
 10
62.5786089839
 20
66.1315450053
 11
62.3166450277
 21
66.0289666056
  0
LINE
  5
22E
100
AcDbEntity
  8
0
100
AcDbLine
 62
7
  6
BYLAYER
 10
62.375544697
 20
65.453415941
 11
62.2846848095
 21
65.4178375278
  0
LINE
  5
22F
100
AcDbEntity
  8
0
100
AcDbLine
 62
7
  6
BYLAYER
 10
60.3971479683
 20
68.6871290892
 11
60.4733884665
 21
68.7480288871
  0
LINE
  5
230
100
AcDbEntity
  8
0
100
AcDbLine
 62
7
  6
BYLAYER
 10
16.270688483
 20
37.9680502006
 11
17.372837912
 21
38.7023964621
  0
LINE
  5
231
100
AcDbEntity
  8
0
100
AcDbLine
 62
7
  6
BYLAYER
 10
61.9013250635
 20
67.3760376039
 11
61.6595159995
 21
67.236425084
  0
LINE
  5
232
100
AcDbEntity
  8
0
100
AcDbLine
 62
7
  6
BYLAYER
 10
61.7269078711
 20
66.6979875703
 11
61.64303853
 21
66.6495641992
  0
LINE
  5
233
100
AcDbEntity
  8
0
100
AcDbLine
 62
7
  6
BYLAYER
 10
59.5981746611
 20
69.8114326983
 11
59.6662060801
 21
69.8843454388
  0
LINE
  5
234
100
AcDbEntity
  8
0
100
AcDbLine
 62
7
  6
BYLAYER
 10
60.3668570769
 20
69.7487070335
 11
60.1707113392
 21
69.5384876458
  0
LINE
  5
235
100
AcDbEntity
  8
0
100
AcDbLine
 62
7
  6
BYLAYER
 10
61.1621993636
 20
68.5848248134
 11
60.9423855045
 21
68.4092407091
  0
LINE
  5
236
100
AcDbEntity
  8
0
100
AcDbLine
 62
7
  6
BYLAYER
 10
61.0150659421
 20
67.9104606886
 11
60.9388254439
 21
67.8495608908
  0
LINE
  5
237
100
AcDbEntity
  8
0
100
AcDbLine
 62
7
  6
BYLAYER
 10
9.2937420807
 20
33.4732581992
 11
16.3647804528
 21
37.5556997379
  0
LINE
  5
238
100
AcDbEntity
  8
0
100
AcDbLine
 62
7
  6
BYLAYER
 10
61.6150793901
 20
61.5568403347
 11
59.7488481739
 21
60.4793776713
  0
LINE
  5
239
100
AcDbEntity
  8
0
100
AcDbLine
 62
7
  6
BYLAYER
 10
66.8198865665
 20
64.5618192218
 11
68.6861177589
 21
65.6392818715
  0
LINE
  5
23A
100
AcDbEntity
  8
0
100
AcDbLine
 62
7
  6
BYLAYER
 10
62.9560399021
 20
64.1862177422
 11
62.8588809666
 21
64.1637550601
  0
LINE
  5
23B
100
AcDbEntity
  8
0
100
AcDbLine
 62
7
  6
BYLAYER
 10
63.1888965852
 20
64.860818358
 11
62.9087714408
 21
64.7960547619
  0
LINE
  5
23C
100
AcDbEntity
  8
0
100
AcDbLine
 62
7
  6
BYLAYER
 10
62.4532994903
 20
65.0667519614
 11
62.5504584259
 21
65.0892146435
  0
LINE
  5
23D
100
AcDbEntity
  8
0
100
AcDbLine
 62
7
  6
BYLAYER
 10
63.4639755673
 20
62.9060371174
 11
63.361257022
 21
62.896861121
  0
LINE
  5
23E
100
AcDbEntity
  8
0
100
AcDbLine
 62
7
  6
BYLAYER
 10
58.7521971959
 20
70.879942599
 11
58.8115017757
 21
70.9643133721
  0
LINE
  5
23F
100
AcDbEntity
  8
0
100
AcDbLine
 62
7
  6
BYLAYER
 10
59.5213512386
 20
70.8588264177
 11
59.3503664096
 21
70.615571643
  0
LINE
  5
240
100
AcDbEntity
  8
0
100
AcDbLine
 62
7
  6
BYLAYER
 10
59.4238767609
 20
70.2025152992
 11
59.3645721811
 21
70.1181445262
  0
LINE
  5
241
100
AcDbEntity
  8
0
100
AcDbLine
 62
7
  6
BYLAYER
 10
60.245436457
 20
69.0816076434
 11
60.177405038
 21
69.008694903
  0
LINE
  5
242
100
AcDbEntity
  8
0
100
AcDbLine
 62
7
  6
BYLAYER
 10
10.2937376038
 20
31.7412048069
 11
17.3647759759
 21
35.8236463456
  0
LINE
  5
243
100
AcDbEntity
  8
0
100
AcDbLine
 62
7
  6
BYLAYER
 10
61.9393752285
 20
60.6148444022
 11
60.0369273208
 21
59.516472147
  0
LINE
  5
244
100
AcDbEntity
  8
0
100
AcDbLine
 62
7
  6
BYLAYER
 10
67.1079656775
 20
63.5989136768
 11
69.0104136161
 21
64.6972859498
  0
LINE
  5
245
100
AcDbEntity
  8
0
100
AcDbLine
 62
7
  6
BYLAYER
 10
17.6748344524
 20
35.535983523
 11
18.8618747206
 21
36.1232936602
  0
LINE
  5
246
100
AcDbEntity
  8
0
100
AcDbLine
 62
7
  6
BYLAYER
 10
14.1377952857
 20
56.2494260209
 11
14.1238612693
 21
56.2461210995
  0
LINE
  5
247
100
AcDbEntity
  8
0
100
AcDbLine
 62
7
  6
BYLAYER
 10
63.7275432101
 20
63.573528659
 11
63.431388799
 21
63.5470727566
  0
LINE
  5
248
100
AcDbEntity
  8
0
100
AcDbLine
 62
7
  6
BYLAYER
 10
63.0077021594
 20
63.8080933338
 11
63.1104207047
 21
63.8172693302
  0
LINE
  5
249
100
AcDbEntity
  8
0
100
AcDbLine
 62
7
  6
BYLAYER
 10
63.8954859954
 20
61.6226170143
 11
63.7879895905
 21
61.6267975384
  0
LINE
  5
24A
100
AcDbEntity
  8
0
100
AcDbLine
 62
7
  6
BYLAYER
 10
64.1904494326
 20
62.2794729601
 11
63.8805196688
 21
62.2915260968
  0
LINE
  5
24B
100
AcDbEntity
  8
0
100
AcDbLine
 62
7
  6
BYLAYER
 10
63.4891521076
 20
62.5393300353
 11
63.5966478517
 21
62.5351495368
  0
LINE
  5
24C
100
AcDbEntity
  8
0
100
AcDbLine
 62
7
  6
BYLAYER
 10
56.9452921191
 20
72.8175397665
 11
56.9858588408
 21
72.9228179514
  0
LINE
  5
24D
100
AcDbEntity
  8
0
100
AcDbLine
 62
7
  6
BYLAYER
 10
57.7059209489
 20
72.8844554301
 11
57.5889604375
 21
72.5809211582
  0
LINE
  5
24E
100
AcDbEntity
  8
0
100
AcDbLine
 62
7
  6
BYLAYER
 10
57.6503246316
 20
72.2599368532
 11
57.6097579099
 21
72.1546586682
  0
LINE
  5
24F
100
AcDbEntity
  8
0
100
AcDbLine
 62
7
  6
BYLAYER
 10
57.8656539721
 20
71.8845267858
 11
57.915780369
 21
71.9797134789
  0
LINE
  5
250
100
AcDbEntity
  8
0
100
AcDbLine
 62
7
  6
BYLAYER
 10
58.6321166586
 20
71.9067342871
 11
58.4875940362
 21
71.6322954412
  0
LINE
  5
251
100
AcDbEntity
  8
0
100
AcDbLine
 62
7
  6
BYLAYER
 10
58.5566394192
 20
71.2646528719
 11
58.5065130224
 21
71.1694661788
  0
LINE
  5
252
100
AcDbEntity
  8
0
100
AcDbLine
 62
7
  6
BYLAYER
 10
28.3737580116
 20
31.564428589
 11
28.3824868911
 21
31.5728799936
  0
LINE
  5
253
100
AcDbEntity
  8
0
100
AcDbLine
 62
7
  6
BYLAYER
 10
28.3687949418
 20
31.5868744746
 11
28.3601599305
 21
31.5785729803
  0
LINE
  5
254
100
AcDbEntity
  8
0
100
AcDbLine
 62
7
  6
BYLAYER
 10
28.3116514642
 20
31.5319380954
 11
28.3030244556
 21
31.5236442947
  0
LINE
  5
255
100
AcDbEntity
  8
0
100
AcDbLine
 62
7
  6
BYLAYER
 10
64.2472871316
 20
60.3457250346
 11
64.1358309796
 21
60.363230263
  0
LINE
  5
256
100
AcDbEntity
  8
0
100
AcDbLine
 62
7
  6
BYLAYER
 10
64.574092257
 20
60.9884998067
 11
64.2527458929
 21
61.0389702508
  0
LINE
  5
257
100
AcDbEntity
  8
0
100
AcDbLine
 62
7
  6
BYLAYER
 10
63.8939852101
 20
61.2701181206
 11
64.005441362
 21
61.2526128922
  0
LINE
  5
258
100
AcDbEntity
  8
0
100
AcDbLine
 62
7
  6
BYLAYER
 10
64.5167015567
 20
59.0850790975
 11
64.4021339063
 21
59.1157758047
  0
LINE
  5
259
100
AcDbEntity
  8
0
100
AcDbLine
 62
7
  6
BYLAYER
 10
64.8755519295
 20
59.7104342839
 11
64.5452346052
 21
59.7989379249
  0
LINE
  5
25A
100
AcDbEntity
  8
0
100
AcDbLine
 62
7
  6
BYLAYER
 10
64.2191204424
 20
60.0101170589
 11
64.3336880929
 21
59.9794203517
  0
LINE
  5
25B
100
AcDbEntity
  8
0
100
AcDbLine
 62
7
  6
BYLAYER
 10
53.0684793711
 20
75.8380953486
 11
53.0684793711
 21
75.7011368795
  0
LINE
  5
25C
100
AcDbEntity
  8
0
100
AcDbLine
 62
7
  6
BYLAYER
 10
54.0523053747
 20
75.1191867416
 11
54.062642844
 21
75.2496558367
  0
LINE
  5
25D
100
AcDbEntity
  8
0
100
AcDbLine
 62
7
  6
BYLAYER
 10
54.7771389998
 20
75.325094124
 11
54.7473343803
 21
74.948930327
  0
LINE
  5
25E
100
AcDbEntity
  8
0
100
AcDbLine
 62
7
  6
BYLAYER
 10
54.7670618032
 20
74.7718056869
 11
54.7567243338
 21
74.6413365918
  0
LINE
  5
25F
100
AcDbEntity
  8
0
100
AcDbLine
 62
7
  6
BYLAYER
 10
55.0313346343
 20
74.4410476821
 11
55.0519308987
 21
74.5640344546
  0
LINE
  5
260
100
AcDbEntity
  8
0
100
AcDbLine
 62
7
  6
BYLAYER
 10
55.7710694254
 20
74.6001641382
 11
55.7116870174
 21
74.2455731044
  0
LINE
  5
261
100
AcDbEntity
  8
0
100
AcDbLine
 62
7
  6
BYLAYER
 10
55.7482980382
 20
74.0202116377
 11
55.7277017738
 21
73.8972248652
  0
LINE
  5
262
100
AcDbEntity
  8
0
100
AcDbLine
 62
7
  6
BYLAYER
 10
55.9981161461
 20
73.6718807489
 11
56.0288144555
 21
73.7864491951
  0
LINE
  5
263
100
AcDbEntity
  8
0
100
AcDbLine
 62
7
  6
BYLAYER
 10
56.7498130183
 20
73.7845487985
 11
56.661304758
 21
73.4542291798
  0
LINE
  5
264
100
AcDbEntity
  8
0
100
AcDbLine
 62
7
  6
BYLAYER
 10
56.711830001
 20
73.180792531
 11
56.6811316916
 21
73.0662240848
  0
LINE
  5
265
100
AcDbEntity
  8
0
100
AcDbLine
 62
7
  6
BYLAYER
 10
19.606649276
 20
35.8368471475
 11
21.8551180288
 21
36.5553175431
  0
LINE
  5
266
100
AcDbEntity
  8
0
100
AcDbLine
 62
7
  6
BYLAYER
 10
64.7016788644
 20
57.8502734796
 11
64.5848716445
 21
57.8939280453
  0
LINE
  5
267
100
AcDbEntity
  8
0
100
AcDbLine
 62
7
  6
BYLAYER
 10
65.0925341602
 20
58.455003242
 11
64.7557597898
 21
58.5808665137
  0
LINE
  5
268
100
AcDbEntity
  8
0
100
AcDbLine
 62
7
  6
BYLAYER
 10
64.4620833293
 20
58.7689162191
 11
64.5788905492
 21
58.7252616535
  0
LINE
  5
269
100
AcDbEntity
  8
0
100
AcDbLine
 62
7
  6
BYLAYER
 10
64.8008112656
 20
56.6507057974
 11
64.6826534497
 21
56.7069859838
  0
LINE
  5
26A
100
AcDbEntity
  8
0
100
AcDbLine
 62
7
  6
BYLAYER
 10
65.2233875831
 20
57.2317612694
 11
64.882719223
 21
57.3940262763
  0
LINE
  5
26B
100
AcDbEntity
  8
0
100
AcDbLine
 62
7
  6
BYLAYER
 10
64.6210247764
 20
57.5559618889
 11
64.7391825923
 21
57.4996817025
  0
LINE
  5
26C
100
AcDbEntity
  8
0
100
AcDbLine
 62
7
  6
BYLAYER
 10
64.8133443029
 20
55.4955054851
 11
64.6947351433
 21
55.5639829662
  0
LINE
  5
26D
100
AcDbEntity
  8
0
100
AcDbLine
 62
7
  6
BYLAYER
 10
64.6947351433
 20
56.3804853833
 11
65.2671163248
 21
56.050017976
  0
LINE
  5
26E
100
AcDbEntity
  8
0
100
AcDbLine
 62
7
  6
BYLAYER
 10
64.7391825923
 20
54.3934643148
 11
64.6210247764
 21
54.4736179354
  0
LINE
  5
26F
100
AcDbEntity
  8
0
100
AcDbLine
 62
7
  6
BYLAYER
 10
52.0873441335
 20
76.1824691039
 11
52.0770066641
 21
76.3248746104
  0
LINE
  5
270
100
AcDbEntity
  8
0
100
AcDbLine
 62
7
  6
BYLAYER
 10
52.7814256233
 20
75.9893502099
 11
52.7917630927
 21
75.8469447033
  0
LINE
  5
271
100
AcDbEntity
  8
0
100
AcDbLine
 62
7
  6
BYLAYER
 10
53.7755890963
 20
75.292896125
 11
53.7755861523
 21
75.953821601
  0
LINE
  5
272
100
AcDbEntity
  8
0
100
AcDbLine
 62
7
  6
BYLAYER
 10
28.3794627758
 20
31.5686606712
 11
28.3694664003
 21
31.5626536606
  0
LINE
  5
273
100
AcDbEntity
  8
0
100
AcDbLine
 62
7
  6
BYLAYER
 10
28.3131140622
 20
31.5294096561
 11
26.3231766148
 21
30.380486378
  0
LINE
  5
274
100
AcDbEntity
  8
0
100
AcDbLine
 62
7
  6
BYLAYER
 10
54.6193489844
 20
45.8511674842
 11
31.8953881395
 21
32.7315608868
  0
LINE
  5
275
100
AcDbEntity
  8
0
100
AcDbLine
 62
7
  6
BYLAYER
 10
28.3618740305
 20
31.557565113
 11
30.9900619404
 21
33.0748977935
  0
LINE
  5
276
100
AcDbEntity
  8
0
100
AcDbLine
 62
7
  6
BYLAYER
 10
64.6826534497
 20
55.2514327882
 11
64.8008112656
 21
55.1712791675
  0
LINE
  5
277
100
AcDbEntity
  8
0
100
AcDbLine
 62
7
  6
BYLAYER
 10
64.5788905492
 20
53.3529694851
 11
64.4620833293
 21
53.4441892279
  0
LINE
  5
278
100
AcDbEntity
  8
0
100
AcDbLine
 62
7
  6
BYLAYER
 10
64.5848716445
 20
54.1773968756
 11
64.7016788644
 21
54.0861771328
  0
LINE
  5
279
100
AcDbEntity
  8
0
100
AcDbLine
 62
7
  6
BYLAYER
 10
64.3336880929
 20
52.38193979
 11
64.2191204424
 21
52.4835314176
  0
LINE
  5
27A
100
AcDbEntity
  8
0
100
AcDbLine
 62
7
  6
BYLAYER
 10
64.4021339063
 20
53.1665517073
 11
64.5167015567
 21
53.0649600797
  0
LINE
  5
27B
100
AcDbEntity
  8
0
100
AcDbLine
 62
7
  6
BYLAYER
 10
64.005441362
 20
51.4877653517
 11
63.8939852101
 21
51.5989556906
  0
LINE
  5
27C
100
AcDbEntity
  8
0
100
AcDbLine
 62
7
  6
BYLAYER
 10
64.1358309796
 20
52.2265904254
 11
64.2472871316
 21
52.1154000866
  0
LINE
  5
27D
100
AcDbEntity
  8
0
100
AcDbLine
 62
7
  6
BYLAYER
 10
63.5966478517
 20
50.677252115
 11
63.4891521076
 21
50.7971942021
  0
LINE
  5
27E
100
AcDbEntity
  8
0
100
AcDbLine
 62
7
  6
BYLAYER
 10
63.7879895905
 20
51.3646667029
 11
63.8954859954
 21
51.2447238784
  0
LINE
  5
27F
100
AcDbEntity
  8
0
100
AcDbLine
 62
7
  6
BYLAYER
 10
63.1104207047
 20
49.9565663687
 11
63.0077021594
 21
50.0843488414
  0
LINE
  5
280
100
AcDbEntity
  8
0
100
AcDbLine
 62
7
  6
BYLAYER
 10
63.361257022
 20
50.5873402997
 11
63.4639755673
 21
50.4595578269
  0
LINE
  5
281
100
AcDbEntity
  8
0
100
AcDbLine
 62
7
  6
BYLAYER
 10
62.5504584259
 20
49.3311951728
 11
62.4532994903
 21
49.465844792
  0
LINE
  5
282
100
AcDbEntity
  8
0
100
AcDbLine
 62
7
  6
BYLAYER
 10
62.8588809666
 20
49.900527139
 11
62.9560399021
 21
49.7658775198
  0
LINE
  5
283
100
AcDbEntity
  8
0
100
AcDbLine
 62
7
  6
BYLAYER
 10
62.2918208172
 20
49.2984202398
 11
62.375544697
 21
49.168962283
  0
LINE
  5
284
100
AcDbEntity
  8
0
100
AcDbLine
 62
7
  6
BYLAYER
 10
46.6142553205
 20
76.9256314873
 11
46.5986320104
 21
76.9604156218
  0
LINE
  5
285
100
AcDbEntity
  8
0
100
AcDbLine
 62
7
  6
BYLAYER
 10
47.1778623873
 20
77.0943309199
 11
47.2458938063
 21
76.9428640404
  0
LINE
  5
286
100
AcDbEntity
  8
0
100
AcDbLine
 62
7
  6
BYLAYER
 10
47.4794962862
 20
76.9798410611
 11
47.4201917065
 21
77.1326893152
  0
LINE
  5
287
100
AcDbEntity
  8
0
100
AcDbLine
 62
7
  6
BYLAYER
 10
48.0325666917
 20
77.1873936595
 11
48.0918712715
 21
77.0345454054
  0
LINE
  5
288
100
AcDbEntity
  8
0
100
AcDbLine
 62
7
  6
BYLAYER
 10
48.337555445
 20
77.0403837555
 11
48.2874290482
 21
77.1934501166
  0
LINE
  5
289
100
AcDbEntity
  8
0
100
AcDbLine
 62
7
  6
BYLAYER
 10
48.9282880984
 20
77.168527174
 11
48.9784144952
 21
77.015460813
  0
LINE
  5
28A
100
AcDbEntity
  8
0
100
AcDbLine
 62
7
  6
BYLAYER
 10
49.2343105575
 20
76.9901160591
 11
49.1937438357
 21
77.1422355997
  0
LINE
  5
28B
100
AcDbEntity
  8
0
100
AcDbLine
 62
7
  6
BYLAYER
 10
49.8582096266
 20
77.0378750489
 11
49.8987763483
 21
76.8857555083
  0
LINE
  5
28C
100
AcDbEntity
  8
0
100
AcDbLine
 62
7
  6
BYLAYER
 10
50.1629367757
 20
76.8294205392
 11
50.1322384663
 21
76.9794355379
  0
LINE
  5
28D
100
AcDbEntity
  8
0
100
AcDbLine
 62
7
  6
BYLAYER
 10
50.8152540119
 20
76.7964316257
 11
50.8459523213
 21
76.646416627
  0
LINE
  5
28E
100
AcDbEntity
  8
0
100
AcDbLine
 62
7
  6
BYLAYER
 10
51.1163666936
 20
76.5595201859
 11
51.0957704291
 21
76.706288938
  0
LINE
  5
28F
100
AcDbEntity
  8
0
100
AcDbLine
 62
7
  6
BYLAYER
 10
51.7921375687
 20
76.4460344346
 11
51.8127338331
 21
76.2992656826
  0
LINE
  5
290
100
AcDbEntity
  8
0
100
AcDbLine
 62
7
  6
BYLAYER
 10
63.185252641
 20
49.6437090602
 11
62.2816637894
 21
48.9612004834
  0
LWPOLYLINE
  5
291
100
AcDbEntity
  8
0
100
AcDbPolyline
 62
7
  6
BYLAYER
 90
3
 70
0
 10
62.3048421921
 20
49.730738136
 10
63.2472866458
 20
50.4403133086
 10
63.3362068075
 20
50.5569580264
  0
LWPOLYLINE
  5
292
100
AcDbEntity
  8
0
100
AcDbPolyline
 62
7
  6
BYLAYER
 90
3
 70
0
 10
53.2099590464
 20
42.2815336505
 10
55.8459732525
 20
43.0952626067
 10
57.8687154214
 20
44.97135375
  0
LINE
  5
293
100
AcDbEntity
  8
0
100
AcDbLine
 62
7
  6
BYLAYER
 10
57.8687154214
 20
44.97135375
 11
59.0776508868
 21
47.6435551941
  0
LINE
  5
294
100
AcDbEntity
  8
0
100
AcDbLine
 62
7
  6
BYLAYER
 10
61.9393752439
 20
44.7872637435
 11
60.0369273054
 21
43.6888914704
  0
LINE
  5
295
100
AcDbEntity
  8
0
100
AcDbLine
 62
7
  6
BYLAYER
 10
67.107965693
 20
47.771333018
 11
69.0104136007
 21
48.8697052733
  0
LINE
  5
296
100
AcDbEntity
  8
0
100
AcDbLine
 62
7
  6
BYLAYER
 10
61.6150793647
 20
44.1779050599
 11
59.7488481962
 21
43.100442424
  0
LINE
  5
297
100
AcDbEntity
  8
0
100
AcDbLine
 62
7
  6
BYLAYER
 10
66.8198865678
 20
47.1828839623
 11
68.6861177406
 21
48.2603466007
  0
LINE
  5
298
100
AcDbEntity
  8
0
100
AcDbLine
 62
7
  6
BYLAYER
 10
46.3673548509
 20
77.1867073294
 11
49.1262872494
 21
77.6413592233
  0
LINE
  5
299
100
AcDbEntity
  8
0
100
AcDbLine
 62
7
  6
BYLAYER
 10
64.978614507
 20
52.6260341559
 11
63.7756889268
 21
50.279531266
  0
LINE
  5
29A
100
AcDbEntity
  8
0
100
AcDbLine
 62
7
  6
BYLAYER
 10
49.1262872494
 20
77.6413592233
 11
52.2751993607
 21
76.8914220457
  0
LINE
  5
29B
100
AcDbEntity
  8
0
100
AcDbLine
 62
7
  6
BYLAYER
 10
65.4464309883
 20
56.1097892507
 11
64.978614507
 21
52.6260341559
  0
LWPOLYLINE
  5
29C
100
AcDbEntity
  8
0
100
AcDbPolyline
 62
7
  6
BYLAYER
 90
7
 70
0
 10
52.2751993607
 20
76.8914220457
 10
55.5563498286
 20
74.9975009043
 10
58.7025886583
 20
72.1153124868
 10
61.4601055024
 20
68.4796518829
 10
63.6100389945
 20
64.378605469
 10
64.976453231
 20
60.143448552
 10
65.4464309883
 20
56.1097892507
  0
LWPOLYLINE
  5
29D
100
AcDbEntity
  8
0
100
AcDbPolyline
 62
7
  6
BYLAYER
 90
3
 70
0
 10
70.251193878
 20
59.9494230672
 10
70.0685607269
 20
57.7917497303
 10
69.4458848887
 20
56.137367597
  0
LINE
  5
29E
100
AcDbEntity
  8
0
100
AcDbLine
 62
7
  6
BYLAYER
 10
60.0666681552
 20
78.1013279342
 11
60.0591912292
 21
78.1054763412
  0
LINE
  5
29F
100
AcDbEntity
  8
0
100
AcDbLine
 62
7
  6
BYLAYER
 10
64.9703627541
 20
73.7804914686
 11
64.9915404288
 21
73.7548673746
  0
LINE
  5
2A0
100
AcDbEntity
  8
0
100
AcDbLine
 62
7
  6
BYLAYER
 10
64.9703627541
 20
73.7804914686
 11
64.9907706607
 21
73.753694007
  0
ARC
  5
2A1
100
AcDbEntity
  8
0
100
AcDbCircle
 62
7
  6
BYLAYER
 10
-14.034178434
 20
36.6347920958
 40
87.6579022682
100
AcDbArc
 50
18.6711799036
 51
19.3223649687
  0
ARC
  5
2A2
100
AcDbEntity
  8
0
100
AcDbCircle
 62
7
  6
BYLAYER
 10
-21.0928357837
 20
32.5566129004
 40
87.6448083097
100
AcDbArc
 50
18.671131263
 51
19.3224136149
  0
ARC
  5
2A3
100
AcDbEntity
  8
0
100
AcDbCircle
 62
7
  6
BYLAYER
 10
16.7055878734
 20
43.9204163904
 40
4.1591111616
100
AcDbArc
 50
169.2359224649
 51
169.9109843383
  0
ARC
  5
2A4
100
AcDbEntity
  8
0
100
AcDbCircle
 62
7
  6
BYLAYER
 10
18.0999948822
 20
38.2684219969
 40
1.0095323647
100
AcDbArc
 50
164.1961017054
 51
164.718042374
  0
ARC
  5
2A5
100
AcDbEntity
  8
0
100
AcDbCircle
 62
7
  6
BYLAYER
 10
15.9280175496
 20
49.5959589072
 40
6.6385051164
100
AcDbArc
 50
153.6987361737
 51
154.3266465685
  0
ARC
  5
2A6
100
AcDbEntity
  8
0
100
AcDbCircle
 62
7
  6
BYLAYER
 10
16.497890282
 20
52.1346662284
 40
4.7476599666
100
AcDbArc
 50
119.0371072423
 51
119.8373013162
  0
ARC
  5
2A7
100
AcDbEntity
  8
0
100
AcDbCircle
 62
7
  6
BYLAYER
 10
16.4243100623
 20
52.0986485154
 40
4.7420685146
100
AcDbArc
 50
119.035815402
 51
120.001818491
  0
ARC
  5
2A8
100
AcDbEntity
  8
0
100
AcDbCircle
 62
7
  6
BYLAYER
 10
26.7812993991
 20
21.1407278484
 40
66.6035572628
100
AcDbArc
 50
63.4318691712
 51
64.1191974176
  0
ARC
  5
2A9
100
AcDbEntity
  8
0
100
AcDbCircle
 62
7
  6
BYLAYER
 10
19.7853396309
 20
17.2107018465
 40
66.4336565522
100
AcDbArc
 50
63.430990258
 51
64.1200763328
  0
ARC
  5
2AA
100
AcDbEntity
  8
0
100
AcDbCircle
 62
7
  6
BYLAYER
 10
25.8129534711
 20
42.8787079454
 40
13.5198273833
100
AcDbArc
 50
237.4718023019
 51
241.8193506594
  0
ARC
  5
2AB
100
AcDbEntity
  8
0
100
AcDbCircle
 62
7
  6
BYLAYER
 10
21.1566996131
 20
44.1889785419
 40
8.6530115336
100
AcDbArc
 50
193.6122612877
 51
197.2959973329
  0
ARC
  5
2AC
100
AcDbEntity
  8
0
100
AcDbCircle
 62
7
  6
BYLAYER
 10
23.6702444141
 20
37.6061691852
 40
7.8034137951
100
AcDbArc
 50
256.9090083969
 51
261.4885485419
  0
ARC
  5
2AD
100
AcDbEntity
  8
0
100
AcDbCircle
 62
7
  6
BYLAYER
 10
25.9269178936
 20
35.6386599393
 40
4.7518281105
100
AcDbArc
 50
300.5418721578
 51
300.9321671792
  0
ARC
  5
2AE
100
AcDbEntity
  8
0
100
AcDbCircle
 62
7
  6
BYLAYER
 10
25.9276439454
 20
35.6374299512
 40
4.7503998172
100
AcDbArc
 50
300.1431379693
 51
300.5418688116
  0
ARC
  5
2AF
100
AcDbEntity
  8
0
100
AcDbCircle
 62
7
  6
BYLAYER
 10
25.9995951379
 20
35.6761177903
 40
4.7479298355
100
AcDbArc
 50
299.5560030876
 51
299.8372956236
  0
ARC
  5
2B0
100
AcDbEntity
  8
0
100
AcDbCircle
 62
7
  6
BYLAYER
 10
21.2799807895
 20
38.9146121862
 40
2.5880404516
100
AcDbArc
 50
276.7034978736
 51
283.5630038065
  0
ARC
  5
2B1
100
AcDbEntity
  8
0
100
AcDbCircle
 62
7
  6
BYLAYER
 10
37.3522978155
 20
53.2015542341
 40
27.8617179686
100
AcDbArc
 50
28.1385904214
 51
28.973679964
  0
ARC
  5
2B2
100
AcDbEntity
  8
0
100
AcDbCircle
 62
7
  6
BYLAYER
 10
37.3514517531
 20
53.2031036721
 40
27.8616759528
100
AcDbArc
 50
31.0265957916
 51
31.8616861738
  0
ARC
  5
2B3
100
AcDbEntity
  8
0
100
AcDbCircle
 62
7
  6
BYLAYER
 10
37.5194097425
 20
53.2980458246
 40
27.5719514868
100
AcDbArc
 50
28.149397214
 51
28.9628731713
  0
ARC
  5
2B4
100
AcDbEntity
  8
0
100
AcDbCircle
 62
7
  6
BYLAYER
 10
37.5185720104
 20
53.2995799588
 40
27.5719099087
100
AcDbArc
 50
31.0374025952
 51
31.8508793703
  0
ARC
  5
2B5
100
AcDbEntity
  8
0
100
AcDbCircle
 62
7
  6
BYLAYER
 10
37.691503189
 20
53.424636799
 40
27.4557943226
100
AcDbArc
 50
33.9252895398
 51
34.7684334636
  0
ARC
  5
2B6
100
AcDbEntity
  8
0
100
AcDbCircle
 62
7
  6
BYLAYER
 10
37.7413139465
 20
53.3983137579
 40
27.4257326851
100
AcDbArc
 50
25.2313858187
 51
26.0754552111
  0
ARC
  5
2B7
100
AcDbEntity
  8
0
100
AcDbCircle
 62
7
  6
BYLAYER
 10
37.8778114706
 20
53.4799979989
 40
27.1699738461
100
AcDbArc
 50
25.2427547941
 51
26.0640862357
  0
ARC
  5
2B8
100
AcDbEntity
  8
0
100
AcDbCircle
 62
7
  6
BYLAYER
 10
37.8794408573
 20
53.5354525962
 40
27.1407522756
100
AcDbArc
 50
33.9357542428
 51
34.7579687607
  0
ARC
  5
2B9
100
AcDbEntity
  8
0
100
AcDbCircle
 62
7
  6
BYLAYER
 10
38.3510959699
 20
53.9013785582
 40
26.6418683525
100
AcDbArc
 50
36.8641070452
 51
37.724232304
  0
ARC
  5
2BA
100
AcDbEntity
  8
0
100
AcDbCircle
 62
7
  6
BYLAYER
 10
38.5017095947
 20
53.7369050587
 40
26.5932774653
100
AcDbArc
 50
22.2752746712
 51
23.1369737344
  0
ARC
  5
2BB
100
AcDbEntity
  8
0
100
AcDbCircle
 62
7
  6
BYLAYER
 10
38.6129119149
 20
53.809434457
 40
26.3643503696
100
AcDbArc
 50
22.2871843468
 51
23.1250640587
  0
ARC
  5
2BC
100
AcDbEntity
  8
0
100
AcDbCircle
 62
7
  6
BYLAYER
 10
38.5457434307
 20
54.0194789112
 40
26.3171173407
100
AcDbArc
 50
36.8744789615
 51
37.7138603878
  0
ARC
  5
2BD
100
AcDbEntity
  8
0
100
AcDbCircle
 62
7
  6
BYLAYER
 10
39.27074188
 20
54.6407035917
 40
25.4617661124
100
AcDbArc
 50
39.8741024371
 51
40.7604956362
  0
ARC
  5
2BE
100
AcDbEntity
  8
0
100
AcDbCircle
 62
7
  6
BYLAYER
 10
39.6305518013
 20
54.1712756649
 40
25.3836196402
100
AcDbArc
 50
19.2383614943
 51
20.1274861833
  0
ARC
  5
2BF
100
AcDbEntity
  8
0
100
AcDbCircle
 62
7
  6
BYLAYER
 10
39.701713316
 20
54.2317902903
 40
25.1963779317
100
AcDbArc
 50
19.2512757315
 51
20.1147504339
  0
ARC
  5
2C0
100
AcDbEntity
  8
0
100
AcDbCircle
 62
7
  6
BYLAYER
 10
39.4664831408
 20
54.7634576667
 40
25.1332419952
100
AcDbArc
 50
39.8844786412
 51
40.7501194321
  0
ARC
  5
2C1
100
AcDbEntity
  8
0
100
AcDbCircle
 62
7
  6
BYLAYER
 10
32.9796565693
 20
50.6783835567
 40
24.1888887853
100
AcDbArc
 50
204.7250091069
 51
212.5503507616
  0
ARC
  5
2C2
100
AcDbEntity
  8
0
100
AcDbCircle
 62
7
  6
BYLAYER
 10
32.7003521266
 20
50.4911134351
 40
23.8527000599
100
AcDbArc
 50
212.5321517068
 51
217.3335231448
  0
ARC
  5
2C3
100
AcDbEntity
  8
0
100
AcDbCircle
 62
7
  6
BYLAYER
 10
32.1183124901
 20
50.2827720581
 40
23.2410379582
100
AcDbArc
 50
201.6979428236
 51
204.7272889457
  0
ARC
  5
2C4
100
AcDbEntity
  8
0
100
AcDbCircle
 62
7
  6
BYLAYER
 10
32.1808635295
 20
50.1067803968
 40
23.2065666422
100
AcDbArc
 50
217.3568679578
 51
217.4835616382
  0
ARC
  5
2C5
100
AcDbEntity
  8
0
100
AcDbCircle
 62
7
  6
BYLAYER
 10
30.8566721446
 20
49.0061082596
 40
21.484181425
100
AcDbArc
 50
221.758736909
 51
222.6027243022
  0
ARC
  5
2C6
100
AcDbEntity
  8
0
100
AcDbCircle
 62
7
  6
BYLAYER
 10
30.0126042049
 20
48.2198796183
 40
20.3306871792
100
AcDbArc
 50
222.5819923822
 51
227.4073714735
  0
ARC
  5
2C7
100
AcDbEntity
  8
0
100
AcDbCircle
 62
7
  6
BYLAYER
 10
27.341682973
 20
48.8674668493
 40
18.2513550728
100
AcDbArc
 50
189.7580552981
 51
192.9416777656
  0
ARC
  5
2C8
100
AcDbEntity
  8
0
100
AcDbCircle
 62
7
  6
BYLAYER
 10
20.8284100427
 20
48.4269349122
 40
11.7054396561
100
AcDbArc
 50
174.6547756212
 51
177.7448740766
  0
ARC
  5
2C9
100
AcDbEntity
  8
0
100
AcDbCircle
 62
7
  6
BYLAYER
 10
41.0517165003
 20
54.6327174093
 40
23.8892549325
100
AcDbArc
 50
16.0876562734
 51
17.0134367624
  0
ARC
  5
2CA
100
AcDbEntity
  8
0
100
AcDbCircle
 62
7
  6
BYLAYER
 10
41.1065909397
 20
54.6924009399
 40
23.7177507564
100
AcDbArc
 50
16.1010996601
 51
16.9999933757
  0
ARC
  5
2CB
100
AcDbEntity
  8
0
100
AcDbCircle
 62
7
  6
BYLAYER
 10
42.746679801
 20
55.0809950021
 40
22.1357967532
100
AcDbArc
 50
12.7847986231
 51
13.758962844
  0
ARC
  5
2CC
100
AcDbEntity
  8
0
100
AcDbCircle
 62
7
  6
BYLAYER
 10
42.7730904876
 20
55.1379818329
 40
21.9924965042
100
AcDbArc
 50
12.7992804408
 51
13.7444810263
  0
ARC
  5
2CD
100
AcDbEntity
  8
0
100
AcDbCircle
 62
7
  6
BYLAYER
 10
48.7038356673
 20
50.5771057675
 40
10.8042462519
100
AcDbArc
 50
344.1480848641
 51
344.3494570666
  0
ARC
  5
2CE
100
AcDbEntity
  8
0
100
AcDbCircle
 62
7
  6
BYLAYER
 10
45.8969239279
 20
58.1361342037
 40
24.6730667654
100
AcDbArc
 50
28.0967408778
 51
30.7272813294
  0
ARC
  5
2CF
100
AcDbEntity
  8
0
100
AcDbCircle
 62
7
  6
BYLAYER
 10
46.4263844965
 20
58.4728155329
 40
24.0459169774
100
AcDbArc
 50
30.6822822184
 51
39.4597682919
  0
ARC
  5
2D0
100
AcDbEntity
  8
0
100
AcDbCircle
 62
7
  6
BYLAYER
 10
40.3835963634
 20
55.6373119886
 40
23.9677191756
100
AcDbArc
 50
42.9884180348
 51
43.9111635223
  0
ARC
  5
2D1
100
AcDbEntity
  8
0
100
AcDbCircle
 62
7
  6
BYLAYER
 10
46.2918668426
 20
58.6243461283
 40
23.9342771852
100
AcDbArc
 50
39.2664010069
 51
39.6146423545
  0
ARC
  5
2D2
100
AcDbEntity
  8
0
100
AcDbCircle
 62
7
  6
BYLAYER
 10
46.6328042365
 20
58.5063359784
 40
23.849564785
100
AcDbArc
 50
19.9702811568
 51
28.1447803528
  0
ARC
  5
2D3
100
AcDbEntity
  8
0
100
AcDbCircle
 62
7
  6
BYLAYER
 10
40.5750599857
 20
55.7614099487
 40
23.6414791615
100
AcDbArc
 50
42.998895931
 51
43.9006856261
  0
ARC
  5
2D4
100
AcDbEntity
  8
0
100
AcDbCircle
 62
7
  6
BYLAYER
 10
47.1089125391
 20
59.0919337031
 40
23.1126114742
100
AcDbArc
 50
39.3715886969
 51
39.6147456376
  0
ARC
  5
2D5
100
AcDbEntity
  8
0
100
AcDbCircle
 62
7
  6
BYLAYER
 10
47.4976327093
 20
59.3181867342
 40
22.6815906287
100
AcDbArc
 50
39.6148029536
 51
39.8056625032
  0
ARC
  5
2D6
100
AcDbEntity
  8
0
100
AcDbCircle
 62
7
  6
BYLAYER
 10
47.7047358792
 20
59.4415930819
 40
22.5247133601
100
AcDbArc
 50
39.6147418205
 51
39.9209404561
  0
ARC
  5
2D7
100
AcDbEntity
  8
0
100
AcDbCircle
 62
7
  6
BYLAYER
 10
41.6155171681
 20
56.8704783834
 40
22.2244236988
100
AcDbArc
 50
46.24335243
 51
47.2136264318
  0
ARC
  5
2D8
100
AcDbEntity
  8
0
100
AcDbCircle
 62
7
  6
BYLAYER
 10
48.1626274076
 20
59.089499235
 40
22.2125754914
100
AcDbArc
 50
17.6720592843
 51
19.9042142772
  0
ARC
  5
2D9
100
AcDbEntity
  8
0
100
AcDbCircle
 62
7
  6
BYLAYER
 10
41.7978816642
 20
56.9921184578
 40
21.906346183
100
AcDbArc
 50
46.2540331268
 51
47.202945735
  0
ARC
  5
2DA
100
AcDbEntity
  8
0
100
AcDbCircle
 62
7
  6
BYLAYER
 10
42.8637048321
 20
58.2737907299
 40
20.3460729393
100
AcDbArc
 50
49.6797716196
 51
50.5328734783
  0
ARC
  5
2DB
100
AcDbEntity
  8
0
100
AcDbCircle
 62
7
  6
BYLAYER
 10
44.5773797625
 20
55.4534732354
 40
20.2673410873
100
AcDbArc
 50
9.4658726726
 51
10.3222987194
  0
ARC
  5
2DC
100
AcDbEntity
  8
0
100
AcDbCircle
 62
7
  6
BYLAYER
 10
44.633324859
 20
55.520426272
 40
20.0930920819
100
AcDbArc
 50
9.3039571558
 51
10.3077098257
  0
ARC
  5
2DD
100
AcDbEntity
  8
0
100
AcDbCircle
 62
7
  6
BYLAYER
 10
44.8212844973
 20
55.4944110843
 40
20.0200247828
100
AcDbArc
 50
9.28706044
 51
9.4651061678
  0
ARC
  5
2DE
100
AcDbEntity
  8
0
100
AcDbCircle
 62
7
  6
BYLAYER
 10
43.0718588434
 20
58.525260347
 40
20.0196310195
100
AcDbArc
 50
50.5353053083
 51
50.713358018
  0
ARC
  5
2DF
100
AcDbEntity
  8
0
100
AcDbCircle
 62
7
  6
BYLAYER
 10
43.059363885
 20
58.4202173177
 40
20.0006136779
100
AcDbArc
 50
49.6903844947
 51
50.698771895
  0
ARC
  5
2E0
100
AcDbEntity
  8
0
100
AcDbCircle
 62
7
  6
BYLAYER
 10
44.1055694286
 20
59.8554669482
 40
18.3347971771
100
AcDbArc
 50
53.3427615283
 51
54.2328771924
  0
ARC
  5
2E1
100
AcDbEntity
  8
0
100
AcDbCircle
 62
7
  6
BYLAYER
 10
46.6351646092
 20
55.7403489324
 40
18.1893023211
100
AcDbArc
 50
5.5505253055
 51
6.6611973851
  0
ARC
  5
2E2
100
AcDbEntity
  8
0
100
AcDbCircle
 62
7
  6
BYLAYER
 10
46.6102528905
 20
55.8002188512
 40
18.0961470358
100
AcDbArc
 50
5.5677689492
 51
6.6439537413
  0
ARC
  5
2E3
100
AcDbEntity
  8
0
100
AcDbCircle
 62
7
  6
BYLAYER
 10
44.2870223488
 20
59.9982330616
 40
18.0009761027
100
AcDbArc
 50
53.3536683006
 51
54.435535042
  0
ARC
  5
2E4
100
AcDbEntity
  8
0
100
AcDbCircle
 62
7
  6
BYLAYER
 10
44.3017556868
 20
60.1263127587
 40
18.0003637524
100
AcDbArc
 50
54.235672353
 51
54.4513406826
  0
ARC
  5
2E5
100
AcDbEntity
  8
0
100
AcDbCircle
 62
7
  6
BYLAYER
 10
48.6682591247
 20
55.8841626568
 40
16.1507531393
100
AcDbArc
 50
1.5179846205
 51
2.7203804167
  0
ARC
  5
2E6
100
AcDbEntity
  8
0
100
AcDbCircle
 62
7
  6
BYLAYER
 10
48.6225510921
 20
55.9492307431
 40
16.0779688002
100
AcDbArc
 50
1.5370122245
 51
2.7013528128
  0
ARC
  5
2E7
100
AcDbEntity
  8
0
100
AcDbCircle
 62
7
  6
BYLAYER
 10
55.6160580915
 20
55.0605551462
 40
9.1198713295
100
AcDbArc
 50
341.1592903256
 51
342.9196825971
  0
ARC
  5
2E8
100
AcDbEntity
  8
0
100
AcDbCircle
 62
7
  6
BYLAYER
 10
55.5316676289
 20
55.1576682629
 40
9.0897109005
100
AcDbArc
 50
341.1881749971
 51
342.8907979256
  0
ARC
  5
2E9
100
AcDbEntity
  8
0
100
AcDbCircle
 62
7
  6
BYLAYER
 10
56.7800238915
 20
54.6102520064
 40
7.8712502522
100
AcDbArc
 50
334.6864130185
 51
336.6282629079
  0
ARC
  5
2EA
100
AcDbEntity
  8
0
100
AcDbCircle
 62
7
  6
BYLAYER
 10
56.6966351897
 20
54.7140162029
 40
7.8425409984
100
AcDbArc
 50
334.7179548699
 51
336.5967210566
  0
ARC
  5
2EB
100
AcDbEntity
  8
0
100
AcDbCircle
 62
7
  6
BYLAYER
 10
57.6634475738
 20
54.1439249077
 40
6.8717309165
100
AcDbArc
 50
327.5771900987
 51
329.7029480567
  0
ARC
  5
2EC
100
AcDbEntity
  8
0
100
AcDbCircle
 62
7
  6
BYLAYER
 10
57.5827715423
 20
54.2529276084
 40
6.8430566823
100
AcDbArc
 50
327.6109652836
 51
329.6687467608
  0
ARC
  5
2ED
100
AcDbEntity
  8
0
100
AcDbCircle
 62
7
  6
BYLAYER
 10
58.2693877917
 20
53.7180066203
 40
6.1305817368
100
AcDbArc
 50
319.8599550814
 51
322.1531055672
  0
ARC
  5
2EE
100
AcDbEntity
  8
0
100
AcDbCircle
 62
7
  6
BYLAYER
 10
58.1962475742
 20
53.8275267071
 40
6.0960213058
100
AcDbArc
 50
319.8949841363
 51
322.1180765125
  0
ARC
  5
2EF
100
AcDbEntity
  8
0
100
AcDbCircle
 62
7
  6
BYLAYER
 10
58.5591339894
 20
54.2951279704
 40
6.0694783785
100
AcDbArc
 50
321.9472248537
 51
322.3178428876
  0
ARC
  5
2F0
100
AcDbEntity
  8
0
100
AcDbCircle
 62
7
  6
BYLAYER
 10
58.6277134908
 20
53.3851498505
 40
5.6411414052
100
AcDbArc
 50
311.634366208
 51
314.0576194514
  0
ARC
  5
2F1
100
AcDbEntity
  8
0
100
AcDbCircle
 62
7
  6
BYLAYER
 10
58.5603995668
 20
53.4939032048
 40
5.6017786811
100
AcDbArc
 50
311.7757140103
 51
314.0224340008
  0
ARC
  5
2F2
100
AcDbEntity
  8
0
100
AcDbCircle
 62
7
  6
BYLAYER
 10
55.7000428343
 20
59.9464854107
 40
14.5511452532
100
AcDbArc
 50
0.0115809908
 51
1.5798958561
  0
ARC
  5
2F3
100
AcDbEntity
  8
0
100
AcDbCircle
 62
7
  6
BYLAYER
 10
50.6520240409
 20
55.8805589406
 40
14.1665541938
100
AcDbArc
 50
357.1301606252
 51
358.4424825567
  0
ARC
  5
2F4
100
AcDbEntity
  8
0
100
AcDbCircle
 62
7
  6
BYLAYER
 10
50.5897492945
 20
55.9527055961
 40
14.1103412815
100
AcDbArc
 50
357.1512714947
 51
358.4213716872
  0
ARC
  5
2F5
100
AcDbEntity
  8
0
100
AcDbCircle
 62
7
  6
BYLAYER
 10
52.5115162191
 20
55.7298920138
 40
12.3004822641
100
AcDbArc
 50
352.3205863599
 51
353.7625924666
  0
ARC
  5
2F6
100
AcDbEntity
  8
0
100
AcDbCircle
 62
7
  6
BYLAYER
 10
52.4372833131
 20
55.8103001751
 40
12.2568460647
100
AcDbArc
 50
352.3440780885
 51
353.7391007381
  0
ARC
  5
2F7
100
AcDbEntity
  8
0
100
AcDbCircle
 62
7
  6
BYLAYER
 10
54.1826439588
 20
55.4470804604
 40
10.6050574702
100
AcDbArc
 50
347.0193975965
 51
348.6113338888
  0
ARC
  5
2F8
100
AcDbEntity
  8
0
100
AcDbCircle
 62
7
  6
BYLAYER
 10
54.1011235576
 20
55.5361085622
 40
10.5700337697
100
AcDbArc
 50
347.0455213968
 51
348.5852100885
  0
ARC
  5
2F9
100
AcDbEntity
  8
0
100
AcDbCircle
 62
7
  6
BYLAYER
 10
45.2810388043
 20
61.5794360008
 40
16.2478146184
100
AcDbArc
 50
57.2837415477
 51
58.4789443315
  0
ARC
  5
2FA
100
AcDbEntity
  8
0
100
AcDbCircle
 62
7
  6
BYLAYER
 10
52.0343052138
 20
64.0898640833
 40
16.1577461311
100
AcDbArc
 50
52.3597981822
 51
54.7548520572
  0
ARC
  5
2FB
100
AcDbEntity
  8
0
100
AcDbCircle
 62
7
  6
BYLAYER
 10
45.4163098079
 20
61.6694404829
 40
15.9836195479
100
AcDbArc
 50
57.2957408798
 51
58.4669449994
  0
ARC
  5
2FC
100
AcDbEntity
  8
0
100
AcDbCircle
 62
7
  6
BYLAYER
 10
54.7948536274
 20
60.5402284713
 40
15.4816466772
100
AcDbArc
 50
2.9661660045
 51
6.0367116548
  0
ARC
  5
2FD
100
AcDbEntity
  8
0
100
AcDbCircle
 62
7
  6
BYLAYER
 10
52.4409497119
 20
65.8440200904
 40
14.406716558
100
AcDbArc
 50
58.4392075459
 51
59.9976504823
  0
ARC
  5
2FE
100
AcDbEntity
  8
0
100
AcDbCircle
 62
7
  6
BYLAYER
 10
46.2780985449
 20
63.2992234984
 40
14.2594733088
100
AcDbArc
 50
61.5623995727
 51
62.866157907
  0
ARC
  5
2FF
100
AcDbEntity
  8
0
100
AcDbCircle
 62
7
  6
BYLAYER
 10
46.3948693702
 20
63.3713416347
 40
14.0200185885
100
AcDbArc
 50
61.5751429741
 51
62.8534145056
  0
ARC
  5
300
100
AcDbEntity
  8
0
100
AcDbCircle
 62
7
  6
BYLAYER
 10
56.2593404247
 20
60.6204429563
 40
14.0149717723
100
AcDbArc
 50
359.2360787118
 51
2.9484832565
  0
ARC
  5
301
100
AcDbEntity
  8
0
100
AcDbCircle
 62
7
  6
BYLAYER
 10
57.6103194248
 20
60.6105181578
 40
12.6639661325
100
AcDbArc
 50
356.8513221488
 51
358.7701717712
  0
ARC
  5
302
100
AcDbEntity
  8
0
100
AcDbCircle
 62
7
  6
BYLAYER
 10
53.9769442344
 20
67.1955757712
 40
12.4911984382
100
AcDbArc
 50
61.6093141282
 51
63.1080584813
  0
ARC
  5
303
100
AcDbEntity
  8
0
100
AcDbCircle
 62
7
  6
BYLAYER
 10
47.0870452981
 20
64.9880248124
 40
12.3864392695
100
AcDbArc
 50
66.2431068528
 51
67.6750917548
  0
ARC
  5
304
100
AcDbEntity
  8
0
100
AcDbCircle
 62
7
  6
BYLAYER
 10
47.1859153022
 20
65.0395338431
 40
12.1732908786
100
AcDbArc
 50
66.2568068857
 51
67.6613917218
  0
ARC
  5
305
100
AcDbEntity
  8
0
100
AcDbCircle
 62
7
  6
BYLAYER
 10
54.6382385861
 20
68.3264695359
 40
11.1810421828
100
AcDbArc
 50
60.5981292624
 51
60.9545668737
  0
ARC
  5
306
100
AcDbEntity
  8
0
100
AcDbCircle
 62
7
  6
BYLAYER
 10
47.6878536069
 20
66.5826831533
 40
10.6818205916
100
AcDbArc
 50
71.3951854037
 51
72.9756650906
  0
ARC
  5
307
100
AcDbEntity
  8
0
100
AcDbCircle
 62
7
  6
BYLAYER
 10
47.7705123464
 20
66.6117060945
 40
10.4954154996
100
AcDbArc
 50
71.4101149765
 51
72.9607355178
  0
ARC
  5
308
100
AcDbEntity
  8
0
100
AcDbCircle
 62
7
  6
BYLAYER
 10
55.158578569
 20
69.2697219841
 40
10.1037893636
100
AcDbArc
 50
60.9857455335
 51
62.3371044593
  0
ARC
  5
309
100
AcDbEntity
  8
0
100
AcDbCircle
 62
7
  6
BYLAYER
 10
48.0795520075
 20
68.0258733166
 40
9.1858477099
100
AcDbArc
 50
77.0875545259
 51
78.8352846371
  0
ARC
  5
30A
100
AcDbEntity
  8
0
100
AcDbCircle
 62
7
  6
BYLAYER
 10
48.1485999586
 20
68.0314944395
 40
9.0255779022
100
AcDbArc
 50
77.1040670167
 51
78.8187721463
  0
ARC
  5
30B
100
AcDbEntity
  8
0
100
AcDbCircle
 62
7
  6
BYLAYER
 10
48.279985016
 20
69.2696175094
 40
7.9254697512
100
AcDbArc
 50
83.3794193059
 51
85.3079651803
  0
ARC
  5
30C
100
AcDbEntity
  8
0
100
AcDbCircle
 62
7
  6
BYLAYER
 10
48.3386936964
 20
69.2519366662
 40
7.7898363191
100
AcDbArc
 50
83.3979618103
 51
85.2894226759
  0
ARC
  5
30D
100
AcDbEntity
  8
0
100
AcDbCircle
 62
7
  6
BYLAYER
 10
56.3358237703
 20
71.4971186452
 40
7.5844433523
100
AcDbArc
 50
62.4018402151
 51
62.9586122604
  0
ARC
  5
30E
100
AcDbEntity
  8
0
100
AcDbCircle
 62
7
  6
BYLAYER
 10
48.5573861855
 20
72.5088007445
 40
6.9157239791
100
AcDbArc
 50
140.9570574612
 51
142.1822170038
  0
ARC
  5
30F
100
AcDbEntity
  8
0
100
AcDbCircle
 62
7
  6
BYLAYER
 10
48.3242580935
 20
70.2781715913
 40
6.9153765958
100
AcDbArc
 50
90.3051401189
 51
92.417459953
  0
ARC
  5
310
100
AcDbEntity
  8
0
100
AcDbCircle
 62
7
  6
BYLAYER
 10
48.3762864026
 20
70.2382937322
 40
6.8022002891
100
AcDbArc
 50
90.3262374382
 51
92.3963626337
  0
ARC
  5
311
100
AcDbEntity
  8
0
100
AcDbCircle
 62
7
  6
BYLAYER
 10
48.2619741373
 20
71.0300879347
 40
6.1603848313
100
AcDbArc
 50
97.8537215444
 51
100.1357613735
  0
ARC
  5
312
100
AcDbEntity
  8
0
100
AcDbCircle
 62
7
  6
BYLAYER
 10
48.8947524999
 20
71.0735681817
 40
6.0172967479
100
AcDbArc
 50
97.7223384149
 51
99.546920084
  0
ARC
  5
313
100
AcDbEntity
  8
0
100
AcDbCircle
 62
7
  6
BYLAYER
 10
48.1576312886
 20
71.5049613118
 40
5.6738400117
100
AcDbArc
 50
105.9482898447
 51
107.3038509309
  0
ARC
  5
314
100
AcDbEntity
  8
0
100
AcDbCircle
 62
7
  6
BYLAYER
 10
48.4953941673
 20
72.1548650847
 40
5.4633277403
100
AcDbArc
 50
113.1861359432
 51
118.0070736705
  0
ARC
  5
315
100
AcDbEntity
  8
0
100
AcDbCircle
 62
7
  6
BYLAYER
 10
-7.3070935008
 20
81.2487140729
 40
78.2592537259
100
AcDbArc
 50
331.7257574953
 51
332.2311319983
  0
ARC
  5
316
100
AcDbEntity
  8
0
100
AcDbCircle
 62
7
  6
BYLAYER
 10
0.352445711
 20
85.0179601136
 40
77.592608438
100
AcDbArc
 50
331.7235864919
 51
332.2333030031
  0
ARC
  5
317
100
AcDbEntity
  8
0
100
AcDbCircle
 62
7
  6
BYLAYER
 10
120.7780886235
 20
4.4048579315
 40
108.3679703919
100
AcDbArc
 50
136.5692195245
 51
136.885888346
  0
ARC
  5
318
100
AcDbEntity
  8
0
100
AcDbCircle
 62
7
  6
BYLAYER
 10
113.0962751313
 20
0.8974274354
 40
107.5291149034
100
AcDbArc
 50
136.567984323
 51
136.8871235458
  0
ARC
  5
319
100
AcDbEntity
  8
0
100
AcDbCircle
 62
7
  6
BYLAYER
 10
147.4934508887
 20
67.3437011758
 40
106.4065612467
100
AcDbArc
 50
173.9983104006
 51
175.0571627942
  0
ARC
  5
31A
100
AcDbEntity
  8
0
100
AcDbCircle
 62
7
  6
BYLAYER
 10
119.9710856369
 20
13.982989153
 40
66.8920321668
100
AcDbArc
 50
153.6350403946
 51
154.1962319497
  0
ARC
  5
31B
100
AcDbEntity
  8
0
100
AcDbCircle
 62
7
  6
BYLAYER
 10
126.6797394444
 20
18.242838443
 40
66.4885570686
100
AcDbArc
 50
153.6333376298
 51
154.1979347129
  0
ARC
  5
31C
100
AcDbEntity
  8
0
100
AcDbCircle
 62
7
  6
BYLAYER
 10
146.1616121543
 20
85.8075379389
 40
90.0482175352
100
AcDbArc
 50
196.3362145697
 51
196.975726174
  0
ARC
  5
31D
100
AcDbEntity
  8
0
100
AcDbCircle
 62
7
  6
BYLAYER
 10
152.9926906572
 20
89.8181890226
 40
89.7977526695
100
AcDbArc
 50
196.3353226967
 51
196.9766180524
  0
ARC
  5
31E
100
AcDbEntity
  8
0
100
AcDbCircle
 62
7
  6
BYLAYER
 10
83.7697950731
 20
146.5422507717
 40
72.9490122548
100
AcDbArc
 50
245.8731836943
 51
246.5195618556
  0
ARC
  5
31F
100
AcDbEntity
  8
0
100
AcDbCircle
 62
7
  6
BYLAYER
 10
76.5403061486
 20
142.1006153247
 40
72.5564286193
100
AcDbArc
 50
245.8714349841
 51
246.5213105639
  0
SPLINE
  5
320
100
AcDbEntity
  8
0
100
AcDbSpline
 62
7
  6
BYLAYER
 70
0
 71
3
 72
15
 73
11
 74
0
 42
0.0000001
 43
0.0000001
 44
0.0000000001
 40
0.0
 40
0.0
 40
0.0
 40
0.0
 40
0.1271917768
 40
0.2560493488
 40
0.3853955332
 40
0.514070311
 40
0.6409148624
 40
0.7648334036
 40
0.8848196788
 40
1.0
 40
1.0
 40
1.0
 40
1.0
 10
65.0566310745
 20
73.8038507417
 30
0.0
 10
65.4050260962
 20
73.3829355997
 30
0.0
 10
66.075968896
 20
72.5099590893
 30
0.0
 10
66.9926515095
 20
71.1298391625
 30
0.0
 10
67.8168455283
 20
69.6851456276
 30
0.0
 10
68.5373294846
 20
68.1956349884
 30
0.0
 10
69.1443083244
 20
66.6814108962
 30
0.0
 10
69.6295308451
 20
65.1628917711
 30
0.0
 10
69.9863184453
 20
63.6606151947
 30
0.0
 10
70.1387097694
 20
62.6604292168
 30
0.0
 10
70.1906501729
 20
62.168366232
 30
0.0
  0
SPLINE
  5
321
100
AcDbEntity
  8
0
100
AcDbSpline
 62
7
  6
BYLAYER
 70
0
 71
3
 72
9
 73
5
 74
0
 42
0.0000001
 43
0.0000001
 44
0.0000000001
 40
0.0
 40
0.0
 40
0.0
 40
0.0
 40
0.2444507748
 40
1.0
 40
1.0
 40
1.0
 40
1.0
 10
60.062855901
 20
78.103975863
 30
0.0
 10
60.1719675393
 20
78.0431887682
 30
0.0
 10
60.6147478525
 20
77.7881351946
 30
0.0
 10
61.0432447856
 20
77.5084791024
 30
0.0
 10
61.3585532241
 20
77.2857406771
 30
0.0
  0
SPLINE
  5
322
100
AcDbEntity
  8
0
100
AcDbSpline
 62
7
  6
BYLAYER
 70
0
 71
3
 72
9
 73
5
 74
0
 42
0.0000001
 43
0.0000001
 44
0.0000000001
 40
0.0
 40
0.0
 40
0.0
 40
0.0
 40
0.4879157923
 40
1.0
 40
1.0
 40
1.0
 40
1.0
 10
61.9018557531
 20
76.8845585459
 30
0.0
 10
62.4552831706
 20
76.4580630164
 30
0.0
 10
63.5360429297
 20
75.5131634693
 30
0.0
 10
64.5090422553
 20
74.4587725946
 30
0.0
 10
64.9796292446
 20
73.8963767596
 30
0.0
  0
SPLINE
  5
323
100
AcDbEntity
  8
0
100
AcDbSpline
 62
7
  6
BYLAYER
 70
0
 71
3
 72
29
 73
25
 74
0
 42
0.0000001
 43
0.0000001
 44
0.0000000001
 40
0.0
 40
0.0
 40
0.0
 40
0.0
 40
0.0069257812
 40
0.0128718884
 40
0.0187647892
 40
0.0249000494
 40
0.0312502684
 40
0.0377996251
 40
0.0513115779
 40
0.0651965683
 40
0.0793796624
 40
0.0937957193
 40
0.1084016634
 40
0.1380281614
 40
0.1680923864
 40
0.1984967104
 40
0.2291770463
 40
0.2911723141
 40
0.3538502618
 40
0.4806718061
 40
0.6089448992
 40
0.7383643086
 40
0.8687306862
 40
1.0
 40
1.0
 40
1.0
 40
1.0
 10
60.9828805881
 20
77.4661345798
 30
0.0
 10
60.9850081569
 20
77.4673629249
 30
0.0
 10
60.9884022613
 20
77.4709938214
 30
0.0
 10
60.9891888786
 20
77.4779061079
 30
0.0
 10
60.9873514386
 20
77.4840781292
 30
0.0
 10
60.9846605887
 20
77.4900205936
 30
0.0
 10
60.98124305
 20
77.495859404
 30
0.0
 10
60.975818817
 20
77.5035057676
 30
0.0
 10
60.9681260798
 20
77.5127857699
 30
0.0
 10
60.958125161
 20
77.523631681
 30
0.0
 10
60.9474302439
 20
77.5342543039
 30
0.0
 10
60.9362284354
 20
77.5447160507
 30
0.0
 10
60.9206670192
 20
77.5585255137
 30
0.0
 10
60.9004902587
 20
77.5754871079
 30
0.0
 10
60.8754880492
 20
77.5953965938
 30
0.0
 10
60.8497993649
 20
77.6150326638
 30
0.0
 10
60.8146866282
 20
77.6409805488
 30
0.0
 10
60.7697619922
 20
77.6729036186
 30
0.0
 10
60.6960586559
 20
77.7231712514
 30
0.0
 10
60.6016097597
 20
77.7847157624
 30
0.0
 10
60.4859496043
 20
77.8570178121
 30
0.0
 10
60.3681147138
 20
77.9281805685
 30
0.0
 10
60.2485092945
 20
77.9984443883
 30
0.0
 10
60.1679385596
 20
78.044509501
 30
0.0
 10
60.1273722114
 20
78.0673686904
 30
0.0
  0
SPLINE
  5
324
100
AcDbEntity
  8
0
100
AcDbSpline
 62
7
  6
BYLAYER
 70
0
 71
3
 72
9
 73
5
 74
0
 42
0.0000001
 43
0.0000001
 44
0.0000000001
 40
0.0
 40
0.0
 40
0.0
 40
0.0
 40
0.248294229
 40
1.0
 40
1.0
 40
1.0
 40
1.0
 10
59.7839696036
 20
78.2524181409
 30
0.0
 10
59.7704881015
 20
78.2592977534
 30
0.0
 10
59.7161005114
 20
78.2868250892
 30
0.0
 10
59.6613186582
 20
78.3135835863
 30
0.0
 10
59.6198195497
 20
78.3330126149
 30
0.0
  0
SPLINE
  5
325
100
AcDbEntity
  8
0
100
AcDbSpline
 62
7
  6
BYLAYER
 70
0
 71
3
 72
11
 73
7
 74
0
 42
0.0000001
 43
0.0000001
 44
0.0000000001
 40
0.0
 40
0.0
 40
0.0
 40
0.0
 40
0.2438668952
 40
0.4915241304
 40
0.7434624398
 40
1.0
 40
1.0
 40
1.0
 40
1.0
 10
69.0104136007
 20
64.6972859409
 30
0.0
 10
69.0831074858
 20
64.0784859748
 30
0.0
 10
69.2146200594
 20
62.8294372701
 30
0.0
 10
69.3617456038
 20
60.9354117194
 30
0.0
 10
69.4531322267
 20
59.0054293237
 30
0.0
 10
69.4733973212
 20
57.7062252661
 30
0.0
 10
69.4733973212
 20
57.0507977872
 30
0.0
  0
SPLINE
  5
326
100
AcDbEntity
  8
0
100
AcDbSpline
 62
7
  6
BYLAYER
 70
0
 71
3
 72
10
 73
6
 74
0
 42
0.0000001
 43
0.0000001
 44
0.0000000001
 40
0.0
 40
0.0
 40
0.0
 40
0.0
 40
0.2518493172
 40
0.5024476721
 40
1.0
 40
1.0
 40
1.0
 40
1.0
 10
63.1094068023
 20
73.4529813028
 30
0.0
 10
63.6145336936
 20
72.8246005661
 30
0.0
 10
64.6031778751
 20
71.5554526216
 30
0.0
 10
66.4940832227
 20
68.9718869884
 30
0.0
 10
67.8276885263
 20
66.9809579767
 30
0.0
 10
68.6861177589
 20
65.6392818715
 30
0.0
  0
SPLINE
  5
327
100
AcDbEntity
  8
0
100
AcDbSpline
 62
7
  6
BYLAYER
 70
0
 71
3
 72
10
 73
6
 74
0
 42
0.0000001
 43
0.0000001
 44
0.0000000001
 40
0.0
 40
0.0
 40
0.0
 40
0.0
 40
0.2442241631
 40
0.4925993318
 40
1.0
 40
1.0
 40
1.0
 40
1.0
 10
69.4733973212
 20
57.0507977872
 30
0.0
 10
69.4733973212
 20
56.3834657402
 30
0.0
 10
69.4520334041
 20
55.0373701077
 30
0.0
 10
69.3281485128
 20
52.3074354975
 30
0.0
 10
69.1530718431
 20
50.2487969193
 30
0.0
 10
69.0104136007
 20
48.8697052733
 30
0.0
  0
SPLINE
  5
328
100
AcDbEntity
  8
0
100
AcDbSpline
 62
7
  6
BYLAYER
 70
0
 71
3
 72
9
 73
5
 74
0
 42
0.0000001
 43
0.0000001
 44
0.0000000001
 40
0.0
 40
0.0
 40
0.0
 40
0.0
 40
0.4887825648
 40
1.0
 40
1.0
 40
1.0
 40
1.0
 10
62.0559049141
 20
46.5429767375
 30
0.0
 10
62.8342567516
 20
46.6299300849
 30
0.0
 10
64.4243675882
 20
46.8288382038
 30
0.0
 10
66.0101214701
 20
47.0592958443
 30
0.0
 10
66.8198865715
 20
47.1828839645
 30
0.0
  0
SPLINE
  5
329
100
AcDbEntity
  8
0
100
AcDbSpline
 62
7
  6
BYLAYER
 70
0
 71
3
 72
10
 73
6
 74
0
 42
0.0000001
 43
0.0000001
 44
0.0000000001
 40
0.0
 40
0.0
 40
0.0
 40
0.0
 40
0.5016776128
 40
0.7513518284
 40
1.0
 40
1.0
 40
1.0
 40
1.0
 10
56.5705176726
 20
80.711159395
 30
0.0
 10
57.7216659051
 20
79.5510384862
 30
0.0
 10
59.4124069069
 20
77.7794728558
 30
0.0
 10
61.5653029862
 20
75.3340604389
 30
0.0
 10
62.6019045577
 20
74.0843169958
 30
0.0
 10
63.1094068023
 20
73.4529813028
 30
0.0
  0
SPLINE
  5
32A
100
AcDbEntity
  8
0
100
AcDbSpline
 62
7
  6
BYLAYER
 70
0
 71
3
 72
9
 73
5
 74
0
 42
0.0000001
 43
0.0000001
 44
0.0000000001
 40
0.0
 40
0.0
 40
0.0
 40
0.0
 40
0.521673347
 40
1.0
 40
1.0
 40
1.0
 40
1.0
 10
50.3814317496
 20
80.8013109208
 30
0.0
 10
51.330557051
 20
80.886097698
 30
0.0
 10
53.1534325548
 20
81.0129217813
 30
0.0
 10
54.9800626251
 20
81.0594663273
 30
0.0
 10
55.8537761065
 20
81.0642202269
 30
0.0
  0
SPLINE
  5
32B
100
AcDbEntity
  8
0
100
AcDbSpline
 62
7
  6
BYLAYER
 70
0
 71
3
 72
9
 73
5
 74
0
 42
0.0000001
 43
0.0000001
 44
0.0000000001
 40
0.0
 40
0.0
 40
0.0
 40
0.0
 40
0.5170824033
 40
1.0
 40
1.0
 40
1.0
 40
1.0
 10
43.9831259864
 20
80.0037978374
 30
0.0
 10
45.0820254109
 20
80.1705658231
 30
0.0
 10
47.2104786611
 20
80.4723495894
 30
0.0
 10
49.3475054194
 20
80.7089487432
 30
0.0
 10
50.3814317496
 20
80.8013109208
 30
0.0
  0
SPLINE
  5
32C
100
AcDbEntity
  8
0
100
AcDbSpline
 62
7
  6
BYLAYER
 70
0
 71
3
 72
15
 73
11
 74
0
 42
0.0000001
 43
0.0000001
 44
0.0000000001
 40
0.0
 40
0.0
 40
0.0
 40
0.0
 40
0.1108410466
 40
0.2280578212
 40
0.3507094039
 40
0.4776259749
 40
0.6074737875
 40
0.7388131822
 40
0.8701524818
 40
1.0
 40
1.0
 40
1.0
 40
1.0
 10
66.6449819724
 20
55.4178211717
 30
0.0
 10
66.6449819724
 20
56.0792230971
 30
0.0
 10
66.5657602527
 20
57.4408441772
 30
0.0
 10
66.2363660924
 20
59.5104029037
 30
0.0
 10
65.6985810415
 20
61.6348278365
 30
0.0
 10
64.9615261242
 20
63.7781003665
 30
0.0
 10
64.0376612851
 20
65.9042082183
 30
0.0
 10
62.9425685834
 20
67.9772475181
 30
0.0
 10
61.6948902855
 20
69.9620129018
 30
0.0
 10
60.7664333054
 20
71.2161124795
 30
0.0
 10
60.2809914736
 20
71.820004699
 30
0.0
  0
SPLINE
  5
32D
100
AcDbEntity
  8
0
100
AcDbSpline
 62
7
  6
BYLAYER
 70
0
 71
3
 72
17
 73
13
 74
0
 42
0.0000001
 43
0.0000001
 44
0.0000000001
 40
0.0
 40
0.0
 40
0.0
 40
0.0
 40
0.0547198864
 40
0.1092908879
 40
0.164033758
 40
0.219259376
 40
0.3322256214
 40
0.4504193658
 40
0.5754666968
 40
0.7084396333
 40
0.8499270488
 40
1.0
 40
1.0
 40
1.0
 40
1.0
 10
62.1752619872
 20
46.8148500844
 30
0.0
 10
62.3491054262
 20
46.8856493035
 30
0.0
 10
62.6900176968
 20
47.0431742177
 30
0.0
 10
63.1771452825
 20
47.3263829375
 30
0.0
 10
63.6371118435
 20
47.6549719266
 30
0.0
 10
64.2164201704
 20
48.1556173367
 30
0.0
 10
64.8686116717
 20
48.8977129154
 30
0.0
 10
65.512610948
 20
49.9420641624
 30
0.0
 10
66.0186215285
 20
51.1340312018
 30
0.0
 10
66.3820177663
 20
52.4591586017
 30
0.0
 10
66.5995891961
 20
53.9020127589
 30
0.0
 10
66.6449819724
 20
54.9030210433
 30
0.0
 10
66.6449819724
 20
55.4178211717
 30
0.0
  0
SPLINE
  5
32E
100
AcDbEntity
  8
0
100
AcDbSpline
 62
7
  6
BYLAYER
 70
0
 71
3
 72
15
 73
11
 74
0
 42
0.0000001
 43
0.0000001
 44
0.0000000001
 40
0.0
 40
0.0
 40
0.0
 40
0.0
 40
0.1289736184
 40
0.2552347805
 40
0.3794646169
 40
0.5024842468
 40
0.6251806581
 40
0.7484373936
 40
0.8731075196
 40
1.0
 40
1.0
 40
1.0
 40
1.0
 10
47.5530193934
 20
79.1683345825
 30
0.0
 10
47.3356974888
 20
79.1489208362
 30
0.0
 10
46.9070674746
 20
79.0909604843
 30
0.0
 10
46.2811292118
 20
78.9440970293
 30
0.0
 10
45.6824297995
 20
78.7386343857
 30
0.0
 10
45.1134047631
 20
78.4754020405
 30
0.0
 10
44.5762050571
 20
78.155328816
 30
0.0
 10
44.072806514
 20
77.7796747109
 30
0.0
 10
43.6051618018
 20
77.3499259797
 30
0.0
 10
43.3213464539
 20
77.0317559511
 30
0.0
 10
43.1861226631
 20
76.8650337878
 30
0.0
  0
SPLINE
  5
32F
100
AcDbEntity
  8
0
100
AcDbSpline
 62
7
  6
BYLAYER
 70
0
 71
3
 72
15
 73
11
 74
0
 42
0.0000001
 43
0.0000001
 44
0.0000000001
 40
0.0
 40
0.0
 40
0.0
 40
0.0
 40
0.1491363322
 40
0.2932607256
 40
0.4309986189
 40
0.5612444566
 40
0.6832502574
 40
0.7967301445
 40
0.9019803511
 40
1.0
 40
1.0
 40
1.0
 40
1.0
 10
60.2809914736
 20
71.820004699
 30
0.0
 10
59.8065093752
 20
72.4102630667
 30
0.0
 10
58.8278191866
 20
73.5352338933
 30
0.0
 10
57.2570300036
 20
75.0630378583
 30
0.0
 10
55.62922341
 20
76.3831976188
 30
0.0
 10
53.9714943437
 20
77.4733671115
 30
0.0
 10
52.3110307345
 20
78.3151350404
 30
0.0
 10
50.6742980803
 20
78.8937332436
 30
0.0
 10
49.0882085228
 20
79.198034657
 30
0.0
 10
48.0487946616
 20
79.2126231784
 30
0.0
 10
47.5530193934
 20
79.1683345825
 30
0.0
  0
SPLINE
  5
330
100
AcDbEntity
  8
0
100
AcDbSpline
 62
7
  6
BYLAYER
 70
0
 71
3
 72
9
 73
5
 74
0
 42
0.0000001
 43
0.0000001
 44
0.0000000001
 40
0.0
 40
0.0
 40
0.0
 40
0.0
 40
0.2532484367
 40
1.0
 40
1.0
 40
1.0
 40
1.0
 10
63.8169859577
 20
50.2272273113
 30
0.0
 10
63.7729014979
 20
50.167391343
 30
0.0
 10
63.5947609945
 20
49.9341471702
 30
0.0
 10
63.4001213025
 20
49.7134416615
 30
0.0
 10
63.2461411622
 20
49.5574987014
 30
0.0
  0
SPLINE
  5
331
100
AcDbEntity
  8
0
100
AcDbSpline
 62
7
  6
BYLAYER
 70
0
 71
3
 72
10
 73
6
 74
0
 42
0.0000001
 43
0.0000001
 44
0.0000000001
 40
0.0
 40
0.0
 40
0.0
 40
0.0
 40
0.2442241631
 40
0.4925993318
 40
1.0
 40
1.0
 40
1.0
 40
1.0
 10
66.6449819724
 20
55.4178211717
 30
0.0
 10
66.6449819724
 20
56.0851532188
 30
0.0
 10
66.6663458896
 20
57.4312488513
 30
0.0
 10
66.7902307808
 20
60.1611834615
 30
0.0
 10
66.9653074505
 20
62.2198220396
 30
0.0
 10
67.107965693
 20
63.5989136857
 30
0.0
  0
SPLINE
  5
332
100
AcDbEntity
  8
0
100
AcDbSpline
 62
7
  6
BYLAYER
 70
0
 71
3
 72
10
 73
6
 74
0
 42
0.0000001
 43
0.0000001
 44
0.0000000001
 40
0.0
 40
0.0
 40
0.0
 40
0.0
 40
0.5016775218
 40
0.7513517917
 40
1.0
 40
1.0
 40
1.0
 40
1.0
 10
66.8198865665
 20
64.5618192218
 30
0.0
 10
65.6687374343
 20
65.7219410398
 30
0.0
 10
63.9780009965
 20
67.4935139654
 30
0.0
 10
61.8250966756
 20
69.9389232287
 30
0.0
 10
60.7884941289
 20
71.1886683511
 30
0.0
 10
60.2809914065
 20
71.8200048158
 30
0.0
  0
SPLINE
  5
333
100
AcDbEntity
  8
0
100
AcDbSpline
 62
7
  6
BYLAYER
 70
0
 71
3
 72
10
 73
6
 74
0
 42
0.0000001
 43
0.0000001
 44
0.0000000001
 40
0.0
 40
0.0
 40
0.0
 40
0.0
 40
0.2518493845
 40
0.5024476491
 40
1.0
 40
1.0
 40
1.0
 40
1.0
 10
60.2809914065
 20
71.8200048158
 30
0.0
 10
59.7758649477
 20
72.4483851493
 30
0.0
 10
58.7872156225
 20
73.7175270411
 30
0.0
 10
56.8963238303
 20
76.3010987591
 30
0.0
 10
55.5627149213
 20
78.2920219223
 30
0.0
 10
54.7042865041
 20
79.633696759
 30
0.0
  0
SPLINE
  5
334
100
AcDbEntity
  8
0
100
AcDbSpline
 62
7
  6
BYLAYER
 70
0
 71
3
 72
9
 73
5
 74
0
 42
0.0000001
 43
0.0000001
 44
0.0000000001
 40
0.0
 40
0.0
 40
0.0
 40
0.0
 40
0.5170818251
 40
1.0
 40
1.0
 40
1.0
 40
1.0
 10
53.9513281429
 20
79.9658479394
 30
0.0
 10
52.8524289249
 20
79.7990799866
 30
0.0
 10
50.7239732633
 20
79.4972992339
 30
0.0
 10
48.5869448922
 20
79.2606965978
 30
0.0
 10
47.5530163539
 20
79.16833432
 30
0.0
  0
SPLINE
  5
335
100
AcDbEntity
  8
0
100
AcDbSpline
 62
7
  6
BYLAYER
 70
0
 71
3
 72
9
 73
5
 74
0
 42
0.0000001
 43
0.0000001
 44
0.0000000001
 40
0.0
 40
0.0
 40
0.0
 40
0.0
 40
0.521673212
 40
1.0
 40
1.0
 40
1.0
 40
1.0
 10
47.5530163539
 20
79.16833432
 30
0.0
 10
46.6038923524
 20
79.0835477266
 30
0.0
 10
44.781018845
 20
78.9567244696
 30
0.0
 10
42.9543908347
 20
78.9101794754
 30
0.0
 10
42.0806780826
 20
78.9054255845
 30
0.0
  0
SPLINE
  5
336
100
AcDbEntity
  8
0
100
AcDbSpline
 62
7
  6
BYLAYER
 70
0
 71
3
 72
11
 73
7
 74
0
 42
0.0000001
 43
0.0000001
 44
0.0000000001
 40
0.0
 40
0.0
 40
0.0
 40
0.0
 40
0.2438668952
 40
0.4915241304
 40
0.7434624398
 40
1.0
 40
1.0
 40
1.0
 40
1.0
 10
67.107965693
 20
47.771333018
 30
0.0
 10
67.0352718078
 20
48.3901329842
 30
0.0
 10
66.9037592343
 20
49.6391816888
 30
0.0
 10
66.7566336898
 20
51.5332072396
 30
0.0
 10
66.6652470669
 20
53.4631896352
 30
0.0
 10
66.6449819724
 20
54.7623936929
 30
0.0
 10
66.6449819724
 20
55.4178211717
 30
0.0
  0
SPLINE
  5
337
100
AcDbEntity
  8
0
100
AcDbSpline
 62
7
  6
BYLAYER
 70
0
 71
3
 72
9
 73
5
 74
0
 42
0.0000001
 43
0.0000001
 44
0.0000000001
 40
0.0
 40
0.0
 40
0.0
 40
0.0
 40
0.253338571
 40
1.0
 40
1.0
 40
1.0
 40
1.0
 10
34.5990855768
 20
74.386894598
 30
0.0
 10
34.5486949041
 20
73.9069253228
 30
0.0
 10
34.3616517184
 20
72.0111735021
 30
0.0
 10
34.2286561769
 20
70.1096855063
 30
0.0
 10
34.1719793774
 20
68.6884332558
 30
0.0
  0
SPLINE
  5
338
100
AcDbEntity
  8
0
100
AcDbSpline
 62
7
  6
BYLAYER
 70
0
 71
3
 72
9
 73
5
 74
0
 42
0.0000001
 43
0.0000001
 44
0.0000000001
 40
0.0
 40
0.0
 40
0.0
 40
0.0
 40
0.4792599429
 40
1.0
 40
1.0
 40
1.0
 40
1.0
 10
47.9832398483
 20
42.0204167067
 30
0.0
 10
48.819403741
 20
42.0280769366
 30
0.0
 10
50.5639846161
 20
42.0779133278
 30
0.0
 10
52.3049904761
 20
42.2006914697
 30
0.0
 10
53.2099590666
 20
42.2815336622
 30
0.0
  0
SPLINE
  5
339
100
AcDbEntity
  8
0
100
AcDbSpline
 62
7
  6
BYLAYER
 70
0
 71
3
 72
9
 73
5
 74
0
 42
0.0000001
 43
0.0000001
 44
0.0000000001
 40
0.0
 40
0.0
 40
0.0
 40
0.0
 40
0.5170818264
 40
1.0
 40
1.0
 40
1.0
 40
1.0
 10
36.9120876076
 20
75.9213562949
 30
0.0
 10
38.0109857846
 20
76.0881240916
 30
0.0
 10
40.1394394041
 20
76.3899047123
 30
0.0
 10
42.2764657478
 20
76.6265070997
 30
0.0
 10
43.3103932939
 20
76.7188693755
 30
0.0
  0
SPLINE
  5
33A
100
AcDbEntity
  8
0
100
AcDbSpline
 62
7
  6
BYLAYER
 70
0
 71
3
 72
9
 73
5
 74
0
 42
0.0000001
 43
0.0000001
 44
0.0000000001
 40
0.0
 40
0.0
 40
0.0
 40
0.0
 40
0.5216732059
 40
1.0
 40
1.0
 40
1.0
 40
1.0
 10
43.3103932939
 20
76.7188693755
 30
0.0
 10
44.2595183421
 20
76.8036561419
 30
0.0
 10
46.0823938958
 20
76.9304795137
 30
0.0
 10
47.9090239502
 20
76.9770247658
 30
0.0
 10
48.782737694
 20
76.9817786649
 30
0.0
  0
SPLINE
  5
33B
100
AcDbEntity
  8
0
100
AcDbSpline
 62
7
  6
BYLAYER
 70
0
 71
3
 72
10
 73
6
 74
0
 42
0.0000001
 43
0.0000001
 44
0.0000000001
 40
0.0
 40
0.0
 40
0.0
 40
0.0
 40
0.5016775205
 40
0.7513518
 40
1.0
 40
1.0
 40
1.0
 40
1.0
 10
49.4994792974
 20
76.6287178544
 30
0.0
 10
50.6506272821
 20
75.4685971958
 30
0.0
 10
52.3413616264
 20
73.6970256602
 30
0.0
 10
54.4942655023
 20
71.2516203014
 30
0.0
 10
55.530866069
 20
70.0018756239
 30
0.0
 10
56.0383683465
 20
69.3705398713
 30
0.0
  0
SPLINE
  5
33C
100
AcDbEntity
  8
0
100
AcDbSpline
 62
7
  6
BYLAYER
 70
0
 71
3
 72
10
 73
6
 74
0
 42
0.0000001
 43
0.0000001
 44
0.0000000001
 40
0.0
 40
0.0
 40
0.0
 40
0.0
 40
0.2518493708
 40
0.5024476483
 40
1.0
 40
1.0
 40
1.0
 40
1.0
 10
56.0383683465
 20
69.3705398713
 30
0.0
 10
56.5434953667
 20
68.7421589973
 30
0.0
 10
57.5321447034
 20
67.4730150594
 30
0.0
 10
59.4230402208
 20
64.8894420713
 30
0.0
 10
60.7566500796
 20
62.8985165199
 30
0.0
 10
61.6150793697
 20
61.5568403229
 30
0.0
  0
SPLINE
  5
33D
100
AcDbEntity
  8
0
100
AcDbSpline
 62
7
  6
BYLAYER
 70
0
 71
3
 72
11
 73
7
 74
0
 42
0.0000001
 43
0.0000001
 44
0.0000000001
 40
0.0
 40
0.0
 40
0.0
 40
0.0
 40
0.2438668952
 40
0.4915241304
 40
0.7434624398
 40
1.0
 40
1.0
 40
1.0
 40
1.0
 10
61.9393752285
 20
60.6148444022
 30
0.0
 10
62.0120691136
 20
59.9960444361
 30
0.0
 10
62.1435816872
 20
58.7469957314
 30
0.0
 10
62.2907072317
 20
56.8529701807
 30
0.0
 10
62.3820938546
 20
54.922987785
 30
0.0
 10
62.4023589491
 20
53.6237837274
 30
0.0
 10
62.4023589491
 20
52.9683562485
 30
0.0
  0
SPLINE
  5
33E
100
AcDbEntity
  8
0
100
AcDbSpline
 62
7
  6
BYLAYER
 70
0
 71
3
 72
9
 73
5
 74
0
 42
0.0000001
 43
0.0000001
 44
0.0000000001
 40
0.0
 40
0.0
 40
0.0
 40
0.0
 40
0.4826824781
 40
1.0
 40
1.0
 40
1.0
 40
1.0
 10
53.2099590666
 20
42.2815336622
 30
0.0
 10
54.2661686276
 20
42.375886434
 30
0.0
 10
56.4502261043
 20
42.6187033635
 30
0.0
 10
58.6253519726
 20
42.9289719741
 30
0.0
 10
59.7488481962
 20
43.100442424
 30
0.0
  0
SPLINE
  5
33F
100
AcDbEntity
  8
0
100
AcDbSpline
 62
7
  6
BYLAYER
 70
0
 71
3
 72
10
 73
6
 74
0
 42
0.0000001
 43
0.0000001
 44
0.0000000001
 40
0.0
 40
0.0
 40
0.0
 40
0.0
 40
0.2442241631
 40
0.4925993318
 40
1.0
 40
1.0
 40
1.0
 40
1.0
 10
62.4023589491
 20
52.9683562485
 30
0.0
 10
62.4023589491
 20
52.3010242015
 30
0.0
 10
62.3809950319
 20
50.954928569
 30
0.0
 10
62.2571101406
 20
48.2249939588
 30
0.0
 10
62.082033471
 20
46.1663553806
 30
0.0
 10
61.9393752285
 20
44.7872637346
 30
0.0
  0
SPLINE
  5
340
100
AcDbEntity
  8
0
100
AcDbSpline
 62
7
  6
BYLAYER
 70
0
 71
3
 72
9
 73
5
 74
0
 42
0.0000001
 43
0.0000001
 44
0.0000000001
 40
0.0
 40
0.0
 40
0.0
 40
0.0
 40
0.5170819149
 40
1.0
 40
1.0
 40
1.0
 40
1.0
 10
46.8802897303
 20
75.8834063773
 30
0.0
 10
45.781390342
 20
75.7166384001
 30
0.0
 10
43.6529347964
 20
75.4148570707
 30
0.0
 10
41.5159063944
 20
75.1782550616
 30
0.0
 10
40.4819780689
 20
75.0858927899
 30
0.0
  0
SPLINE
  5
341
100
AcDbEntity
  8
0
100
AcDbSpline
 62
7
  6
BYLAYER
 70
0
 71
3
 72
10
 73
6
 74
0
 42
0.0000001
 43
0.0000001
 44
0.0000000001
 40
0.0
 40
0.0
 40
0.0
 40
0.0
 40
0.2518493595
 40
0.5024476983
 40
1.0
 40
1.0
 40
1.0
 40
1.0
 10
53.2099531216
 20
67.7375631719
 30
0.0
 10
52.7048267051
 20
68.3659434714
 30
0.0
 10
51.7161785679
 20
69.6350864772
 30
0.0
 10
49.825278067
 20
72.2186520133
 30
0.0
 10
48.4916764899
 20
74.2095804701
 30
0.0
 10
47.6332481288
 20
75.5512552185
 30
0.0
  0
SPLINE
  5
342
100
AcDbEntity
  8
0
100
AcDbSpline
 62
7
  6
BYLAYER
 70
0
 71
3
 72
9
 73
5
 74
0
 42
0.0000001
 43
0.0000001
 44
0.0000000001
 40
0.0
 40
0.0
 40
0.0
 40
0.0
 40
0.5216738855
 40
1.0
 40
1.0
 40
1.0
 40
1.0
 10
40.4819780689
 20
75.0858927899
 30
0.0
 10
39.5328528111
 20
75.0011060939
 30
0.0
 10
37.7099794556
 20
74.8742790992
 30
0.0
 10
35.8833512535
 20
74.8277379267
 30
0.0
 10
35.0096397038
 20
74.8229840419
 30
0.0
  0
SPLINE
  5
343
100
AcDbEntity
  8
0
100
AcDbSpline
 62
7
  6
BYLAYER
 70
0
 71
3
 72
10
 73
6
 74
0
 42
0.0000001
 43
0.0000001
 44
0.0000000001
 40
0.0
 40
0.0
 40
0.0
 40
0.0
 40
0.5016775296
 40
0.7513517379
 40
1.0
 40
1.0
 40
1.0
 40
1.0
 10
59.7488481773
 20
60.4793776732
 30
0.0
 10
58.5976990514
 20
61.6394994864
 30
0.0
 10
56.9069584966
 20
63.4110684648
 30
0.0
 10
54.754063413
 20
65.8564856829
 30
0.0
 10
53.7174559544
 20
67.1062265928
 30
0.0
 10
53.2099531216
 20
67.7375631719
 30
0.0
  0
SPLINE
  5
344
100
AcDbEntity
  8
0
100
AcDbSpline
 62
7
  6
BYLAYER
 70
0
 71
3
 72
10
 73
6
 74
0
 42
0.0000001
 43
0.0000001
 44
0.0000000001
 40
0.0
 40
0.0
 40
0.0
 40
0.0
 40
0.2442241631
 40
0.4925993318
 40
1.0
 40
1.0
 40
1.0
 40
1.0
 10
59.5739436002
 20
51.335379633
 30
0.0
 10
59.5739436002
 20
52.0027116801
 30
0.0
 10
59.5953075174
 20
53.3488073125
 30
0.0
 10
59.7191924087
 20
56.0787419228
 30
0.0
 10
59.8942690783
 20
58.1373805009
 30
0.0
 10
60.0369273208
 20
59.516472147
 30
0.0
  0
SPLINE
  5
345
100
AcDbEntity
  8
0
100
AcDbSpline
 62
7
  6
BYLAYER
 70
0
 71
3
 72
15
 73
11
 74
0
 42
0.0000001
 43
0.0000001
 44
0.0000000001
 40
0.0
 40
0.0
 40
0.0
 40
0.0
 40
0.1491363322
 40
0.2932607256
 40
0.4309986189
 40
0.5612444566
 40
0.6832502574
 40
0.7967301445
 40
0.9019803511
 40
1.0
 40
1.0
 40
1.0
 40
1.0
 10
53.2099531014
 20
67.7375631602
 30
0.0
 10
52.7354709798
 20
68.3278215093
 30
0.0
 10
51.7567808249
 20
69.452792363
 30
0.0
 10
50.1859916289
 20
70.9805963174
 30
0.0
 10
48.5581850385
 20
72.3007560809
 30
0.0
 10
46.9004559715
 20
73.3909255718
 30
0.0
 10
45.2399923622
 20
74.2326935045
 30
0.0
 10
43.603259709
 20
74.8112916956
 30
0.0
 10
42.0171701478
 20
75.1155931494
 30
0.0
 10
40.977756295
 20
75.1301815774
 30
0.0
 10
40.4819810213
 20
75.0858930438
 30
0.0
  0
SPLINE
  5
346
100
AcDbEntity
  8
0
100
AcDbSpline
 62
7
  6
BYLAYER
 70
0
 71
3
 72
15
 73
11
 74
0
 42
0.0000001
 43
0.0000001
 44
0.0000000001
 40
0.0
 40
0.0
 40
0.0
 40
0.0
 40
0.1214977242
 40
0.2393439369
 40
0.3559133541
 40
0.4737685985
 40
0.5953083997
 40
0.7225805659
 40
0.8571403581
 40
1.0
 40
1.0
 40
1.0
 40
1.0
 10
40.4819810213
 20
75.0858930438
 30
0.0
 10
40.1050275197
 20
75.0522190885
 30
0.0
 10
39.3659124442
 20
74.9271430131
 30
0.0
 10
38.3160864359
 20
74.5534469518
 30
0.0
 10
37.3608138191
 20
74.0010306298
 30
0.0
 10
36.5129253722
 20
73.2773751043
 30
0.0
 10
35.782504039
 20
72.3923658535
 30
0.0
 10
35.1771048131
 20
71.3576274574
 30
0.0
 10
34.7022948734
 20
70.1858387373
 30
0.0
 10
34.4821666454
 20
69.3476858904
 30
0.0
 10
34.3929644381
 20
68.9117230802
 30
0.0
  0
SPLINE
  5
347
100
AcDbEntity
  8
0
100
AcDbSpline
 62
7
  6
BYLAYER
 70
0
 71
3
 72
11
 73
7
 74
0
 42
0.0000001
 43
0.0000001
 44
0.0000000001
 40
0.0
 40
0.0
 40
0.0
 40
0.0
 40
0.2667712491
 40
0.5217107544
 40
0.7657365388
 40
1.0
 40
1.0
 40
1.0
 40
1.0
 10
49.4771344174
 20
42.7850827373
 30
0.0
 10
49.7969833324
 20
42.6784533935
 30
0.0
 10
50.4316272036
 20
42.4959084125
 30
0.0
 10
51.3841133637
 20
42.3162287125
 30
0.0
 10
52.3091980268
 20
42.2384116937
 30
0.0
 10
52.9150633227
 20
42.2551900634
 30
0.0
 10
53.2099590464
 20
42.2815336505
 30
0.0
  0
SPLINE
  5
348
100
AcDbEntity
  8
0
100
AcDbSpline
 62
7
  6
BYLAYER
 70
0
 71
3
 72
11
 73
7
 74
0
 42
0.0000001
 43
0.0000001
 44
0.0000000001
 40
0.0
 40
0.0
 40
0.0
 40
0.0
 40
0.2438668952
 40
0.4915241304
 40
0.7434624398
 40
1.0
 40
1.0
 40
1.0
 40
1.0
 10
60.0369273208
 20
43.6888914793
 30
0.0
 10
59.9642334357
 20
44.3076914454
 30
0.0
 10
59.8327208621
 20
45.5567401501
 30
0.0
 10
59.6855953176
 20
47.4507657008
 30
0.0
 10
59.5942086947
 20
49.3807480965
 30
0.0
 10
59.5739436002
 20
50.6799521542
 30
0.0
 10
59.5739436002
 20
51.335379633
 30
0.0
  0
SPLINE
  5
349
100
AcDbEntity
  8
0
100
AcDbSpline
 62
7
  6
BYLAYER
 70
0
 71
3
 72
9
 73
5
 74
0
 42
0.0000001
 43
0.0000001
 44
0.0000000001
 40
0.0
 40
0.0
 40
0.0
 40
0.0
 40
0.4811712871
 40
1.0
 40
1.0
 40
1.0
 40
1.0
 10
59.1075141327
 20
47.6624511635
 30
0.0
 10
59.2680836696
 20
48.2355908924
 30
0.0
 10
59.5042159873
 20
49.4551150152
 30
0.0
 10
59.5739436002
 20
50.6935902257
 30
0.0
 10
59.5739436002
 20
51.335379633
 30
0.0
  0
SPLINE
  5
34A
100
AcDbEntity
  8
0
100
AcDbSpline
 62
7
  6
BYLAYER
 70
0
 71
3
 72
15
 73
11
 74
0
 42
0.0000001
 43
0.0000001
 44
0.0000000001
 40
0.0
 40
0.0
 40
0.0
 40
0.0
 40
0.1108410466
 40
0.2280578212
 40
0.3507094039
 40
0.4776259749
 40
0.6074737875
 40
0.7388131822
 40
0.8701524818
 40
1.0
 40
1.0
 40
1.0
 40
1.0
 10
59.5739436002
 20
51.335379633
 30
0.0
 10
59.5739436002
 20
51.9967815584
 30
0.0
 10
59.4947218806
 20
53.3584026385
 30
0.0
 10
59.1653277203
 20
55.427961365
 30
0.0
 10
58.6275426694
 20
57.5523862978
 30
0.0
 10
57.8904877518
 20
59.6956588276
 30
0.0
 10
56.9666229139
 20
61.8217666804
 30
0.0
 10
55.8715302076
 20
63.8948059764
 30
0.0
 10
54.6238519272
 20
65.8795713742
 30
0.0
 10
53.6953949039
 20
67.1336709171
 30
0.0
 10
53.2099531014
 20
67.7375631602
 30
0.0
  0
SPLINE
  5
34B
100
AcDbEntity
  8
0
100
AcDbSpline
 62
7
  6
BYLAYER
 70
0
 71
3
 72
11
 73
7
 74
0
 42
0.0000001
 43
0.0000001
 44
0.0000000001
 40
0.0
 40
0.0
 40
0.0
 40
0.0
 40
0.2325822561
 40
0.4780071663
 40
0.7345870136
 40
1.0
 40
1.0
 40
1.0
 40
1.0
 10
59.9983624793
 20
78.1161802553
 30
0.0
 10
60.4383929519
 20
77.8621336117
 30
0.0
 10
61.3141917108
 20
77.2894521725
 30
0.0
 10
62.5688958644
 20
76.2856150015
 30
0.0
 10
63.7835674546
 20
75.1273222894
 30
0.0
 10
64.54398468
 20
74.275715082
 30
0.0
 10
64.9136936018
 20
73.8290494477
 30
0.0
  0
SPLINE
  5
34C
100
AcDbEntity
  8
0
100
AcDbSpline
 62
7
  6
BYLAYER
 70
0
 71
3
 72
23
 73
19
 74
0
 42
0.0000001
 43
0.0000001
 44
0.0000000001
 40
0.0
 40
0.0
 40
0.0
 40
0.0
 40
0.0737019874
 40
0.1483966079
 40
0.223387618
 40
0.2980362241
 40
0.3716803542
 40
0.4436946735
 40
0.5135000884
 40
0.580580278
 40
0.6445094203
 40
0.7049771718
 40
0.761816583
 40
0.8150378148
 40
0.8648666054
 40
0.9117758791
 40
0.9564983964
 40
1.0
 40
1.0
 40
1.0
 40
1.0
 10
26.0089413236
 20
51.2862385903
 30
0.0
 10
26.3520482231
 20
50.8717123187
 30
0.0
 10
27.0135069586
 20
50.0123259144
 30
0.0
 10
27.9194061871
 20
48.6546979637
 30
0.0
 10
28.7365212216
 20
47.2337938426
 30
0.0
 10
29.454076577
 20
45.768648206
 30
0.0
 10
30.0626167669
 20
44.2783587727
 30
0.0
 10
30.5541470334
 20
42.7825804398
 30
0.0
 10
30.922232578
 20
41.3009395054
 30
0.0
 10
31.1619614506
 20
39.8528124481
 30
0.0
 10
31.2701172458
 20
38.4570785776
 30
0.0
 10
31.245150482
 20
37.1318143908
 30
0.0
 10
31.0870325844
 20
35.8940842016
 30
0.0
 10
30.7970972415
 20
34.7598208803
 30
0.0
 10
30.3781011215
 20
33.7438594867
 30
0.0
 10
29.8339662664
 20
32.8600419575
 30
0.0
 10
29.1709479201
 20
32.1219218122
 30
0.0
 10
28.6514978758
 20
31.7325862843
 30
0.0
 10
28.3794627758
 20
31.5686606712
 30
0.0
  0
SPLINE
  5
34D
100
AcDbEntity
  8
0
100
AcDbSpline
 62
7
  6
BYLAYER
 70
0
 71
3
 72
11
 73
7
 74
0
 42
0.0000001
 43
0.0000001
 44
0.0000000001
 40
0.0
 40
0.0
 40
0.0
 40
0.0
 40
0.2431484298
 40
0.4891300573
 40
0.7406227496
 40
1.0
 40
1.0
 40
1.0
 40
1.0
 10
16.8954595739
 20
58.7123543561
 30
0.0
 10
16.7030373957
 20
58.6012463308
 30
0.0
 10
16.330446779
 20
58.3515212641
 30
0.0
 10
15.8214508697
 20
57.9026552258
 30
0.0
 10
15.3640408436
 20
57.3815566074
 30
0.0
 10
15.0998719143
 20
56.9951378046
 30
0.0
 10
14.9771396673
 20
56.792360715
 30
0.0
  0
SPLINE
  5
34E
100
AcDbEntity
  8
0
100
AcDbSpline
 62
7
  6
BYLAYER
 70
0
 71
3
 72
9
 73
5
 74
0
 42
0.0000001
 43
0.0000001
 44
0.0000000001
 40
0.0
 40
0.0
 40
0.0
 40
0.0
 40
0.243050797
 40
1.0
 40
1.0
 40
1.0
 40
1.0
 10
58.1614231679
 20
79.0564046292
 30
0.0
 10
58.2854229429
 20
79.0050380283
 30
0.0
 10
58.7918134575
 20
78.7846004361
 30
0.0
 10
59.2828153426
 20
78.5293054653
 30
0.0
 10
59.6448196098
 20
78.3203072174
 30
0.0
  0
SPLINE
  5
34F
100
AcDbEntity
  8
0
100
AcDbSpline
 62
7
  6
BYLAYER
 70
0
 71
3
 72
11
 73
7
 74
0
 42
0.0000001
 43
0.0000001
 44
0.0000000001
 40
0.0
 40
0.0
 40
0.0
 40
0.0
 40
0.2177239861
 40
0.4508730345
 40
0.7104683317
 40
1.0
 40
1.0
 40
1.0
 40
1.0
 10
9.2937638648
 20
33.4732203232
 30
0.0
 10
9.2607860566
 20
33.4541823832
 30
0.0
 10
9.1990312975
 20
33.4023592011
 30
0.0
 10
9.1333147748
 20
33.2948850236
 30
0.0
 10
9.0943631134
 20
33.1624674306
 30
0.0
 10
9.0866301171
 20
33.0661095704
 30
0.0
 10
9.0866301171
 20
33.0154722576
 30
0.0
  0
SPLINE
  5
350
100
AcDbEntity
  8
0
100
AcDbSpline
 62
7
  6
BYLAYER
 70
0
 71
3
 72
11
 73
7
 74
0
 42
0.0000001
 43
0.0000001
 44
0.0000000001
 40
0.0
 40
0.0
 40
0.0
 40
0.0
 40
0.2655031353
 40
0.5180015041
 40
0.7607472572
 40
1.0
 40
1.0
 40
1.0
 40
1.0
 10
15.9571679673
 20
37.3567481615
 30
0.0
 10
15.9617841288
 20
37.4194238434
 30
0.0
 10
15.9805106094
 20
37.541338174
 30
0.0
 10
16.0418602114
 20
37.7120253051
 30
0.0
 10
16.1372226919
 20
37.8594321961
 30
0.0
 10
16.2235596115
 20
37.9366489135
 30
0.0
 10
16.270688483
 20
37.9680502006
 30
0.0
  0
SPLINE
  5
351
100
AcDbEntity
  8
0
100
AcDbSpline
 62
7
  6
BYLAYER
 70
0
 71
3
 72
17
 73
13
 74
0
 42
0.0000001
 43
0.0000001
 44
0.0000000001
 40
0.0
 40
0.0
 40
0.0
 40
0.0
 40
0.1286846513
 40
0.2703032228
 40
0.4174430309
 40
0.5617811216
 40
0.695448235
 40
0.8127121431
 40
0.8646788239
 40
0.9125086207
 40
0.9571391214
 40
1.0
 40
1.0
 40
1.0
 40
1.0
 10
9.0866301171
 20
33.0154722576
 30
0.0
 10
9.0866301171
 20
32.9300007606
 30
0.0
 10
9.1105598418
 20
32.7502654405
 30
0.0
 10
9.1997870157
 20
32.4863678704
 30
0.0
 10
9.3373464152
 20
32.2321732336
 30
0.0
 10
9.5120785927
 20
32.0085053202
 30
0.0
 10
9.7097740562
 20
31.8334183592
 30
0.0
 10
9.8887178445
 20
31.7356118472
 30
0.0
 10
10.0286819536
 20
31.6983200434
 30
0.0
 10
10.1250178794
 20
31.6912823574
 30
0.0
 10
10.214734978
 20
31.7043689201
 30
0.0
 10
10.2690612991
 20
31.7270097393
 30
0.0
 10
10.2937158197
 20
31.7412426829
 30
0.0
  0
SPLINE
  5
352
100
AcDbEntity
  8
0
100
AcDbSpline
 62
7
  6
BYLAYER
 70
0
 71
3
 72
11
 73
7
 74
0
 42
0.0000001
 43
0.0000001
 44
0.0000000001
 40
0.0
 40
0.0
 40
0.0
 40
0.0
 40
0.2391146281
 40
0.48170578
 40
0.7342129456
 40
1.0
 40
1.0
 40
1.0
 40
1.0
 10
17.6748344524
 20
35.535983523
 30
0.0
 10
17.6237400018
 20
35.5107035982
 30
0.0
 10
17.512916972
 20
35.4744154434
 30
0.0
 10
17.3363480848
 20
35.4658867918
 30
0.0
 10
17.1566423451
 20
35.4989922671
 30
0.0
 10
17.040999779
 20
35.54457817
 30
0.0
 10
16.9840610396
 20
35.5723832498
 30
0.0
  0
SPLINE
  5
353
100
AcDbEntity
  8
0
100
AcDbSpline
 62
7
  6
BYLAYER
 70
0
 71
3
 72
15
 73
11
 74
0
 42
0.0000001
 43
0.0000001
 44
0.0000000001
 40
0.0
 40
0.0
 40
0.0
 40
0.0
 40
0.1295142322
 40
0.2607173497
 40
0.3920522799
 40
0.5219977173
 40
0.6490551761
 40
0.7718466636
 40
0.8891540521
 40
1.0
 40
1.0
 40
1.0
 40
1.0
 10
64.9760757635
 20
73.7533554443
 30
0.0
 10
65.3774377529
 20
73.2642367903
 30
0.0
 10
66.1456227651
 20
72.2463144157
 30
0.0
 10
67.1785223827
 20
70.6312991713
 30
0.0
 10
68.0861374647
 20
68.9401624022
 30
0.0
 10
68.8526281108
 20
67.2026406696
 30
0.0
 10
69.464598544
 20
65.4488850181
 30
0.0
 10
69.9114150669
 20
63.7093456239
 30
0.0
 10
70.1852446866
 20
62.0144283201
 30
0.0
 10
70.2511588756
 20
60.8991850381
 30
0.0
 10
70.251177371
 20
60.3576699236
 30
0.0
  0
SPLINE
  5
354
100
AcDbEntity
  8
0
100
AcDbSpline
 62
7
  6
BYLAYER
 70
0
 71
3
 72
10
 73
6
 74
0
 42
0.0000001
 43
0.0000001
 44
0.0000000001
 40
0.0
 40
0.0
 40
0.0
 40
0.0
 40
0.5109190381
 40
0.7597475212
 40
1.0
 40
1.0
 40
1.0
 40
1.0
 10
13.6270460337
 20
39.8026280789
 30
0.0
 10
13.9056847168
 20
39.2917413557
 30
0.0
 10
14.3832020032
 20
38.5636194455
 30
0.0
 10
15.1252863651
 20
37.6983105884
 30
0.0
 10
15.5255065166
 20
37.3093010139
 30
0.0
 10
15.731136574
 20
37.1287517905
 30
0.0
  0
SPLINE
  5
355
100
AcDbEntity
  8
0
100
AcDbSpline
 62
7
  6
BYLAYER
 70
0
 71
3
 72
10
 73
6
 74
0
 42
0.0000001
 43
0.0000001
 44
0.0000000001
 40
0.0
 40
0.0
 40
0.0
 40
0.0
 40
0.5160077057
 40
0.7611157718
 40
1.0
 40
1.0
 40
1.0
 40
1.0
 10
18.2210945272
 20
35.7845424073
 30
0.0
 10
18.4571554836
 20
35.7375509512
 30
0.0
 10
18.8149368554
 20
35.7034490805
 30
0.0
 10
19.2801113233
 20
35.7499101987
 30
0.0
 10
19.5005083564
 20
35.8029311287
 30
0.0
 10
19.606649276
 20
35.8368471475
 30
0.0
  0
SPLINE
  5
356
100
AcDbEntity
  8
0
100
AcDbSpline
 62
7
  6
BYLAYER
 70
0
 71
3
 72
16
 73
12
 74
0
 42
0.0000001
 43
0.0000001
 44
0.0000000001
 40
0.0
 40
0.0
 40
0.0
 40
0.0
 40
0.0473420237
 40
0.0959458815
 40
0.198365653
 40
0.3099585822
 40
0.4317360659
 40
0.5633790944
 40
0.7034836023
 40
0.8499307393
 40
1.0
 40
1.0
 40
1.0
 40
1.0
 10
13.4402796073
 20
46.5173764658
 30
0.0
 10
13.3566830926
 20
46.441365304
 30
0.0
 10
13.1985122549
 20
46.2744883185
 30
0.0
 10
12.9226039816
 20
45.8882560135
 30
0.0
 10
12.6623812786
 20
45.3108342855
 30
0.0
 10
12.494361263
 20
44.5225262045
 30
0.0
 10
12.4623168245
 20
43.6482941331
 30
0.0
 10
12.56409494
 20
42.7118501858
 30
0.0
 10
12.7950113969
 20
41.7384766935
 30
0.0
 10
13.1478299243
 20
40.7559443086
 30
0.0
 10
13.4555544415
 20
40.1170595734
 30
0.0
 10
13.6270460337
 20
39.8026280789
 30
0.0
  0
SPLINE
  5
357
100
AcDbEntity
  8
0
100
AcDbSpline
 62
7
  6
BYLAYER
 70
0
 71
3
 72
11
 73
7
 74
0
 42
0.0000001
 43
0.0000001
 44
0.0000000001
 40
0.0
 40
0.0
 40
0.0
 40
0.0
 40
0.2587017311
 40
0.5100736276
 40
0.7563464749
 40
1.0
 40
1.0
 40
1.0
 40
1.0
 10
29.3900664639
 20
32.0337554746
 30
0.0
 10
29.6162604726
 20
32.0425919971
 30
0.0
 10
30.0617696059
 20
32.084007116
 30
0.0
 10
30.710612763
 20
32.2220363314
 30
0.0
 10
31.3252730622
 20
32.4342679778
 30
0.0
 10
31.7107533313
 20
32.6249593161
 30
0.0
 10
31.8953838582
 20
32.7315683019
 30
0.0
  0
SPLINE
  5
358
100
AcDbEntity
  8
0
100
AcDbSpline
 62
7
  6
BYLAYER
 70
0
 71
3
 72
22
 73
18
 74
0
 42
0.0000001
 43
0.0000001
 44
0.0000000001
 40
0.0
 40
0.0
 40
0.0
 40
0.0
 40
0.1495955971
 40
0.2246891632
 40
0.2991425297
 40
0.3723524823
 40
0.4437562528
 40
0.5128420848
 40
0.5791707087
 40
0.6423955187
 40
0.7022870524
 40
0.7587613034
 40
0.8119052653
 40
0.8620032715
 40
0.9095536523
 40
0.9552618409
 40
1.0
 40
1.0
 40
1.0
 40
1.0
 10
13.7103277004
 20
35.9946712184
 30
0.0
 10
13.0719256055
 20
36.8317739255
 30
0.0
 10
12.1958981495
 20
38.1552790473
 30
0.0
 10
11.2075722289
 20
40.0150926075
 30
0.0
 10
10.5630021941
 20
41.445421416
 30
0.0
 10
10.0244257443
 20
42.8911807246
 30
0.0
 10
9.5984515133
 20
44.3348176228
 30
0.0
 10
9.2903885111
 20
45.7587456897
 30
0.0
 10
9.1041488694
 20
47.1458019943
 30
0.0
 10
9.0423328548
 20
48.4794271359
 30
0.0
 10
9.1062561739
 20
49.743864671
 30
0.0
 10
9.2960140198
 20
50.9242710616
 30
0.0
 10
9.6107607589
 20
52.0066710055
 30
0.0
 10
10.0486623882
 20
52.9776155181
 30
0.0
 10
10.606701183
 20
53.8238701632
 30
0.0
 10
11.2791218957
 20
54.5317623848
 30
0.0
 10
11.8005820071
 20
54.9048287552
 30
0.0
 10
12.0732404103
 20
55.0622472181
 30
0.0
  0
SPLINE
  5
359
100
AcDbEntity
  8
0
100
AcDbSpline
 62
7
  6
BYLAYER
 70
0
 71
3
 72
18
 73
14
 74
0
 42
0.0000001
 43
0.0000001
 44
0.0000000001
 40
0.0
 40
0.0
 40
0.0
 40
0.0
 40
0.047459026
 40
0.0955823143
 40
0.1449221188
 40
0.1959593439
 40
0.2490915007
 40
0.3046173713
 40
0.4234816373
 40
0.5533422605
 40
0.6937119336
 40
0.8432507367
 40
1.0
 40
1.0
 40
1.0
 40
1.0
 10
14.1227174832
 20
56.2447171831
 30
0.0
 10
14.3143086044
 20
56.3510744767
 30
0.0
 10
14.7156186718
 20
56.5386506925
 30
0.0
 10
15.3565467999
 20
56.7374716159
 30
0.0
 10
16.0342542251
 20
56.8534343154
 30
0.0
 10
16.7439496576
 20
56.8862604309
 30
0.0
 10
17.4810909877
 20
56.8358298862
 30
0.0
 10
18.5175228251
 20
56.6545698128
 30
0.0
 10
19.8588834068
 20
56.2106764921
 30
0.0
 10
21.4593516532
 20
55.3816311
 30
0.0
 10
23.0503820908
 20
54.2657977844
 30
0.0
 10
24.5931677943
 20
52.891269662
 30
0.0
 10
25.547456129
 20
51.8437841755
 30
0.0
 10
26.0089413236
 20
51.2862385903
 30
0.0
  0
SPLINE
  5
35A
100
AcDbEntity
  8
0
100
AcDbSpline
 62
7
  6
BYLAYER
 70
0
 71
3
 72
11
 73
7
 74
0
 42
0.0000001
 43
0.0000001
 44
0.0000000001
 40
0.0
 40
0.0
 40
0.0
 40
0.0
 40
0.2341465182
 40
0.4799712612
 40
0.7359531837
 40
1.0
 40
1.0
 40
1.0
 40
1.0
 10
59.9814675996
 20
78.1197714713
 30
0.0
 10
60.4063625706
 20
77.858863657
 30
0.0
 10
61.250839278
 20
77.2799799267
 30
0.0
 10
62.4620226004
 20
76.2827206686
 30
0.0
 10
63.6347211664
 20
75.1470711047
 30
0.0
 10
64.3711229946
 20
74.3184909928
 30
0.0
 10
64.7296449136
 20
73.8853409904
 30
0.0
  0
SPLINE
  5
35B
100
AcDbEntity
  8
0
100
AcDbSpline
 62
7
  6
BYLAYER
 70
0
 71
3
 72
17
 73
13
 74
0
 42
0.0000001
 43
0.0000001
 44
0.0000000001
 40
0.0
 40
0.0
 40
0.0
 40
0.0
 40
0.0428570455
 40
0.087485165
 40
0.1353123244
 40
0.1872781392
 40
0.3045378316
 40
0.4381995438
 40
0.5825378192
 40
0.7296849502
 40
0.8713141218
 40
1.0
 40
1.0
 40
1.0
 40
1.0
 10
16.3648009922
 20
37.5556641134
 30
0.0
 10
16.3894524976
 20
37.5698971846
 30
0.0
 10
16.4437756337
 20
37.5925358915
 30
0.0
 10
16.5334863775
 20
37.6056207024
 30
0.0
 10
16.6298189735
 20
37.5985907847
 30
0.0
 10
16.7697779239
 20
37.5612981919
 30
0.0
 10
16.9487188243
 20
37.4635032605
 30
0.0
 10
17.1464137022
 20
37.2884240102
 30
0.0
 10
17.3211506352
 20
37.0647584994
 30
0.0
 10
17.4587230959
 20
36.810556988
 30
0.0
 10
17.5479559496
 20
36.5466475858
 30
0.0
 10
17.5718879395
 20
36.3669045945
 30
0.0
 10
17.5718879395
 20
36.2814322873
 30
0.0
  0
SPLINE
  5
35C
100
AcDbEntity
  8
0
100
AcDbSpline
 62
7
  6
BYLAYER
 70
0
 71
3
 72
17
 73
13
 74
0
 42
0.0000001
 43
0.0000001
 44
0.0000000001
 40
0.0
 40
0.0
 40
0.0
 40
0.0
 40
0.1592523666
 40
0.3104502793
 40
0.451325073
 40
0.5804947347
 40
0.6976991683
 40
0.8042319247
 40
0.8545190836
 40
0.9034670134
 40
0.9517281913
 40
1.0
 40
1.0
 40
1.0
 40
1.0
 10
18.8341738832
 20
44.4676404892
 30
0.0
 10
18.6248381839
 20
44.7205504337
 30
0.0
 10
18.1911894322
 20
45.193226958
 30
0.0
 10
17.4874928499
 20
45.805155911
 30
0.0
 10
16.7629251468
 20
46.288745481
 30
0.0
 10
16.037240594
 20
46.6299589184
 30
0.0
 10
15.3298034911
 20
46.8182630852
 30
0.0
 10
14.7590795775
 20
46.8406060441
 30
0.0
 10
14.339278582
 20
46.7716550882
 30
0.0
 10
14.0481110363
 20
46.6803067318
 30
0.0
 10
13.7772496051
 20
46.5490944892
 30
0.0
 10
13.6123755253
 20
46.4361097354
 30
0.0
 10
13.5346132858
 20
46.3740115874
 30
0.0
  0
SPLINE
  5
35D
100
AcDbEntity
  8
0
100
AcDbSpline
 62
7
  6
BYLAYER
 70
0
 71
3
 72
11
 73
7
 74
0
 42
0.0000001
 43
0.0000001
 44
0.0000000001
 40
0.0
 40
0.0
 40
0.0
 40
0.0
 40
0.2289914815
 40
0.4690767862
 40
0.7250265504
 40
1.0
 40
1.0
 40
1.0
 40
1.0
 10
13.5346132858
 20
46.3740115874
 30
0.0
 10
13.4183954961
 20
46.28120421
 30
0.0
 10
13.2006091382
 20
46.0643967419
 30
0.0
 10
12.9388250187
 20
45.6697273051
 30
0.0
 10
12.7394592731
 20
45.2078867538
 30
0.0
 10
12.6530162588
 20
44.8726434432
 30
0.0
 10
12.6196581891
 20
44.6971945241
 30
0.0
  0
SPLINE
  5
35E
100
AcDbEntity
  8
0
100
AcDbSpline
 62
7
  6
BYLAYER
 70
0
 71
3
 72
9
 73
5
 74
0
 42
0.0000001
 43
0.0000001
 44
0.0000000001
 40
0.0
 40
0.0
 40
0.0
 40
0.0
 40
0.2409048466
 40
1.0
 40
1.0
 40
1.0
 40
1.0
 10
12.6107899547
 20
44.6490010862
 30
0.0
 10
12.5986550513
 20
44.5808077269
 30
0.0
 10
12.5552911081
 20
44.2965045111
 30
0.0
 10
12.5387159963
 20
44.0083565039
 30
0.0
 10
12.5387159963
 20
43.7901024837
 30
0.0
  0
SPLINE
  5
35F
100
AcDbEntity
  8
0
100
AcDbSpline
 62
7
  6
BYLAYER
 70
0
 71
3
 72
9
 73
5
 74
0
 42
0.0000001
 43
0.0000001
 44
0.0000000001
 40
0.0
 40
0.0
 40
0.0
 40
0.0
 40
0.2520647791
 40
1.0
 40
1.0
 40
1.0
 40
1.0
 10
19.926902679
 20
42.8499307748
 30
0.0
 10
19.8482973369
 20
42.9940544306
 30
0.0
 10
19.5229659297
 20
43.5583367595
 30
0.0
 10
19.1447721572
 20
44.0923896719
 30
0.0
 10
18.8341738832
 20
44.4676404892
 30
0.0
  0
SPLINE
  5
360
100
AcDbEntity
  8
0
100
AcDbSpline
 62
7
  6
BYLAYER
 70
0
 71
3
 72
11
 73
7
 74
0
 42
0.0000001
 43
0.0000001
 44
0.0000000001
 40
0.0
 40
0.0
 40
0.0
 40
0.0
 40
0.2573662237
 40
0.5122323418
 40
0.760826004
 40
1.0
 40
1.0
 40
1.0
 40
1.0
 10
13.661208253
 20
39.8167425749
 30
0.0
 10
13.8018213982
 20
39.5589270118
 30
0.0
 10
14.1035299691
 20
39.0573817736
 30
0.0
 10
14.6129317316
 20
38.3531190263
 30
0.0
 10
15.1685649872
 20
37.7118914029
 30
0.0
 10
15.5714188502
 20
37.3263288081
 30
0.0
 10
15.7782088345
 20
37.1482343062
 30
0.0
  0
SPLINE
  5
361
100
AcDbEntity
  8
0
100
AcDbSpline
 62
7
  6
BYLAYER
 70
0
 71
3
 72
9
 73
5
 74
0
 42
0.0000001
 43
0.0000001
 44
0.0000000001
 40
0.0
 40
0.0
 40
0.0
 40
0.0
 40
0.2567120869
 40
1.0
 40
1.0
 40
1.0
 40
1.0
 10
18.4054544755
 20
35.8553013462
 30
0.0
 10
18.4495826931
 20
35.8506763472
 30
0.0
 10
18.6218463842
 20
35.8365078662
 30
0.0
 10
18.7955402732
 20
35.8382594994
 30
0.0
 10
18.9234924971
 20
35.8497745316
 30
0.0
  0
SPLINE
  5
362
100
AcDbEntity
  8
0
100
AcDbSpline
 62
7
  6
BYLAYER
 70
0
 71
3
 72
9
 73
5
 74
0
 42
0.0000001
 43
0.0000001
 44
0.0000000001
 40
0.0
 40
0.0
 40
0.0
 40
0.0
 40
0.5073829419
 40
1.0
 40
1.0
 40
1.0
 40
1.0
 10
18.9234924971
 20
35.8497745316
 30
0.0
 10
19.0402353169
 20
35.860280776
 30
0.0
 10
19.2692099843
 20
35.8978605893
 30
0.0
 10
19.4894010136
 20
35.9715711379
 30
0.0
 10
19.5938936452
 20
36.0166545228
 30
0.0
  0
SPLINE
  5
363
100
AcDbEntity
  8
0
100
AcDbSpline
 62
7
  6
BYLAYER
 70
0
 71
3
 72
18
 73
14
 74
0
 42
0.0000001
 43
0.0000001
 44
0.0000000001
 40
0.0
 40
0.0
 40
0.0
 40
0.0
 40
0.0458164925
 40
0.0919279993
 40
0.1392092478
 40
0.1884270881
 40
0.2401943787
 40
0.2949405125
 40
0.4140922876
 40
0.5463595774
 40
0.6901493024
 40
0.8425867783
 40
1.0
 40
1.0
 40
1.0
 40
1.0
 10
19.5938936452
 20
36.0166545228
 30
0.0
 10
19.6999565228
 20
36.0624153909
 30
0.0
 10
19.9053029727
 20
36.1728141166
 30
0.0
 10
20.1823783753
 20
36.390926741
 30
0.0
 10
20.4247318598
 20
36.6587087482
 30
0.0
 10
20.6300254144
 20
36.9727643071
 30
0.0
 10
20.7963719671
 20
37.3297563154
 30
0.0
 10
20.9694199719
 20
37.8731139795
 30
0.0
 10
21.0731927571
 20
38.6441254927
 30
0.0
 10
21.0271419112
 20
39.6435038982
 30
0.0
 10
20.8173956178
 20
40.7068865506
 30
0.0
 10
20.4523073089
 20
41.7936615481
 30
0.0
 10
20.1169324766
 20
42.5015093013
 30
0.0
 10
19.926902679
 20
42.8499307748
 30
0.0
  0
SPLINE
  5
364
100
AcDbEntity
  8
0
100
AcDbSpline
 62
7
  6
BYLAYER
 70
0
 71
3
 72
9
 73
5
 74
0
 42
0.0000001
 43
0.0000001
 44
0.0000000001
 40
0.0
 40
0.0
 40
0.0
 40
0.0
 40
0.4838000188
 40
1.0
 40
1.0
 40
1.0
 40
1.0
 10
12.5387159963
 20
43.7901024837
 30
0.0
 10
12.5387159963
 20
43.5234247073
 30
0.0
 10
12.5773474559
 20
42.9718644804
 30
0.0
 10
12.6798412467
 20
42.4290509186
 30
0.0
 10
12.7467454802
 20
42.1524913497
 30
0.0
  0
SPLINE
  5
365
100
AcDbEntity
  8
0
100
AcDbSpline
 62
7
  6
BYLAYER
 70
0
 71
3
 72
9
 73
5
 74
0
 42
0.0000001
 43
0.0000001
 44
0.0000000001
 40
0.0
 40
0.0
 40
0.0
 40
0.0
 40
0.4943084716
 40
1.0
 40
1.0
 40
1.0
 40
1.0
 10
12.8949636611
 20
41.616367483
 30
0.0
 10
12.9906983391
 20
41.3082221427
 30
0.0
 10
13.2175881628
 20
40.6947939479
 30
0.0
 10
13.5031485436
 20
40.1065465823
 30
0.0
 10
13.661208253
 20
39.8167425749
 30
0.0
  0
SPLINE
  5
366
100
AcDbEntity
  8
0
100
AcDbSpline
 62
7
  6
BYLAYER
 70
0
 71
3
 72
11
 73
7
 74
0
 42
0.0000001
 43
0.0000001
 44
0.0000000001
 40
0.0
 40
0.0
 40
0.0
 40
0.0
 40
0.273815883
 40
0.5241121849
 40
0.7612914289
 40
1.0
 40
1.0
 40
1.0
 40
1.0
 10
19.4318126641
 20
36.4778190282
 30
0.0
 10
19.4140307024
 20
36.4127408779
 30
0.0
 10
19.367522945
 20
36.2908856956
 30
0.0
 10
19.2574313993
 20
36.1360747828
 30
0.0
 10
19.1128967061
 20
36.0258130004
 30
0.0
 10
19.0000354137
 20
35.9868128085
 30
0.0
 10
18.942294073
 20
35.9756317902
 30
0.0
  0
SPLINE
  5
367
100
AcDbEntity
  8
0
100
AcDbSpline
 62
7
  6
BYLAYER
 70
0
 71
3
 72
9
 73
5
 74
0
 42
0.0000001
 43
0.0000001
 44
0.0000000001
 40
0.0
 40
0.0
 40
0.0
 40
0.0
 40
0.2457810136
 40
1.0
 40
1.0
 40
1.0
 40
1.0
 10
18.942294073
 20
35.9756317902
 30
0.0
 10
18.9330624832
 20
35.9738441876
 30
0.0
 10
18.8953425287
 20
35.9674108709
 30
0.0
 10
18.8570656339
 20
35.9643366943
 30
0.0
 10
18.828216627
 20
35.9637557235
 30
0.0
  0
SPLINE
  5
368
100
AcDbEntity
  8
0
100
AcDbSpline
 62
7
  6
BYLAYER
 70
0
 71
3
 72
9
 73
5
 74
0
 42
0.0000001
 43
0.0000001
 44
0.0000000001
 40
0.0
 40
0.0
 40
0.0
 40
0.0
 40
0.2431258446
 40
1.0
 40
1.0
 40
1.0
 40
1.0
 10
18.828216627
 20
35.9637557235
 30
0.0
 10
18.8155470372
 20
35.9635005791
 30
0.0
 10
18.7634120018
 20
35.9638177887
 30
0.0
 10
18.7113525045
 20
35.9694619211
 30
0.0
 10
18.6724897603
 20
35.9762414465
 30
0.0
  0
SPLINE
  5
369
100
AcDbEntity
  8
0
100
AcDbSpline
 62
7
  6
BYLAYER
 70
0
 71
3
 72
9
 73
5
 74
0
 42
0.0000001
 43
0.0000001
 44
0.0000000001
 40
0.0
 40
0.0
 40
0.0
 40
0.0
 40
0.2638470851
 40
1.0
 40
1.0
 40
1.0
 40
1.0
 10
17.1286233801
 20
38.5433638095
 30
0.0
 10
17.1356304642
 20
38.5681190497
 30
0.0
 10
17.1657368683
 20
38.6608361425
 30
0.0
 10
17.2111372582
 20
38.7490894266
 30
0.0
 10
17.2538290037
 20
38.806796869
 30
0.0
  0
SPLINE
  5
36A
100
AcDbEntity
  8
0
100
AcDbSpline
 62
7
  6
BYLAYER
 70
0
 71
3
 72
22
 73
18
 74
0
 42
0.0000001
 43
0.0000001
 44
0.0000000001
 40
0.0
 40
0.0
 40
0.0
 40
0.0
 40
0.0452381677
 40
0.0894328857
 40
0.1353575278
 40
0.1852829846
 40
0.212241574
 40
0.2406276584
 40
0.3016677107
 40
0.368145575
 40
0.4391861443
 40
0.5895137217
 40
0.7407158004
 40
0.8127910418
 40
0.8805963166
 40
0.9431978312
 40
1.0
 40
1.0
 40
1.0
 40
1.0
 10
17.2538290037
 20
38.806796869
 30
0.0
 10
17.2892845063
 20
38.8547229106
 30
0.0
 10
17.37299907
 20
38.940606565
 30
0.0
 10
17.533633952
 20
39.0246264226
 30
0.0
 10
17.7180176483
 20
39.0568184442
 30
0.0
 10
17.880770699
 20
39.0411439465
 30
0.0
 10
18.0151490905
 20
39.0060371801
 30
0.0
 10
18.1591916934
 20
38.9526789714
 30
0.0
 10
18.34127221
 20
38.8553700561
 30
0.0
 10
18.5521391427
 20
38.6991462749
 30
0.0
 10
18.826648299
 20
38.4361619055
 30
0.0
 10
19.1209804934
 20
38.0383473963
 30
0.0
 10
19.3311475265
 20
37.5889394257
 30
0.0
 10
19.4343365474
 20
37.2187011047
 30
0.0
 10
19.4742406483
 20
36.9540610142
 30
0.0
 10
19.4765101462
 20
36.7065105119
 30
0.0
 10
19.4515426787
 20
36.5500266322
 30
0.0
 10
19.4318126641
 20
36.4778190282
 30
0.0
  0
SPLINE
  5
36B
100
AcDbEntity
  8
0
100
AcDbSpline
 62
7
  6
BYLAYER
 70
0
 71
3
 72
23
 73
19
 74
0
 42
0.0000001
 43
0.0000001
 44
0.0000000001
 40
0.0
 40
0.0
 40
0.0
 40
0.0
 40
0.0738383392
 40
0.1486725296
 40
0.2237975382
 40
0.2985659881
 40
0.3723078206
 40
0.4443888126
 40
0.5142235647
 40
0.5812930499
 40
0.6451702255
 40
0.7055469736
 40
0.7622633463
 40
0.815342079
 40
0.8650274776
 40
0.9118180837
 40
0.9564770308
 40
1.0
 40
1.0
 40
1.0
 40
1.0
 10
28.695935905
 20
52.837566375
 30
0.0
 10
29.0410656646
 20
52.4205961752
 30
0.0
 10
29.7062582537
 20
51.5559877486
 30
0.0
 10
30.6166865346
 20
50.189828024
 30
0.0
 10
31.4371615141
 20
48.7598758575
 30
0.0
 10
32.1567453266
 20
47.2855011437
 30
0.0
 10
32.7658348009
 20
45.7861463756
 30
0.0
 10
33.2563430154
 20
44.2818263493
 30
0.0
 10
33.6217623674
 20
42.7925060856
 30
0.0
 10
33.8571786579
 20
41.3378818277
 30
0.0
 10
33.9593791481
 20
39.9371190665
 30
0.0
 10
33.9268636066
 20
38.6085611167
 30
0.0
 10
33.7596878575
 20
37.3695037573
 30
0.0
 10
33.4592947407
 20
36.2360791729
 30
0.0
 10
33.0285324448
 20
35.2233210804
 30
0.0
 10
32.4714943908
 20
34.3452747416
 30
0.0
 10
31.7947254349
 20
33.6156877234
 30
0.0
 10
31.2663525497
 20
33.2344423517
 30
0.0
 10
30.9900578732
 20
33.0749048378
 30
0.0
  0
SPLINE
  5
36C
100
AcDbEntity
  8
0
100
AcDbSpline
 62
7
  6
BYLAYER
 70
0
 71
3
 72
9
 73
5
 74
0
 42
0.0000001
 43
0.0000001
 44
0.0000000001
 40
0.0
 40
0.0
 40
0.0
 40
0.0
 40
0.2640592506
 40
1.0
 40
1.0
 40
1.0
 40
1.0
 10
19.1986073838
 20
36.8204796412
 30
0.0
 10
19.1986073838
 20
36.7939624549
 30
0.0
 10
19.1957685711
 20
36.6936002525
 30
0.0
 10
19.1810138581
 20
36.5932795725
 30
0.0
 10
19.1615343584
 20
36.5219887987
 30
0.0
  0
SPLINE
  5
36D
100
AcDbEntity
  8
0
100
AcDbSpline
 62
7
  6
BYLAYER
 70
0
 71
3
 72
9
 73
5
 74
0
 42
0.0000001
 43
0.0000001
 44
0.0000000001
 40
0.0
 40
0.0
 40
0.0
 40
0.0
 40
0.2372406965
 40
1.0
 40
1.0
 40
1.0
 40
1.0
 10
17.9923697941
 20
36.1934225329
 30
0.0
 10
17.9923697941
 20
36.225789512
 30
0.0
 10
17.9873641353
 20
36.3622102334
 30
0.0
 10
17.9638338622
 20
36.4976483901
 30
0.0
 10
17.9381614349
 20
36.5984960048
 30
0.0
  0
SPLINE
  5
36E
100
AcDbEntity
  8
0
100
AcDbSpline
 62
7
  6
BYLAYER
 70
0
 71
3
 72
11
 73
7
 74
0
 42
0.0000001
 43
0.0000001
 44
0.0000000001
 40
0.0
 40
0.0
 40
0.0
 40
0.0
 40
0.2177239861
 40
0.4508730345
 40
0.7104683317
 40
1.0
 40
1.0
 40
1.0
 40
1.0
 10
10.2937158197
 20
31.7412426829
 30
0.0
 10
10.3266936279
 20
31.7602806229
 30
0.0
 10
10.388448387
 20
31.812103805
 30
0.0
 10
10.4541649097
 20
31.9195779825
 30
0.0
 10
10.4931165711
 20
32.0519955755
 30
0.0
 10
10.5008495674
 20
32.1483534357
 30
0.0
 10
10.5008495674
 20
32.1989907485
 30
0.0
  0
SPLINE
  5
36F
100
AcDbEntity
  8
0
100
AcDbSpline
 62
7
  6
BYLAYER
 70
0
 71
3
 72
18
 73
14
 74
0
 42
0.0000001
 43
0.0000001
 44
0.0000000001
 40
0.0
 40
0.0
 40
0.0
 40
0.0
 40
0.1439031642
 40
0.2927597343
 40
0.4400148377
 40
0.5794292902
 40
0.7058534894
 40
0.7632923464
 40
0.8166845506
 40
0.8662934885
 40
0.9126943067
 40
0.9568469788
 40
1.0
 40
1.0
 40
1.0
 40
1.0
 10
17.9381614349
 20
36.5984960048
 30
0.0
 10
17.9094975861
 20
36.7110946591
 30
0.0
 10
17.8311606306
 20
36.9353802282
 30
0.0
 10
17.6647686092
 20
37.2506128982
 30
0.0
 10
17.4561562714
 20
37.5354077385
 30
0.0
 10
17.2187043523
 20
37.7716347978
 30
0.0
 10
17.001802899
 20
37.9205812103
 30
0.0
 10
16.8267603242
 20
37.9995634485
 30
0.0
 10
16.7021402305
 20
38.0365620311
 30
0.0
 10
16.5820220304
 20
38.052679052
 30
0.0
 10
16.4682719933
 20
38.0471547018
 30
0.0
 10
16.3629749843
 20
38.0199753203
 30
0.0
 10
16.2996914283
 20
37.9873569492
 30
0.0
 10
16.2707018168
 20
37.9680282121
 30
0.0
  0
SPLINE
  5
370
100
AcDbEntity
  8
0
100
AcDbSpline
 62
7
  6
BYLAYER
 70
0
 71
3
 72
16
 73
12
 74
0
 42
0.0000001
 43
0.0000001
 44
0.0000000001
 40
0.0
 40
0.0
 40
0.0
 40
0.0
 40
0.1425070587
 40
0.2899720534
 40
0.4362522193
 40
0.5755074775
 40
0.7027670083
 40
0.8150067338
 40
0.9123605951
 40
0.956945923
 40
1.0
 40
1.0
 40
1.0
 40
1.0
 10
17.6706192005
 20
36.5450787303
 30
0.0
 10
17.6467826008
 20
36.6387147623
 30
0.0
 10
17.5821222269
 20
36.8253745971
 30
0.0
 10
17.4453576331
 20
37.0886964884
 30
0.0
 10
17.2738715591
 20
37.3282771084
 30
0.0
 10
17.0780062284
 20
37.52983374
 30
0.0
 10
16.8688399801
 20
37.6815089791
 30
0.0
 10
16.6579981717
 20
37.7745266626
 30
0.0
 10
16.4835198546
 20
37.7974067884
 30
0.0
 10
16.3589649849
 20
37.7770792839
 30
0.0
 10
16.3030705981
 20
37.7553638728
 30
0.0
 10
16.277192783
 20
37.7418553631
 30
0.0
  0
SPLINE
  5
371
100
AcDbEntity
  8
0
100
AcDbSpline
 62
7
  6
BYLAYER
 70
0
 71
3
 72
11
 73
7
 74
0
 42
0.0000001
 43
0.0000001
 44
0.0000000001
 40
0.0
 40
0.0
 40
0.0
 40
0.0
 40
0.2324920562
 40
0.4720015238
 40
0.7260147609
 40
1.0
 40
1.0
 40
1.0
 40
1.0
 10
16.277192783
 20
37.7418553631
 30
0.0
 10
16.2487213236
 20
37.7269929418
 30
0.0
 10
16.1943742062
 20
37.6896483948
 30
0.0
 10
16.1267520684
 20
37.6144666052
 30
0.0
 10
16.073939603
 20
37.5217259617
 30
0.0
 10
16.0500160698
 20
37.4523842889
 30
0.0
 10
16.0404380467
 20
37.4157670119
 30
0.0
  0
SPLINE
  5
372
100
AcDbEntity
  8
0
100
AcDbSpline
 62
7
  6
BYLAYER
 70
0
 71
3
 72
9
 73
5
 74
0
 42
0.0000001
 43
0.0000001
 44
0.0000000001
 40
0.0
 40
0.0
 40
0.0
 40
0.0
 40
0.2372407737
 40
1.0
 40
1.0
 40
1.0
 40
1.0
 10
17.7171222744
 20
36.1975833857
 30
0.0
 10
17.7171222702
 20
36.2253496525
 30
0.0
 10
17.7128279754
 20
36.3423791934
 30
0.0
 10
17.6926424842
 20
36.4585658503
 30
0.0
 10
17.6706192005
 20
36.5450787303
 30
0.0
  0
SPLINE
  5
373
100
AcDbEntity
  8
0
100
AcDbSpline
 62
7
  6
BYLAYER
 70
0
 71
3
 72
10
 73
6
 74
0
 42
0.0000001
 43
0.0000001
 44
0.0000000001
 40
0.0
 40
0.0
 40
0.0
 40
0.0
 40
0.5271335709
 40
0.767853384
 40
1.0
 40
1.0
 40
1.0
 40
1.0
 10
17.0755309511
 20
35.6143730085
 30
0.0
 10
17.1407231131
 20
35.5959581224
 30
0.0
 10
17.2409675077
 20
35.58163367
 30
0.0
 10
17.3686635803
 20
35.6016107674
 30
0.0
 10
17.4259165604
 20
35.623685105
 30
0.0
 10
17.4523636863
 20
35.6374908054
 30
0.0
  0
SPLINE
  5
374
100
AcDbEntity
  8
0
100
AcDbSpline
 62
7
  6
BYLAYER
 70
0
 71
3
 72
9
 73
5
 74
0
 42
0.0000001
 43
0.0000001
 44
0.0000000001
 40
0.0
 40
0.0
 40
0.0
 40
0.0
 40
0.4945154663
 40
1.0
 40
1.0
 40
1.0
 40
1.0
 10
17.4523636863
 20
35.6374908054
 30
0.0
 10
17.4770652997
 20
35.6503853285
 30
0.0
 10
17.5244031748
 20
35.6817925821
 30
0.0
 10
17.5642936341
 20
35.7221740232
 30
0.0
 10
17.5823216364
 20
35.7442252507
 30
0.0
  0
SPLINE
  5
375
100
AcDbEntity
  8
0
100
AcDbSpline
 62
7
  6
BYLAYER
 70
0
 71
3
 72
10
 73
6
 74
0
 42
0.0000001
 43
0.0000001
 44
0.0000000001
 40
0.0
 40
0.0
 40
0.0
 40
0.0
 40
0.4591590379
 40
0.7191758886
 40
1.0
 40
1.0
 40
1.0
 40
1.0
 10
17.5823216364
 20
35.7442252507
 30
0.0
 10
17.6288684612
 20
35.8011597134
 30
0.0
 10
17.6801072301
 20
35.9086809853
 30
0.0
 10
17.7118895088
 20
36.0657603652
 30
0.0
 10
17.7171222813
 20
36.1526058956
 30
0.0
 10
17.7171222744
 20
36.1975833857
 30
0.0
  0
SPLINE
  5
376
100
AcDbEntity
  8
0
100
AcDbSpline
 62
7
  6
BYLAYER
 70
0
 71
3
 72
11
 73
7
 74
0
 42
0.0000001
 43
0.0000001
 44
0.0000000001
 40
0.0
 40
0.0
 40
0.0
 40
0.0
 40
0.2895453772
 40
0.5491366158
 40
0.7822776227
 40
1.0
 40
1.0
 40
1.0
 40
1.0
 10
17.5718879395
 20
36.2814322873
 30
0.0
 10
17.5718879395
 20
36.230792461
 30
0.0
 10
17.5641555416
 20
36.1344324376
 30
0.0
 10
17.5252013619
 20
36.002015135
 30
0.0
 10
17.4594862323
 20
35.8945423128
 30
0.0
 10
17.3977319944
 20
35.8427216873
 30
0.0
 10
17.3647554366
 20
35.8236819701
 30
0.0
  0
SPLINE
  5
377
100
AcDbEntity
  8
0
100
AcDbSpline
 62
7
  6
BYLAYER
 70
0
 71
3
 72
19
 73
15
 74
0
 42
0.0000001
 43
0.0000001
 44
0.0000000001
 40
0.0
 40
0.0
 40
0.0
 40
0.0
 40
0.1569964484
 40
0.3066964447
 40
0.4471184768
 40
0.57691112
 40
0.6376871953
 40
0.6957234557
 40
0.7511451595
 40
0.8041719635
 40
0.8551174506
 40
0.9043935972
 40
0.9524988287
 40
1.0
 40
1.0
 40
1.0
 40
1.0
 10
29.4805186285
 20
53.5343699199
 30
0.0
 10
28.9911225032
 20
54.1256362321
 30
0.0
 10
27.9789759686
 20
55.2358740899
 30
0.0
 10
26.3418408744
 20
56.6908699581
 30
0.0
 10
24.6542628033
 20
57.8687520497
 30
0.0
 10
23.2086716209
 20
58.61059917
 30
0.0
 10
22.0660804679
 20
59.0287963396
 30
0.0
 10
21.2422269327
 20
59.250048834
 30
0.0
 10
20.4379987183
 20
59.3840454272
 30
0.0
 10
19.6584785468
 20
59.4298383653
 30
0.0
 10
18.9087015143
 20
59.3866601632
 30
0.0
 10
18.1936016287
 20
59.2545740057
 30
0.0
 10
17.5183090002
 20
59.0340788955
 30
0.0
 10
17.0965671952
 20
58.8284775124
 30
0.0
 10
16.8954595739
 20
58.7123543561
 30
0.0
  0
SPLINE
  5
378
100
AcDbEntity
  8
0
100
AcDbSpline
 62
7
  6
BYLAYER
 70
0
 71
3
 72
17
 73
13
 74
0
 42
0.0000001
 43
0.0000001
 44
0.0000000001
 40
0.0
 40
0.0
 40
0.0
 40
0.0
 40
0.1286846513
 40
0.2703032228
 40
0.4174430309
 40
0.5617811216
 40
0.695448235
 40
0.8127121431
 40
0.8646788239
 40
0.9125086207
 40
0.9571391214
 40
1.0
 40
1.0
 40
1.0
 40
1.0
 10
10.5008495674
 20
32.1989907485
 30
0.0
 10
10.5008495674
 20
32.2844622455
 30
0.0
 10
10.4769198427
 20
32.4641975656
 30
0.0
 10
10.3876926688
 20
32.7280951357
 30
0.0
 10
10.2501332693
 20
32.9822897726
 30
0.0
 10
10.0754010918
 20
33.2059576859
 30
0.0
 10
9.8777056283
 20
33.3810446469
 30
0.0
 10
9.69876184
 20
33.478851159
 30
0.0
 10
9.5587977309
 20
33.5161429628
 30
0.0
 10
9.4624618051
 20
33.5231806487
 30
0.0
 10
9.3727447065
 20
33.510094086
 30
0.0
 10
9.3184183854
 20
33.4874532668
 30
0.0
 10
9.2937638648
 20
33.4732203232
 30
0.0
  0
SPLINE
  5
379
100
AcDbEntity
  8
0
100
AcDbSpline
 62
7
  6
BYLAYER
 70
0
 71
3
 72
15
 73
11
 74
0
 42
0.0000001
 43
0.0000001
 44
0.0000000001
 40
0.0
 40
0.0
 40
0.0
 40
0.0
 40
0.1290020945
 40
0.2596451912
 40
0.3904769218
 40
0.5200861845
 40
0.6470676331
 40
0.7701207376
 40
0.888084106
 40
1.0
 40
1.0
 40
1.0
 40
1.0
 10
64.8220594707
 20
73.772995756
 30
0.0
 10
65.2226709777
 20
73.2829616482
 30
0.0
 10
65.9905200106
 20
72.2645815897
 30
0.0
 10
67.0270540275
 20
70.6513392065
 30
0.0
 10
67.9430619776
 20
68.9632200897
 30
0.0
 10
68.7236015075
 20
67.2280065278
 30
0.0
 10
69.3559070346
 20
65.473865116
 30
0.0
 10
69.8296851379
 20
63.7293262935
 30
0.0
 10
70.1371685179
 20
62.0229375787
 30
0.0
 10
70.2305469933
 20
60.8965800714
 30
0.0
 10
70.2456564805
 20
60.3476734404
 30
0.0
  0
SPLINE
  5
37A
100
AcDbEntity
  8
0
100
AcDbSpline
 62
7
  6
BYLAYER
 70
0
 71
3
 72
23
 73
19
 74
0
 42
0.0000001
 43
0.0000001
 44
0.0000000001
 40
0.0
 40
0.0
 40
0.0
 40
0.0
 40
0.0435229692
 40
0.0881819163
 40
0.1349725224
 40
0.184657921
 40
0.2377366537
 40
0.2944530264
 40
0.3548297745
 40
0.4187069501
 40
0.4857764353
 40
0.5556111874
 40
0.6276921794
 40
0.7014340119
 40
0.7762024618
 40
0.8513274704
 40
0.9261616608
 40
1.0
 40
1.0
 40
1.0
 40
1.0
 10
31.8953838582
 20
32.7315683019
 30
0.0
 10
32.1862203598
 20
32.899502527
 30
0.0
 10
32.7424023442
 20
33.3008134446
 30
0.0
 10
33.4547907189
 20
34.0687997795
 30
0.0
 10
34.0411465651
 20
34.9930590835
 30
0.0
 10
34.4945805608
 20
36.0591202335
 30
0.0
 10
34.8107838417
 20
37.2521987434
 30
0.0
 10
34.9867583144
 20
38.556469648
 30
0.0
 10
35.0209852002
 20
39.9549517005
 30
0.0
 10
34.9134057368
 20
41.4294388175
 30
0.0
 10
34.6655991153
 20
42.9606222469
 30
0.0
 10
34.2809471658
 20
44.5283277876
 30
0.0
 10
33.7646227295
 20
46.1118225522
 30
0.0
 10
33.1234759144
 20
47.6900907292
 30
0.0
 10
32.3660192697
 20
49.2420641121
 30
0.0
 10
31.5023613966
 20
50.7472769189
 30
0.0
 10
30.5440158377
 20
52.1853397869
 30
0.0
 10
29.8438131123
 20
53.0954539202
 30
0.0
 10
29.4805186285
 20
53.5343699199
 30
0.0
  0
SPLINE
  5
37B
100
AcDbEntity
  8
0
100
AcDbSpline
 62
7
  6
BYLAYER
 70
0
 71
3
 72
11
 73
7
 74
0
 42
0.0000001
 43
0.0000001
 44
0.0000000001
 40
0.0
 40
0.0
 40
0.0
 40
0.0
 40
0.2180507178
 40
0.4501729779
 40
0.7091902863
 40
1.0
 40
1.0
 40
1.0
 40
1.0
 10
17.6748329399
 20
35.5359862766
 30
0.0
 10
17.7247911266
 20
35.5607214703
 30
0.0
 10
17.8192828863
 20
35.6313618641
 30
0.0
 10
17.9206167917
 20
35.7851772696
 30
0.0
 10
17.9806289221
 20
35.9779752695
 30
0.0
 10
17.9923697941
 20
36.1190748472
 30
0.0
 10
17.9923697941
 20
36.1934225329
 30
0.0
  0
SPLINE
  5
37C
100
AcDbEntity
  8
0
100
AcDbSpline
 62
7
  6
BYLAYER
 70
0
 71
3
 72
17
 73
13
 74
0
 42
0.0000001
 43
0.0000001
 44
0.0000000001
 40
0.0
 40
0.0
 40
0.0
 40
0.0
 40
0.0428956198
 40
0.0872024753
 40
0.1344959794
 40
0.1858582803
 40
0.3021247305
 40
0.4354416982
 40
0.5801043347
 40
0.7280403966
 40
0.870553262
 40
1.0
 40
1.0
 40
1.0
 40
1.0
 10
17.3728382842
 20
38.7023958482
 30
0.0
 10
17.4085420965
 20
38.726188287
 30
0.0
 10
17.4878740212
 20
38.7651663845
 30
0.0
 10
17.6209761531
 20
38.7921163431
 30
0.0
 10
17.7650094075
 20
38.7878381262
 30
0.0
 10
17.9755843881
 20
38.7393659819
 30
0.0
 10
18.2467878292
 20
38.5987124852
 30
0.0
 10
18.5474072678
 20
38.3397681064
 30
0.0
 10
18.8142367772
 20
38.0047461149
 30
0.0
 10
19.024840305
 20
37.6214597906
 30
0.0
 10
19.1617975992
 20
37.2222833061
 30
0.0
 10
19.1986073838
 20
36.949954803
 30
0.0
 10
19.1986073838
 20
36.8204796412
 30
0.0
  0
SPLINE
  5
37D
100
AcDbEntity
  8
0
100
AcDbSpline
 62
7
  6
BYLAYER
 70
0
 71
3
 72
19
 73
15
 74
0
 42
0.0000001
 43
0.0000001
 44
0.0000000001
 40
0.0
 40
0.0
 40
0.0
 40
0.0
 40
0.1570007591
 40
0.3067048657
 40
0.4471307534
 40
0.5134521977
 40
0.5770163013
 40
0.6957151011
 40
0.7511383267
 40
0.8041665866
 40
0.8551134725
 40
0.9043909721
 40
0.9524975245
 40
1.0
 40
1.0
 40
1.0
 40
1.0
 10
24.0290505794
 20
50.1431549594
 30
0.0
 10
23.5641242603
 20
50.704857956
 30
0.0
 10
22.6025319829
 20
51.7596261006
 30
0.0
 10
21.0474785548
 20
53.1416934155
 30
0.0
 10
19.685978876
 20
54.0920434551
 30
0.0
 10
18.58669572
 20
54.700629507
 30
0.0
 10
17.5375398105
 20
55.1838769052
 30
0.0
 10
16.4808740647
 20
55.526658562
 30
0.0
 10
15.4386861679
 20
55.7003484748
 30
0.0
 10
14.6981050742
 20
55.7438495335
 30
0.0
 10
13.9858262082
 20
55.7028308046
 30
0.0
 10
13.3064789416
 20
55.5773488114
 30
0.0
 10
12.6649515686
 20
55.3678784945
 30
0.0
 10
12.2642967177
 20
55.1725571723
 30
0.0
 10
12.0732444775
 20
55.0622401738
 30
0.0
  0
SPLINE
  5
37E
100
AcDbEntity
  8
0
100
AcDbSpline
 62
7
  6
BYLAYER
 70
0
 71
3
 72
15
 73
11
 74
0
 42
0.0000001
 43
0.0000001
 44
0.0000000001
 40
0.0
 40
0.0
 40
0.0
 40
0.0
 40
0.1471574492
 40
0.2896343851
 40
0.4262258347
 40
0.5560472686
 40
0.678423832
 40
0.7930466339
 40
0.9000298345
 40
1.0
 40
1.0
 40
1.0
 40
1.0
 10
26.0655533018
 20
51.3440791593
 30
0.0
 10
25.7153954177
 20
51.7662848505
 30
0.0
 10
24.9958688562
 20
52.5727282206
 30
0.0
 10
23.8488007667
 20
53.6742745731
 30
0.0
 10
22.6640935465
 20
54.6361604746
 30
0.0
 10
21.458734363
 20
55.4446652272
 30
0.0
 10
20.2493695742
 20
56.0882000321
 30
0.0
 10
19.0525564342
 20
56.5573600996
 30
0.0
 10
17.8850826792
 20
56.8448738095
 30
0.0
 10
17.1126499874
 20
56.9138708888
 30
0.0
 10
16.7400213313
 20
56.9136990179
 30
0.0
  0
SPLINE
  5
37F
100
AcDbEntity
  8
0
100
AcDbSpline
 62
7
  6
BYLAYER
 70
0
 71
3
 72
11
 73
7
 74
0
 42
0.0000001
 43
0.0000001
 44
0.0000000001
 40
0.0
 40
0.0
 40
0.0
 40
0.0
 40
0.2600425307
 40
0.511752665
 40
0.757504036
 40
1.0
 40
1.0
 40
1.0
 40
1.0
 10
16.7400213313
 20
56.9136990179
 30
0.0
 10
16.5103445597
 20
56.9135930819
 30
0.0
 10
16.0578536885
 20
56.8883839146
 30
0.0
 10
15.3975564747
 20
56.7704186174
 30
0.0
 10
14.772520184
 20
56.5733980032
 30
0.0
 10
14.3807483422
 20
56.3895290063
 30
0.0
 10
14.1934902663
 20
56.2855716388
 30
0.0
  0
SPLINE
  5
380
100
AcDbEntity
  8
0
100
AcDbSpline
 62
7
  6
BYLAYER
 70
0
 71
3
 72
23
 73
19
 74
0
 42
0.0000001
 43
0.0000001
 44
0.0000000001
 40
0.0
 40
0.0
 40
0.0
 40
0.0
 40
0.082921941
 40
0.1637028239
 40
0.2417799067
 40
0.3167626492
 40
0.388322202
 40
0.4562228252
 40
0.5203712998
 40
0.580829239
 40
0.6378358093
 40
0.6918428045
 40
0.7435159344
 40
0.7937181878
 40
0.843454595
 40
0.8937772789
 40
0.9456781679
 40
1.0
 40
1.0
 40
1.0
 40
1.0
 10
23.8198285198
 20
49.9573406808
 30
0.0
 10
23.5229945253
 20
50.3159621168
 30
0.0
 10
22.9147457052
 20
51.0059169658
 30
0.0
 10
21.9515994211
 20
51.9637811435
 30
0.0
 10
20.9575185465
 20
52.8230245141
 30
0.0
 10
19.9431949426
 20
53.574421916
 30
0.0
 10
18.919165352
 20
54.2102828864
 30
0.0
 10
17.8959278446
 20
54.7236956152
 30
0.0
 10
16.8840408511
 20
55.1091380671
 30
0.0
 10
15.8938349125
 20
55.3623366869
 30
0.0
 10
14.9353878798
 20
55.4798394147
 30
0.0
 10
14.0187618261
 20
55.4596488452
 30
0.0
 10
13.1540438015
 20
55.3007797261
 30
0.0
 10
12.3515860734
 20
55.0039129875
 30
0.0
 10
11.6214954834
 20
54.5722436025
 30
0.0
 10
10.9730427817
 20
54.0110542504
 30
0.0
 10
10.4137670329
 20
53.3281343444
 30
0.0
 10
10.1118845217
 20
52.8108155632
 30
0.0
 10
9.9767526758
 20
52.5374205477
 30
0.0
  0
SPLINE
  5
381
100
AcDbEntity
  8
0
100
AcDbSpline
 62
7
  6
BYLAYER
 70
0
 71
3
 72
9
 73
5
 74
0
 42
0.0000001
 43
0.0000001
 44
0.0000000001
 40
0.0
 40
0.0
 40
0.0
 40
0.0
 40
0.2342225137
 40
1.0
 40
1.0
 40
1.0
 40
1.0
 10
9.9448749134
 20
52.4720246879
 30
0.0
 10
9.8412689966
 20
52.2564976525
 30
0.0
 10
9.4482980449
 20
51.3125795019
 30
0.0
 10
9.2468671274
 20
50.2957999619
 30
0.0
 10
9.1738717416
 20
49.5173726822
 30
0.0
  0
SPLINE
  5
382
100
AcDbEntity
  8
0
100
AcDbSpline
 62
7
  6
BYLAYER
 70
0
 71
3
 72
9
 73
5
 74
0
 42
0.0000001
 43
0.0000001
 44
0.0000000001
 40
0.0
 40
0.0
 40
0.0
 40
0.0
 40
0.4851568564
 40
1.0
 40
1.0
 40
1.0
 40
1.0
 10
9.1320360168
 20
48.8875347255
 30
0.0
 10
9.11182857
 20
48.3824606259
 30
0.0
 10
9.1336415811
 20
47.3383146038
 30
0.0
 10
9.2635726011
 20
46.3027450575
 30
0.0
 10
9.354384121
 20
45.7740800317
 30
0.0
  0
SPLINE
  5
383
100
AcDbEntity
  8
0
100
AcDbSpline
 62
7
  6
BYLAYER
 70
0
 71
3
 72
9
 73
5
 74
0
 42
0.0000001
 43
0.0000001
 44
0.0000000001
 40
0.0
 40
0.0
 40
0.0
 40
0.0
 40
0.2442695254
 40
1.0
 40
1.0
 40
1.0
 40
1.0
 10
9.5539389476
 20
44.7799095735
 30
0.0
 10
9.6128735727
 20
44.5227514759
 30
0.0
 10
9.8758391921
 20
43.4750277292
 30
0.0
 10
10.2222883034
 20
42.4486716635
 30
0.0
 10
10.5239986028
 20
41.6902489649
 30
0.0
  0
SPLINE
  5
384
100
AcDbEntity
  8
0
100
AcDbSpline
 62
7
  6
BYLAYER
 70
0
 71
3
 72
19
 73
15
 74
0
 42
0.0000001
 43
0.0000001
 44
0.0000000001
 40
0.0
 40
0.0
 40
0.0
 40
0.0
 40
0.0464723774
 40
0.0927394644
 40
0.1397751028
 40
0.1884766596
 40
0.2934048353
 40
0.3507834015
 40
0.4116321963
 40
0.4759553265
 40
0.5436157302
 40
0.6877686352
 40
0.8412076314
 40
1.0
 40
1.0
 40
1.0
 40
1.0
 10
19.6066436547
 20
35.8368587511
 30
0.0
 10
19.7249838721
 20
35.874658718
 30
0.0
 10
19.9551565968
 20
35.9708263418
 30
0.0
 10
20.2701123367
 20
36.1754283636
 30
0.0
 10
20.5481720065
 20
36.4367503396
 30
0.0
 10
20.8732600263
 20
36.8661275675
 30
0.0
 10
21.102041656
 20
37.3912617971
 30
0.0
 10
21.239061197
 20
37.9724538667
 30
0.0
 10
21.2990450668
 20
38.4577758527
 30
0.0
 10
21.3122017345
 20
38.9737871382
 30
0.0
 10
21.2665610424
 20
39.7113332136
 30
0.0
 10
21.0883983428
 20
40.6753570385
 30
0.0
 10
20.7064538511
 20
41.837193339
 30
0.0
 10
20.3495522055
 20
42.594375609
 30
0.0
 10
20.1463012554
 20
42.9670381938
 30
0.0
  0
SPLINE
  5
385
100
AcDbEntity
  8
0
100
AcDbSpline
 62
7
  6
BYLAYER
 70
0
 71
3
 72
9
 73
5
 74
0
 42
0.0000001
 43
0.0000001
 44
0.0000000001
 40
0.0
 40
0.0
 40
0.0
 40
0.0
 40
0.5118333659
 40
1.0
 40
1.0
 40
1.0
 40
1.0
 10
16.2531761106
 20
33.2527496431
 30
0.0
 10
16.6176982069
 20
32.9184907874
 30
0.0
 10
17.3556664544
 20
32.2928433066
 30
0.0
 10
18.145328461
 20
31.7332531389
 30
0.0
 10
18.5431447329
 20
31.479777584
 30
0.0
  0
SPLINE
  5
386
100
AcDbEntity
  8
0
100
AcDbSpline
 62
7
  6
BYLAYER
 70
0
 71
3
 72
9
 73
5
 74
0
 42
0.0000001
 43
0.0000001
 44
0.0000000001
 40
0.0
 40
0.0
 40
0.0
 40
0.0
 40
0.2636297625
 40
1.0
 40
1.0
 40
1.0
 40
1.0
 10
19.4281731736
 20
30.9614803724
 30
0.0
 10
19.6341210053
 20
30.8514820935
 30
0.0
 10
20.4265285276
 20
30.4562622578
 30
0.0
 10
21.26751456
 20
30.153025056
 30
0.0
 10
21.9027854689
 20
30.0055537013
 30
0.0
  0
SPLINE
  5
387
100
AcDbEntity
  8
0
100
AcDbSpline
 62
7
  6
BYLAYER
 70
0
 71
3
 72
30
 73
26
 74
0
 42
0.0000001
 43
0.0000001
 44
0.0000000001
 40
0.0
 40
0.0
 40
0.0
 40
0.0
 40
0.0509631629
 40
0.0751751312
 40
0.0987361935
 40
0.1218433386
 40
0.1447161567
 40
0.1675849149
 40
0.1906807126
 40
0.2142226356
 40
0.2384101677
 40
0.28930802
 40
0.3163265294
 40
0.3444792897
 40
0.3738099426
 40
0.4043332932
 40
0.4360418022
 40
0.4689029326
 40
0.5378442861
 40
0.6105989234
 40
0.6863746149
 40
0.7642434405
 40
0.8431783035
 40
0.9221269875
 40
1.0
 40
1.0
 40
1.0
 40
1.0
 10
22.5152839362
 20
29.8886998362
 30
0.0
 10
22.9415027686
 20
29.8254050055
 30
0.0
 10
23.5816088343
 20
29.7873635784
 30
0.0
 10
24.4132737893
 20
29.8739934977
 30
0.0
 10
24.9998850947
 20
30.0033810169
 30
0.0
 10
25.5562192749
 20
30.1980171046
 30
0.0
 10
26.079325631
 20
30.4567745579
 30
0.0
 10
26.566245787
 20
30.778330248
 30
0.0
 10
27.0142554536
 20
31.1608725312
 30
0.0
 10
27.4211041585
 20
31.6021751764
 30
0.0
 10
27.9138601953
 20
32.2767432336
 30
0.0
 10
28.3061438178
 20
33.0534420602
 30
0.0
 10
28.5988107943
 20
33.9018519864
 30
0.0
 10
28.7741024017
 20
34.5954010124
 30
0.0
 10
28.8996869868
 20
35.3294974223
 30
0.0
 10
28.9751811415
 20
36.1005920085
 30
0.0
 10
29.0000867746
 20
36.9047778093
 30
0.0
 10
28.9653621471
 20
38.0336752532
 30
0.0
 10
28.7906408659
 20
39.5024293476
 30
0.0
 10
28.3886392807
 20
41.2994649615
 30
0.0
 10
27.7990494693
 20
43.1233202958
 30
0.0
 10
27.0337154934
 20
44.9372569128
 30
0.0
 10
26.1080312797
 20
46.7051439476
 30
0.0
 10
25.0406105964
 20
48.391091738
 30
0.0
 10
24.2396497243
 20
49.4501316481
 30
0.0
 10
23.8198285198
 20
49.9573406808
 30
0.0
  0
SPLINE
  5
388
100
AcDbEntity
  8
0
100
AcDbSpline
 62
7
  6
BYLAYER
 70
0
 71
3
 72
21
 73
17
 74
0
 42
0.0000001
 43
0.0000001
 44
0.0000000001
 40
0.0
 40
0.0
 40
0.0
 40
0.0
 40
0.1525547089
 40
0.3059264132
 40
0.3809554144
 40
0.4538187251
 40
0.5238422025
 40
0.5904582004
 40
0.6532372571
 40
0.7119392954
 40
0.7665625353
 40
0.8173894545
 40
0.8650432077
 40
0.9104973564
 40
0.9550152251
 40
1.0
 40
1.0
 40
1.0
 40
1.0
 10
21.4019733949
 20
46.2427070221
 30
0.0
 10
21.7699980425
 20
45.7980762519
 30
0.0
 10
22.4395912661
 20
44.8480056062
 30
0.0
 10
23.0950243088
 20
43.5583540042
 30
0.0
 10
23.4943790128
 20
42.4897364128
 30
0.0
 10
23.7215118163
 20
41.696194821
 30
0.0
 10
23.8748151437
 20
40.9174861274
 30
0.0
 10
23.9519371424
 20
40.1657577631
 30
0.0
 10
23.9514592329
 20
39.4526865867
 30
0.0
 10
23.8731522034
 20
38.7892811426
 30
0.0
 10
23.7178456016
 20
38.1857224699
 30
0.0
 10
23.4869836342
 20
37.6514966028
 30
0.0
 10
23.1831473168
 20
37.1955726066
 30
0.0
 10
22.8101959731
 20
36.8265634779
 30
0.0
 10
22.3745085005
 20
36.5526685327
 30
0.0
 10
22.0523488446
 20
36.4387242213
 30
0.0
 10
21.886913708
 20
36.3987453751
 30
0.0
  0
SPLINE
  5
389
100
AcDbEntity
  8
0
100
AcDbSpline
 62
7
  6
BYLAYER
 70
0
 71
3
 72
18
 73
14
 74
0
 42
0.0000001
 43
0.0000001
 44
0.0000000001
 40
0.0
 40
0.0
 40
0.0
 40
0.0
 40
0.0487742136
 40
0.0972358256
 40
0.1461316676
 40
0.1961788209
 40
0.2480085255
 40
0.3021439601
 40
0.4185871779
 40
0.5473314922
 40
0.6882402266
 40
0.8399247205
 40
1.0
 40
1.0
 40
1.0
 40
1.0
 10
15.1867410383
 20
48.1053555879
 30
0.0
 10
15.2716131448
 20
48.1825423048
 30
0.0
 10
15.4525135683
 20
48.3241539101
 30
0.0
 10
15.7534528629
 20
48.4928697149
 30
0.0
 10
16.079401351
 20
48.6149031591
 30
0.0
 10
16.4274067486
 20
48.6891806101
 30
0.0
 10
16.7945307255
 20
48.7154856964
 30
0.0
 10
17.3180312064
 20
48.6856668465
 30
0.0
 10
18.0084186573
 20
48.5201931534
 30
0.0
 10
18.8397405112
 20
48.1445957782
 30
0.0
 10
19.6719634064
 20
47.6002183725
 30
0.0
 10
20.4806047817
 20
46.9036633079
 30
0.0
 10
20.9782655409
 20
46.3626991562
 30
0.0
 10
21.2183388478
 20
46.0726534213
 30
0.0
  0
SPLINE
  5
38A
100
AcDbEntity
  8
0
100
AcDbSpline
 62
7
  6
BYLAYER
 70
0
 71
3
 72
9
 73
5
 74
0
 42
0.0000001
 43
0.0000001
 44
0.0000000001
 40
0.0
 40
0.0
 40
0.0
 40
0.0
 40
0.2552414689
 40
1.0
 40
1.0
 40
1.0
 40
1.0
 10
14.7526227838
 20
47.8085195449
 30
0.0
 10
14.7779569807
 20
47.8480715275
 30
0.0
 10
14.8809393242
 20
48.0005960147
 30
0.0
 10
14.9993185653
 20
48.1428491201
 30
0.0
 10
15.0954366865
 20
48.2405451188
 30
0.0
  0
SPLINE
  5
38B
100
AcDbEntity
  8
0
100
AcDbSpline
 62
7
  6
BYLAYER
 70
0
 71
3
 72
19
 73
15
 74
0
 42
0.0000001
 43
0.0000001
 44
0.0000000001
 40
0.0
 40
0.0
 40
0.0
 40
0.0
 40
0.0493081347
 40
0.0980229089
 40
0.1469310339
 40
0.1968018141
 40
0.2483332405
 40
0.3021062126
 40
0.3585671145
 40
0.4180169028
 40
0.5463242546
 40
0.6872056961
 40
0.8392473887
 40
1.0
 40
1.0
 40
1.0
 40
1.0
 10
15.0954366865
 20
48.2405451188
 30
0.0
 10
15.1807367778
 20
48.3272454986
 30
0.0
 10
15.3633622163
 20
48.4873929196
 30
0.0
 10
15.6709080287
 20
48.6818435571
 30
0.0
 10
16.0064096862
 20
48.8263696247
 30
0.0
 10
16.3666803043
 20
48.9196372562
 30
0.0
 10
16.7484515558
 20
48.9610874291
 30
0.0
 10
17.1484256567
 20
48.9506689967
 30
0.0
 10
17.5633304918
 20
48.8887098843
 30
0.0
 10
18.1467128532
 20
48.7344705888
 30
0.0
 10
18.8945714985
 20
48.4091266602
 30
0.0
 10
19.7715906417
 20
47.8454602957
 30
0.0
 10
20.6248004714
 20
47.1168104513
 30
0.0
 10
21.1491409065
 20
46.5481678243
 30
0.0
 10
21.4019733949
 20
46.2427070221
 30
0.0
  0
SPLINE
  5
38C
100
AcDbEntity
  8
0
100
AcDbSpline
 62
7
  6
BYLAYER
 70
0
 71
3
 72
19
 73
15
 74
0
 42
0.0000001
 43
0.0000001
 44
0.0000000001
 40
0.0
 40
0.0
 40
0.0
 40
0.0
 40
0.0475024755
 40
0.0956090279
 40
0.1448865275
 40
0.1958334134
 40
0.2488616733
 40
0.3042848989
 40
0.4229836987
 40
0.4865478023
 40
0.5528692466
 40
0.6932951343
 40
0.8429992409
 40
1.0
 40
1.0
 40
1.0
 40
1.0
 10
16.7401298031
 20
57.7566515893
 30
0.0
 10
16.9311820433
 20
57.8669685878
 30
0.0
 10
17.3318368942
 20
58.06228991
 30
0.0
 10
17.9733642672
 20
58.271760227
 30
0.0
 10
18.6527115338
 20
58.3972422201
 30
0.0
 10
19.3649903998
 20
58.4382609491
 30
0.0
 10
20.1055714935
 20
58.3947598904
 30
0.0
 10
21.1477593903
 20
58.2210699775
 30
0.0
 10
22.2044251361
 20
57.8782883207
 30
0.0
 10
23.2535810456
 20
57.3950409226
 30
0.0
 10
24.3528642016
 20
56.7864548707
 30
0.0
 10
25.7143638804
 20
55.836104831
 30
0.0
 10
27.2694173085
 20
54.4540375162
 30
0.0
 10
28.2310095859
 20
53.3992693715
 30
0.0
 10
28.695935905
 20
52.837566375
 30
0.0
  0
SPLINE
  5
38D
100
AcDbEntity
  8
0
100
AcDbSpline
 62
7
  6
BYLAYER
 70
0
 71
3
 72
23
 73
19
 74
0
 42
0.0000001
 43
0.0000001
 44
0.0000000001
 40
0.0
 40
0.0
 40
0.0
 40
0.0
 40
0.0435198807
 40
0.0881870469
 40
0.1349932303
 40
0.1846975459
 40
0.2377951032
 40
0.2945276543
 40
0.354916333
 40
0.4188003269
 40
0.4858712821
 40
0.5557023467
 40
0.6277740267
 40
0.7015019916
 40
0.7762545652
 40
0.8513622778
 40
0.9261790409
 40
1.0
 40
1.0
 40
1.0
 40
1.0
 10
28.3839693317
 20
31.5703173198
 30
0.0
 10
28.6597000606
 20
31.730443005
 30
0.0
 10
29.1868888171
 20
32.1127764443
 30
0.0
 10
29.8618271215
 20
32.8435135214
 30
0.0
 10
30.4171461933
 20
33.7223380387
 30
0.0
 10
30.8463384851
 20
34.7355302129
 30
0.0
 10
31.1453333285
 20
35.8690714141
 30
0.0
 10
31.3113009263
 20
37.1079537419
 30
0.0
 10
31.3428096705
 20
38.4360736933
 30
0.0
 10
31.2398147194
 20
39.8361679289
 30
0.0
 10
31.0038233703
 20
41.2899303232
 30
0.0
 10
30.6380475426
 20
42.7782278036
 30
0.0
 10
30.1474084303
 20
44.281404758
 30
0.0
 10
29.5383942237
 20
45.7795441203
 30
0.0
 10
28.819085037
 20
47.2526902089
 30
0.0
 10
27.9990534809
 20
48.6814503001
 30
0.0
 10
27.0892181484
 20
50.0464886988
 30
0.0
 10
26.4245156656
 20
50.9104139349
 30
0.0
 10
26.0796517073
 20
51.3270630057
 30
0.0
  0
SPLINE
  5
38E
100
AcDbEntity
  8
0
100
AcDbSpline
 62
7
  6
BYLAYER
 70
0
 71
3
 72
21
 73
17
 74
0
 42
0.0000001
 43
0.0000001
 44
0.0000000001
 40
0.0
 40
0.0
 40
0.0
 40
0.0
 40
0.1516221146
 40
0.3041743858
 40
0.451544745
 40
0.5215846868
 40
0.588384488
 40
0.6515104107
 40
0.7107001495
 40
0.7659003763
 40
0.7920747319
 40
0.8173536598
 40
0.8654916579
 40
0.9111922299
 40
0.9555896517
 40
1.0
 40
1.0
 40
1.0
 40
1.0
 10
21.2183388478
 20
46.0726534213
 30
0.0
 10
21.5681561083
 20
45.6500199945
 30
0.0
 10
22.206348702
 20
44.7476287142
 30
0.0
 10
22.9554373441
 20
43.2901263678
 30
0.0
 10
23.3915801636
 20
42.0182346628
 30
0.0
 10
23.6027122433
 20
41.0106395784
 30
0.0
 10
23.6877327265
 20
40.2910184651
 30
0.0
 10
23.7006404212
 20
39.6055880157
 30
0.0
 10
23.6411686628
 20
38.964578779
 30
0.0
 10
23.5297429946
 20
38.4664872795
 30
0.0
 10
23.4035539251
 20
38.1013944071
 30
0.0
 10
23.2591121166
 20
37.770925491
 30
0.0
 10
23.0372161027
 20
37.39850921
 30
0.0
 10
22.7013030397
 20
37.0232886099
 30
0.0
 10
22.3051598941
 20
36.7343522698
 30
0.0
 10
22.0081892534
 20
36.6042204734
 30
0.0
 10
21.8551168347
 20
36.5553200079
 30
0.0
  0
SPLINE
  5
38F
100
AcDbEntity
  8
0
100
AcDbSpline
 62
7
  6
BYLAYER
 70
0
 71
3
 72
15
 73
11
 74
0
 42
0.0000001
 43
0.0000001
 44
0.0000000001
 40
0.0
 40
0.0
 40
0.0
 40
0.0
 40
0.1000681922
 40
0.2071382728
 40
0.321820057
 40
0.4442197062
 40
0.5740229666
 40
0.7105577935
 40
0.8529510354
 40
1.0
 40
1.0
 40
1.0
 40
1.0
 10
16.7857327423
 20
56.8679978533
 30
0.0
 10
17.1561998634
 20
56.8663828417
 30
0.0
 10
17.9237430427
 20
56.7946362303
 30
0.0
 10
19.0832743988
 20
56.5053326428
 30
0.0
 10
20.2715287299
 20
56.0365753816
 30
0.0
 10
21.4719630175
 20
55.39554755
 30
0.0
 10
22.6682482281
 20
54.5915267033
 30
0.0
 10
23.8439986005
 20
53.6359473976
 30
0.0
 10
24.9824714591
 20
52.5423341036
 30
0.0
 10
25.6967794181
 20
51.7420004458
 30
0.0
 10
26.0444347312
 20
51.3230621169
 30
0.0
  0
SPLINE
  5
390
100
AcDbEntity
  8
0
100
AcDbSpline
 62
7
  6
BYLAYER
 70
0
 71
3
 72
20
 73
16
 74
0
 42
0.0000001
 43
0.0000001
 44
0.0000000001
 40
0.0
 40
0.0
 40
0.0
 40
0.0
 40
0.141111567
 40
0.2838617223
 40
0.4245996235
 40
0.4931334618
 40
0.5598807367
 40
0.6244762733
 40
0.6866084095
 40
0.7460275074
 40
0.8025596366
 40
0.8561263712
 40
0.9067573149
 40
0.954612873
 40
1.0
 40
1.0
 40
1.0
 40
1.0
 10
26.0627013843
 20
51.3010216437
 30
0.0
 10
26.6492551652
 20
50.5923738368
 30
0.0
 10
27.7438710462
 20
49.0941630559
 30
0.0
 10
29.1167013312
 20
46.6845209572
 30
0.0
 10
30.0223642723
 20
44.5696254032
 30
0.0
 10
30.5779183952
 20
42.8571514634
 30
0.0
 10
30.9012077083
 20
41.5939187639
 30
0.0
 10
31.1315266768
 20
40.3528441308
 30
0.0
 10
31.2667354303
 20
39.1457672748
 30
0.0
 10
31.3054588706
 20
37.9841911418
 30
0.0
 10
31.2471497151
 20
36.8791327197
 30
0.0
 10
31.0922957879
 20
35.8410644402
 30
0.0
 10
30.8418918737
 20
34.8797560879
 30
0.0
 10
30.4980295419
 20
34.0046444917
 30
0.0
 10
30.2010262422
 20
33.4715329098
 30
0.0
 10
30.0378770528
 20
33.2247000145
 30
0.0
  0
SPLINE
  5
391
100
AcDbEntity
  8
0
100
AcDbSpline
 62
7
  6
BYLAYER
 70
0
 71
3
 72
18
 73
14
 74
0
 42
0.0000001
 43
0.0000001
 44
0.0000000001
 40
0.0
 40
0.0
 40
0.0
 40
0.0
 40
0.160079515
 40
0.3117573956
 40
0.4526698343
 40
0.5814131643
 40
0.6978567391
 40
0.7519911722
 40
0.8038214118
 40
0.8538682767
 40
0.9027643321
 40
0.9512255572
 40
1.0
 40
1.0
 40
1.0
 40
1.0
 10
19.0178084303
 20
44.63769409
 30
0.0
 10
18.7958023084
 20
44.9059118673
 30
0.0
 10
18.3356153997
 20
45.4061540039
 30
0.0
 10
17.5878375268
 20
46.0502599657
 30
0.0
 10
16.8182834893
 20
46.5536696176
 30
0.0
 10
16.0495339175
 20
46.9009804214
 30
0.0
 10
15.4111248266
 20
47.054012698
 30
0.0
 10
14.9270329243
 20
47.0815583225
 30
0.0
 10
14.5875487515
 20
47.0572472664
 30
0.0
 10
14.265736695
 20
46.9885664664
 30
0.0
 10
13.9643411011
 20
46.8756924563
 30
0.0
 10
13.6860256726
 20
46.7197274483
 30
0.0
 10
13.5187797235
 20
46.5887305554
 30
0.0
 10
13.4402892608
 20
46.5173622343
 30
0.0
  0
SPLINE
  5
392
100
AcDbEntity
  8
0
100
AcDbSpline
 62
7
  6
BYLAYER
 70
0
 71
3
 72
23
 73
19
 74
0
 42
0.0000001
 43
0.0000001
 44
0.0000000001
 40
0.0
 40
0.0
 40
0.0
 40
0.0
 40
0.0435229692
 40
0.0881819163
 40
0.1349725224
 40
0.184657921
 40
0.2377366537
 40
0.2944530264
 40
0.3548297745
 40
0.4187069501
 40
0.4857764353
 40
0.5556111874
 40
0.6276921794
 40
0.7014340119
 40
0.7762024618
 40
0.8513274704
 40
0.9261616608
 40
1.0
 40
1.0
 40
1.0
 40
1.0
 10
26.3231725476
 20
30.3804934223
 30
0.0
 10
26.5994672241
 20
30.5400309361
 30
0.0
 10
27.1278401093
 20
30.9212763079
 30
0.0
 10
27.8046090652
 20
31.6508633261
 30
0.0
 10
28.3616471192
 20
32.5289096649
 30
0.0
 10
28.7924094151
 20
33.5416677573
 30
0.0
 10
29.0928025319
 20
34.6750923418
 30
0.0
 10
29.259978281
 20
35.9141497011
 30
0.0
 10
29.2924938225
 20
37.2427076509
 30
0.0
 10
29.1902933322
 20
38.6434704121
 30
0.0
 10
28.9548770418
 20
40.0980946701
 30
0.0
 10
28.5894576897
 20
41.5874149337
 30
0.0
 10
28.0989494753
 20
43.0917349601
 30
0.0
 10
27.4898600009
 20
44.5910897282
 30
0.0
 10
26.7702761885
 20
46.065464442
 30
0.0
 10
25.949801209
 20
47.4954166085
 30
0.0
 10
25.0393729281
 20
48.8615763331
 30
0.0
 10
24.374180339
 20
49.7261847597
 30
0.0
 10
24.0290505794
 20
50.1431549594
 30
0.0
  0
SPLINE
  5
393
100
AcDbEntity
  8
0
100
AcDbSpline
 62
7
  6
BYLAYER
 70
0
 71
3
 72
9
 73
5
 74
0
 42
0.0000001
 43
0.0000001
 44
0.0000000001
 40
0.0
 40
0.0
 40
0.0
 40
0.0
 40
0.5033201781
 40
1.0
 40
1.0
 40
1.0
 40
1.0
 10
20.1463012554
 20
42.9670381938
 30
0.0
 10
19.984158697
 20
43.2643281443
 30
0.0
 10
19.6340114713
 20
43.840132163
 30
0.0
 10
19.2308794349
 20
44.3802713181
 30
0.0
 10
19.0178084303
 20
44.63769409
 30
0.0
  0
ELLIPSE
  5
394
100
AcDbEntity
  8
0
100
AcDbEllipse
 62
7
  6
BYLAYER
 10
44.858306052
 20
60.1486923317
 30
0.0
 11
24.6921581758
 21
6.3071398165
 31
0.0
 40
0.6370116215
 41
1.2447639568
 42
1.2699691479
  0
ELLIPSE
  5
395
100
AcDbEntity
  8
0
100
AcDbEllipse
 62
7
  6
BYLAYER
 10
44.7021386083
 20
60.6742019059
 30
0.0
 11
25.0823955992
 21
4.8563883918
 31
0.0
 40
0.621011288
 41
7.528212686
 42
7.5539418084
  0
ELLIPSE
  5
396
100
AcDbEntity
  8
0
100
AcDbEllipse
 62
7
  6
BYLAYER
 10
44.579425023
 20
61.1944572396
 30
0.0
 11
25.3679778441
 21
3.4993896667
 31
0.0
 40
0.6026731265
 41
1.2403760062
 42
1.2667091019
  0
ELLIPSE
  5
397
100
AcDbEntity
  8
0
100
AcDbEllipse
 62
7
  6
BYLAYER
 10
44.4910992206
 20
61.7054988755
 30
0.0
 11
25.5602112624
 21
2.2394956401
 31
0.0
 40
0.5824427335
 41
1.2303337638
 42
1.2579614716
  0
ELLIPSE
  5
398
100
AcDbEntity
  8
0
100
AcDbEllipse
 62
7
  6
BYLAYER
 10
44.4378334138
 20
62.2034374782
 30
0.0
 11
25.6693976586
 21
1.074728493
 31
0.0
 40
0.5607003361
 41
1.2164194471
 42
1.2448131678
  0
ELLIPSE
  5
399
100
AcDbEntity
  8
0
100
AcDbEllipse
 62
7
  6
BYLAYER
 10
44.4200329875
 20
62.6844834344
 30
0.0
 11
25.7041710666
 21
0.000086921
 31
0.0
 40
0.5377539929
 41
1.1982675425
 42
1.2276384485
  0
ELLIPSE
  5
39A
100
AcDbEntity
  8
0
100
AcDbEllipse
 62
7
  6
BYLAYER
 10
44.4378334138
 20
63.1449756937
 30
0.0
 11
25.6714220041
 21
-0.990796206
 31
0.0
 40
0.5138422122
 41
1.1774546168
 42
1.2068255228
  0
ELLIPSE
  5
39B
100
AcDbEntity
  8
0
100
AcDbEllipse
 62
7
  6
BYLAYER
 10
44.4910992206
 20
63.581409632
 30
0.0
 11
25.5765102646
 21
-1.9046128171
 31
0.0
 40
0.4891411839
 41
1.1533697171
 42
1.1827406231
  0
ELLIPSE
  5
39C
100
AcDbEntity
  8
0
100
AcDbEllipse
 62
7
  6
BYLAYER
 10
44.579425023
 20
63.9904637236
 30
0.0
 11
25.4235744323
 21
-2.7478070601
 31
0.0
 40
0.4637735253
 41
1.1263386505
 42
1.1557095565
  0
ELLIPSE
  5
39D
100
AcDbEntity
  8
0
100
AcDbEllipse
 62
7
  6
BYLAYER
 10
44.7021386083
 20
64.3690248199
 30
0.0
 11
25.2158380038
 21
-3.526315637
 31
0.0
 40
0.4378168535
 41
1.0966392795
 42
1.1260101855
  0
ELLIPSE
  5
39E
100
AcDbEntity
  8
0
100
AcDbEllipse
 62
7
  6
BYLAYER
 10
44.858306052
 20
64.7142118422
 30
0.0
 11
24.9558704224
 21
-4.2454987115
 31
0.0
 40
0.4113114298
 41
1.0645001417
 42
1.0938710477
  0
ELLIPSE
  5
39F
100
AcDbEntity
  8
0
100
AcDbEllipse
 62
7
  6
BYLAYER
 10
45.0467388256
 20
65.0233977089
 30
0.0
 11
24.6457923828
 21
-4.9101776717
 31
0.0
 40
0.3842666715
 41
1.0301020743
 42
1.0594729803
  0
ELLIPSE
  5
3A0
100
AcDbEntity
  8
0
100
AcDbEllipse
 62
7
  6
BYLAYER
 10
45.2660028418
 20
65.294229329
 30
0.0
 11
24.2874286681
 21
-5.5247273254
 31
0.0
 40
0.3566666052
 41
0.9935809255
 42
1.0229518315
  0
ELLIPSE
  5
3A1
100
AcDbEntity
  8
0
100
AcDbEllipse
 62
7
  6
BYLAYER
 10
45.5144293692
 20
65.5246455102
 30
0.0
 11
23.8824165252
 21
-6.0931919811
 31
0.0
 40
0.3284744764
 41
0.9550302356
 42
0.9844011416
  0
ELLIPSE
  5
3A2
100
AcDbEntity
  8
0
100
AcDbEllipse
 62
7
  6
BYLAYER
 10
45.7901277319
 20
65.7128926462
 30
0.0
 11
23.4322780087
 21
-6.6194089738
 31
0.0
 40
0.2996367937
 41
0.9145032477
 42
0.9438741537
  0
ELLIPSE
  5
3A3
100
AcDbEntity
  8
0
100
AcDbEllipse
 62
7
  6
BYLAYER
 10
46.0909996988
 20
65.8575380627
 30
0.0
 11
22.9384634115
 21
-7.1071318569
 31
0.0
 40
0.2700871321
 41
0.8720138726
 42
0.9013847787
  0
ELLIPSE
  5
3A4
100
AcDbEntity
  8
0
100
AcDbEllipse
 62
7
  6
BYLAYER
 10
46.4147554525
 20
65.9574809208
 30
0.0
 11
22.4023710467
 21
-7.5601506281
 31
0.0
 40
0.2397500614
 41
0.8275363612
 42
0.8569072672
  0
ELLIPSE
  5
3A5
100
AcDbEntity
  8
0
100
AcDbEllipse
 62
7
  6
BYLAYER
 10
46.7589310165
 20
66.0119605949
 30
0.0
 11
21.8253467446
 21
-7.9824093347
 31
0.0
 40
0.2085456475
 41
0.7810034854
 42
0.8103743914
  0
ELLIPSE
  5
3A6
100
AcDbEntity
  8
0
100
AcDbEllipse
 62
7
  6
BYLAYER
 10
47.1209070066
 20
66.0205624618
 30
0.0
 11
21.2086646264
 21
-8.3781229955
 31
0.0
 40
0.1763950854
 41
0.7323030402
 42
0.7616739462
  0
ELLIPSE
  5
3A7
100
AcDbEntity
  8
0
100
AcDbEllipse
 62
7
  6
BYLAYER
 10
47.4979285672
 20
65.9832210561
 30
0.0
 11
20.5534890178
 21
-8.7518963634
 31
0.0
 40
0.1432282066
 41
0.6812724776
 42
0.7106433836
  0
ELLIPSE
  5
3A8
100
AcDbEntity
  8
0
100
AcDbEllipse
 62
7
  6
BYLAYER
 10
47.8871263365
 20
65.9002205685
 30
0.0
 11
19.8608157951
 21
-9.1088465383
 31
0.0
 40
0.1089938613
 41
0.6276915302
 42
0.6570624363
  0
ELLIPSE
  5
3A9
100
AcDbEntity
  8
0
100
AcDbEllipse
 62
7
  6
BYLAYER
 10
48.2855382844
 20
65.7721926828
 30
0.0
 11
19.1313901816
 21
-9.4547292795
 31
0.0
 40
0.0736745289
 41
0.5712728325
 42
0.6006437385
  0
ELLIPSE
  5
3AA
100
AcDbEntity
  8
0
100
AcDbEllipse
 62
7
  6
BYLAYER
 10
48.6901322555
 20
65.6001117684
 30
0.0
 11
18.3655976129
 21
-9.7960637338
 31
0.0
 40
0.0373069534
 41
0.5116509495
 42
0.5410218555
  0
ELLIPSE
  5
3AB
100
AcDbEntity
  8
0
100
AcDbEllipse
 62
7
  6
BYLAYER
 10
51.7809026382
 20
62.8594044865
 30
0.0
 11
-10.7787513254
 21
13.3562331417
 31
0.0
 40
0.23683038
 41
-3.0226316266
 42
-2.9932607206
  0
ELLIPSE
  5
3AC
100
AcDbEntity
  8
0
100
AcDbEllipse
 62
7
  6
BYLAYER
 10
49.0978290454
 20
54.5823479716
 30
0.0
 11
12.8520989679
 21
22.2604573694
 31
0.0
 40
0.5377493467
 41
-1.2276346747
 42
-1.1982637687
  0
ELLIPSE
  5
3AD
100
AcDbEntity
  8
0
100
AcDbEllipse
 62
7
  6
BYLAYER
 10
49.5055258352
 20
54.3675236683
 30
0.0
 11
11.9776042824
 21
22.7275228925
 31
0.0
 40
0.5138373942
 41
-1.206821066
 42
-1.17745016
  0
ELLIPSE
  5
3AE
100
AcDbEntity
  8
0
100
AcDbEllipse
 62
7
  6
BYLAYER
 10
49.9101198063
 20
54.195442754
 30
0.0
 11
11.1387686691
 21
23.1022219776
 31
0.0
 40
0.4891362233
 41
-1.1827355521
 42
-1.1533646461
  0
ELLIPSE
  5
3AF
100
AcDbEntity
  8
0
100
AcDbEllipse
 62
7
  6
BYLAYER
 10
50.3085317542
 20
54.0674148683
 30
0.0
 11
10.3320806258
 21
23.3913606125
 31
0.0
 40
0.4637684418
 41
-1.1557039313
 42
-1.1263330252
  0
ELLIPSE
  5
3B0
100
AcDbEntity
  8
0
100
AcDbEllipse
 62
7
  6
BYLAYER
 10
50.6977295235
 20
53.9844143807
 30
0.0
 11
9.5540106162
 21
23.6006986072
 31
0.0
 40
0.4378116585
 41
-1.1260040561
 42
-1.0966331501
  0
ELLIPSE
  5
3B1
100
AcDbEntity
  8
0
100
AcDbEllipse
 62
7
  6
BYLAYER
 10
51.0747510841
 20
53.947072975
 30
0.0
 11
8.8012013936
 21
23.7351411148
 31
0.0
 40
0.4113061279
 41
-1.0938644546
 42
-1.0644935486
  0
ELLIPSE
  5
3B2
100
AcDbEntity
  8
0
100
AcDbEllipse
 62
7
  6
BYLAYER
 10
51.4367270743
 20
53.9556748419
 30
0.0
 11
8.070537932
 21
23.798935309
 31
0.0
 40
0.384261262
 41
-1.0594659548
 42
-1.0300950488
  0
ELLIPSE
  5
3B3
100
AcDbEntity
  8
0
100
AcDbEllipse
 62
7
  6
BYLAYER
 10
51.7809026382
 20
54.010154516
 30
0.0
 11
7.3591439915
 21
23.7958488382
 31
0.0
 40
0.3566610828
 41
-1.0229443962
 42
-0.9935734902
  0
ELLIPSE
  5
3B4
100
AcDbEntity
  8
0
100
AcDbEllipse
 62
7
  6
BYLAYER
 10
52.104658392
 20
54.110097374
 30
0.0
 11
6.6643357711
 21
23.7293217161
 31
0.0
 40
0.3284688319
 41
-0.984393311
 42
-0.955022405
  0
ELLIPSE
  5
3B5
100
AcDbEntity
  8
0
100
AcDbEllipse
 62
7
  6
BYLAYER
 10
52.4055303589
 20
54.2547427906
 30
0.0
 11
5.9835511014
 21
23.6025907318
 31
0.0
 40
0.2996310152
 41
-0.9438659345
 42
-0.9144950285
  0
ELLIPSE
  5
3B6
100
AcDbEntity
  8
0
100
AcDbEllipse
 62
7
  6
BYLAYER
 10
52.6812287215
 20
54.4429899266
 30
0.0
 11
5.3142644707
 21
23.4187886534
 31
0.0
 40
0.2700812053
 41
-0.9013761696
 42
-0.8720052636
  0
ELLIPSE
  5
3B7
100
AcDbEntity
  8
0
100
AcDbEllipse
 62
7
  6
BYLAYER
 10
52.9296552489
 20
54.6734061078
 30
0.0
 11
4.6538927957
 21
23.1810214688
 31
0.0
 40
0.2397439709
 41
-0.8568982592
 42
-0.8275273532
  0
ELLIPSE
  5
3B8
100
AcDbEntity
  8
0
100
AcDbEllipse
 62
7
  6
BYLAYER
 10
53.1489192652
 20
54.9442377278
 30
0.0
 11
3.9996933207
 21
22.8924267498
 31
0.0
 40
0.2085393773
 41
-0.8103649669
 42
-0.7809940609
  0
ELLIPSE
  5
3B9
100
AcDbEntity
  8
0
100
AcDbEllipse
 62
7
  6
BYLAYER
 10
53.3373520387
 20
55.2534235946
 30
0.0
 11
3.3486527442
 21
22.5562154605
 31
0.0
 40
0.1763886204
 41
-0.7616640781
 42
-0.7322931721
  0
ELLIPSE
  5
3BA
100
AcDbEntity
  8
0
100
AcDbEllipse
 62
7
  6
BYLAYER
 10
53.4935194824
 20
55.5986106169
 30
0.0
 11
2.6973653227
 21
22.1756983519
 31
0.0
 40
0.1432215345
 41
-0.7106330344
 42
-0.6812621283
  0
ELLIPSE
  5
3BB
100
AcDbEntity
  8
0
100
AcDbEllipse
 62
7
  6
BYLAYER
 10
53.6162330677
 20
55.9771717131
 30
0.0
 11
2.0418973541
 21
21.7542964701
 31
0.0
 40
0.1089869747
 41
-0.6570515559
 42
-0.6276806499
  0
ELLIPSE
  5
3BC
100
AcDbEntity
  8
0
100
AcDbEllipse
 62
7
  6
BYLAYER
 10
53.7045588701
 20
56.3862258048
 30
0.0
 11
1.3776366849
 21
21.2955331191
 31
0.0
 40
0.0736674289
 41
-0.6006322628
 42
-0.5712613568
  0
ELLIPSE
  5
3BD
100
AcDbEntity
  8
0
100
AcDbEllipse
 62
7
  6
BYLAYER
 10
53.7578246769
 20
56.8226597431
 30
0.0
 11
0.6991301214
 21
20.8030017059
 31
0.0
 40
0.0372996543
 41
-0.5410097036
 42
-0.5116387976
  0
ELLIPSE
  5
3BE
100
AcDbEntity
  8
0
100
AcDbEllipse
 62
7
  6
BYLAYER
 10
53.7881819302
 20
66.1738053675
 30
0.0
 11
-0.738560584
 21
19.3561636224
 31
0.0
 40
0.0378742831
 41
1.0077638622
 42
1.0375330061
  0
ELLIPSE
  5
3BF
100
AcDbEntity
  8
0
100
AcDbEllipse
 62
7
  6
BYLAYER
 10
53.8259560596
 20
65.8206858264
 30
0.0
 11
-1.5147682668
 21
18.8367283507
 31
0.0
 40
0.0756528438
 41
0.9356422756
 42
0.9654114195
  0
ELLIPSE
  5
3C0
100
AcDbEntity
  8
0
100
AcDbEllipse
 62
7
  6
BYLAYER
 10
53.8885934343
 20
65.4582741014
 30
0.0
 11
-2.3367388861
 21
18.2941895852
 31
0.0
 40
0.1126596549
 41
0.8582724333
 42
0.8880415772
  0
ELLIPSE
  5
3C1
100
AcDbEntity
  8
0
100
AcDbEllipse
 62
7
  6
BYLAYER
 10
53.9756173458
 20
65.0893283646
 30
0.0
 11
-3.2123257538
 21
17.7296264656
 31
0.0
 40
0.1479502491
 41
0.7750379612
 42
0.804807105
  0
ELLIPSE
  5
3C2
100
AcDbEntity
  8
0
100
AcDbEllipse
 62
7
  6
BYLAYER
 10
54.0863654898
 20
64.7166565157
 30
0.0
 11
-4.1477955022
 21
17.1434487386
 31
0.0
 40
0.1802739303
 41
0.6854680855
 42
0.7152372294
  0
ELLIPSE
  5
3C3
100
AcDbEntity
  8
0
100
AcDbEllipse
 62
7
  6
BYLAYER
 10
48.6901322555
 20
54.8382807211
 30
0.0
 11
13.7653683003
 21
21.6930379501
 31
0.0
 40
0.5606959025
 41
-1.2448101526
 42
-1.2164162369
  0
ELLIPSE
  5
3C4
100
AcDbEntity
  8
0
100
AcDbEllipse
 62
7
  6
BYLAYER
 10
54.2199950059
 20
64.3430948127
 30
0.0
 11
-5.1456656161
 21
16.5357960789
 31
0.0
 40
0.2080931049
 41
0.5894355681
 42
0.6192047119
  0
ELLIPSE
  5
3C5
100
AcDbEntity
  8
0
100
AcDbEllipse
 62
7
  6
BYLAYER
 10
54.3754888928
 20
63.9714862856
 30
0.0
 11
-6.2021029088
 21
15.9076254626
 31
0.0
 40
0.2297016288
 41
0.4874053696
 42
0.5171745135
  0
ELLIPSE
  5
3C6
100
AcDbEntity
  8
0
100
AcDbEllipse
 62
7
  6
BYLAYER
 10
54.5516637483
 20
63.6046590996
 30
0.0
 11
-7.3049714108
 21
15.2624891818
 31
0.0
 40
0.2434735135
 41
0.3806461485
 42
0.4065815183
  0
ELLIPSE
  5
3C7
100
AcDbEntity
  8
0
100
AcDbEllipse
 62
7
  6
BYLAYER
 10
48.2855382844
 20
55.1333741142
 30
0.0
 11
14.719481364
 21
21.0161139063
 31
0.0
 40
0.5824385664
 41
-1.257959292
 42
-1.2303313439
  0
ELLIPSE
  5
3C8
100
AcDbEntity
  8
0
100
AcDbEllipse
 62
7
  6
BYLAYER
 10
47.8871263365
 20
55.4653823118
 30
0.0
 11
15.71445288
 21
20.2197073913
 31
0.0
 40
0.6026692941
 41
-1.2667078272
 42
-1.2403744802
  0
ELLIPSE
  5
3C9
100
AcDbEntity
  8
0
100
AcDbEllipse
 62
7
  6
BYLAYER
 10
47.4979285672
 20
55.8317785312
 30
0.0
 11
16.7468455804
 21
19.2939077364
 31
0.0
 40
0.6210078725
 41
-1.2707561777
 42
-1.2450269221
  0
ELLIPSE
  5
3CA
100
AcDbEntity
  8
0
100
AcDbEllipse
 62
7
  6
BYLAYER
 10
47.1209070066
 20
56.2297742758
 30
0.0
 11
17.8081045105
 21
18.2305988052
 31
0.0
 40
0.6370087165
 41
-1.2699697786
 42
-1.2447644781
  0
ELLIPSE
  5
3CB
100
AcDbEntity
  8
0
100
AcDbEllipse
 62
7
  6
BYLAYER
 10
54.9605459861
 20
62.8964582208
 30
0.0
 11
-9.5653680899
 21
13.9574572952
 31
0.0
 40
0.2434716519
 41
-3.5520294281
 42
-3.5222602842
  0
ELLIPSE
  5
3CC
100
AcDbEntity
  8
0
100
AcDbEllipse
 62
7
  6
BYLAYER
 10
55.1901415277
 20
62.5604743643
 30
0.0
 11
-10.6755039299
 21
13.3249240986
 31
0.0
 40
0.2296980766
 41
-3.6587878954
 42
-3.6290187515
  0
ELLIPSE
  5
3CD
100
AcDbEntity
  8
0
100
AcDbEllipse
 62
7
  6
BYLAYER
 10
55.4342180394
 20
62.2400105016
 30
0.0
 11
-11.7477287345
 21
12.7241207549
 31
0.0
 40
0.2080881539
 41
-3.7608170031
 42
-3.7310478592
  0
ELLIPSE
  5
3CE
100
AcDbEntity
  8
0
100
AcDbEllipse
 62
7
  6
BYLAYER
 10
55.6909179515
 20
61.9375055564
 30
0.0
 11
12.7728995674
 21
-12.1637800007
 31
0.0
 40
0.1802679208
 41
-0.7152556095
 42
-0.6854864656
  0
ELLIPSE
  5
3CF
100
AcDbEntity
  8
0
100
AcDbEllipse
 62
7
  6
BYLAYER
 10
55.9582876226
 20
61.6552617738
 30
0.0
 11
13.7482720826
 21
-11.6467418337
 31
0.0
 40
0.1479435082
 41
-0.8048242028
 42
-0.7750550589
  0
ELLIPSE
  5
3D0
100
AcDbEntity
  8
0
100
AcDbEllipse
 62
7
  6
BYLAYER
 10
56.2342922082
 20
61.3954271996
 30
0.0
 11
14.6749845951
 21
-11.1707553666
 31
0.0
 40
0.1126524607
 41
-0.8880574594
 42
-0.8582883155
  0
ELLIPSE
  5
3D1
100
AcDbEntity
  8
0
100
AcDbEllipse
 62
7
  6
BYLAYER
 10
56.5168311466
 20
61.1599793316
 30
0.0
 11
15.555815755
 21
-10.7301881851
 31
0.0
 40
0.075645413
 41
-0.9654261992
 42
-0.9356570553
  0
ELLIPSE
  5
3D2
100
AcDbEntity
  8
0
100
AcDbEllipse
 62
7
  6
BYLAYER
 10
56.803754146
 20
60.9507100704
 30
0.0
 11
16.3937576474
 21
-10.3176993668
 31
0.0
 40
0.0378667741
 41
-1.0375468103
 42
-1.0077776664
  0
ELLIPSE
  5
3D3
100
AcDbEntity
  8
0
100
AcDbEllipse
 62
7
  6
BYLAYER
 10
57.6689239515
 20
68.0394878101
 30
0.0
 11
14.1404275877
 21
20.2728289326
 31
0.0
 40
0.6024229982
 41
-1.9043570977
 42
-1.8745879538
  0
ELLIPSE
  5
3D4
100
AcDbEntity
  8
0
100
AcDbEllipse
 62
7
  6
BYLAYER
 10
55.6909179515
 20
68.8807684651
 30
0.0
 11
8.5894470919
 21
22.8388025077
 31
0.0
 40
0.4249108978
 41
-1.7315422176
 42
-1.7017730738
  0
ELLIPSE
  5
3D5
100
AcDbEntity
  8
0
100
AcDbEllipse
 62
7
  6
BYLAYER
 10
55.4342180394
 20
68.874668341
 30
0.0
 11
7.9024553998
 21
22.9069205658
 31
0.0
 40
0.3966858117
 41
-1.6959030448
 42
-1.6661339009
  0
ELLIPSE
  5
3D6
100
AcDbEntity
  8
0
100
AcDbEllipse
 62
7
  6
BYLAYER
 10
55.1901415277
 20
68.8360333819
 30
0.0
 11
7.2306756799
 21
22.9148275608
 31
0.0
 40
0.3678497859
 41
-1.6581944826
 42
-1.6284253387
  0
ELLIPSE
  5
3D7
100
AcDbEntity
  8
0
100
AcDbEllipse
 62
7
  6
BYLAYER
 10
57.9514628899
 20
67.8040399421
 30
0.0
 11
15.0860420609
 21
19.5192824082
 31
0.0
 40
0.6233201663
 41
-1.9139153407
 42
-1.8841461968
  0
ELLIPSE
  5
3D8
100
AcDbEntity
  8
0
100
AcDbEllipse
 62
7
  6
BYLAYER
 10
54.9605459861
 20
68.7651576234
 30
0.0
 11
6.5710751754
 21
22.8657625
 31
0.0
 40
0.3383778468
 41
-1.6185174929
 42
-1.5887483491
  0
ELLIPSE
  5
3D9
100
AcDbEntity
  8
0
100
AcDbEllipse
 62
7
  6
BYLAYER
 10
58.2274674755
 20
67.5442053679
 30
0.0
 11
16.0740002066
 21
18.6382543117
 31
0.0
 40
0.6422712193
 41
-1.918470146
 42
-1.8887010022
  0
ELLIPSE
  5
3DA
100
AcDbEntity
  8
0
100
AcDbEllipse
 62
7
  6
BYLAYER
 10
54.7471787751
 20
68.6625804727
 30
0.0
 11
5.9208257354
 21
22.7626851509
 31
0.0
 40
0.3082317889
 41
-1.5769309902
 42
-1.5471618463
  0
ELLIPSE
  5
3DB
100
AcDbEntity
  8
0
100
AcDbEllipse
 62
7
  6
BYLAYER
 10
54.5516637483
 20
68.5290826038
 30
0.0
 11
5.277216253
 21
22.6083774188
 31
0.0
 40
0.2773641221
 41
-1.5334533421
 42
-1.5036841982
  0
ELLIPSE
  5
3DC
100
AcDbEntity
  8
0
100
AcDbEllipse
 62
7
  6
BYLAYER
 10
54.3754888928
 20
68.3656800162
 30
0.0
 11
4.6375585468
 21
22.4055220844
 31
0.0
 40
0.2457221809
 41
-1.4880624903
 42
-1.4582933464
  0
ELLIPSE
  5
3DD
100
AcDbEntity
  8
0
100
AcDbEllipse
 62
7
  6
BYLAYER
 10
54.2199950059
 20
68.1736163022
 30
0.0
 11
3.9990874935
 21
22.1567625074
 31
0.0
 40
0.2132528315
 41
-1.4406945771
 42
-1.4109254332
  0
ELLIPSE
  5
3DE
100
AcDbEntity
  8
0
100
AcDbEllipse
 62
7
  6
BYLAYER
 10
54.0863654898
 20
67.9543531826
 30
0.0
 11
3.358854402
 21
21.8647458064
 31
0.0
 40
0.1799083165
 41
-1.3912409812
 42
-1.3614718373
  0
ELLIPSE
  5
3DF
100
AcDbEntity
  8
0
100
AcDbEllipse
 62
7
  6
BYLAYER
 10
58.4948371466
 20
67.2619615853
 30
0.0
 11
17.0970456043
 21
17.6195982925
 31
0.0
 40
0.658822818
 41
-1.9178047807
 42
-1.8880356368
  0
ELLIPSE
  5
3E0
100
AcDbEntity
  8
0
100
AcDbEllipse
 62
7
  6
BYLAYER
 10
53.9756173458
 20
67.7095593823
 30
0.0
 11
2.7136118285
 21
21.5321506385
 31
0.0
 40
0.1456539223
 41
-1.3395436911
 42
-1.3097745472
  0
ELLIPSE
  5
3E1
100
AcDbEntity
  8
0
100
AcDbEllipse
 62
7
  6
BYLAYER
 10
53.8885934343
 20
67.4410979297
 30
0.0
 11
2.0596883802
 21
21.1616989884
 31
0.0
 40
0.1104783762
 41
-1.2853890178
 42
-1.2556198739
  0
ELLIPSE
  5
3E2
100
AcDbEntity
  8
0
100
AcDbEllipse
 62
7
  6
BYLAYER
 10
57.3820009521
 20
60.6168666738
 30
0.0
 11
17.9503226148
 21
-9.5458470099
 31
0.0
 40
0.0375345275
 41
1.1387702134
 42
1.1685393573
  0
ELLIPSE
  5
3E3
100
AcDbEntity
  8
0
100
AcDbEllipse
 62
7
  6
BYLAYER
 10
57.6689239515
 20
60.4948332882
 30
0.0
 11
18.6718714293
 21
-9.1718501484
 31
0.0
 40
0.074415375
 41
1.1987422684
 42
1.2285114123
  0
ELLIPSE
  5
3E4
100
AcDbEntity
  8
0
100
AcDbEllipse
 62
7
  6
BYLAYER
 10
57.9514628899
 20
60.4040406724
 30
0.0
 11
19.3564995502
 21
-8.7971324392
 31
0.0
 40
0.1104854318
 41
1.2556308579
 42
1.2854000018
  0
ELLIPSE
  5
3E5
100
AcDbEntity
  8
0
100
AcDbEllipse
 62
7
  6
BYLAYER
 10
58.2274674755
 20
60.345179813
 30
0.0
 11
20.0042764695
 21
-8.4160455158
 31
0.0
 40
0.1456607967
 41
1.3097850194
 42
1.3395541633
  0
ELLIPSE
  5
3E6
100
AcDbEntity
  8
0
100
AcDbEllipse
 62
7
  6
BYLAYER
 10
58.4948371466
 20
60.3186986766
 30
0.0
 11
20.6149282535
 21
-8.0235470724
 31
0.0
 40
0.1799150085
 41
1.3614818461
 42
1.3912509899
  0
ELLIPSE
  5
3E7
100
AcDbEntity
  8
0
100
AcDbEllipse
 62
7
  6
BYLAYER
 10
58.7515370587
 20
60.3247988008
 30
0.0
 11
21.1879332732
 21
-7.6150966827
 31
0.0
 40
0.2132593463
 41
1.410935015
 42
1.4407041589
  0
ELLIPSE
  5
3E8
100
AcDbEntity
  8
0
100
AcDbEllipse
 62
7
  6
BYLAYER
 10
58.9956135703
 20
60.3634337598
 30
0.0
 11
21.7225954581
 21
-7.1865427116
 31
0.0
 40
0.2457285267
 41
1.4583025276
 42
1.4880716714
  0
ELLIPSE
  5
3E9
100
AcDbEntity
  8
0
100
AcDbEllipse
 62
7
  6
BYLAYER
 10
59.225209112
 20
60.4343095183
 30
0.0
 11
22.2180966816
 21
-6.7340079971
 31
0.0
 40
0.2773703094
 41
1.5036929955
 42
1.5334621394
  0
ELLIPSE
  5
3EA
100
AcDbEntity
  8
0
100
AcDbEllipse
 62
7
  6
BYLAYER
 10
59.4385763229
 20
60.536886669
 30
0.0
 11
22.6735302925
 21
-6.2537762083
 31
0.0
 40
0.3082378281
 41
1.5471702683
 42
1.5769394122
  0
ELLIPSE
  5
3EB
100
AcDbEntity
  8
0
100
AcDbEllipse
 62
7
  6
BYLAYER
 10
59.6340913498
 20
60.6703845379
 30
0.0
 11
23.0879170304
 21
-5.7421779141
 31
0.0
 40
0.3383837481
 41
1.5887563961
 42
1.61852554
  0
ELLIPSE
  5
3EC
100
AcDbEntity
  8
0
100
AcDbEllipse
 62
7
  6
BYLAYER
 10
59.8102662052
 20
60.8337871255
 30
0.0
 11
23.4602032511
 21
-5.1954742436
 31
0.0
 40
0.3678555579
 41
1.6284330032
 42
1.6582021471
  0
ELLIPSE
  5
3ED
100
AcDbEntity
  8
0
100
AcDbEllipse
 62
7
  6
BYLAYER
 10
59.9657600922
 20
61.0258508395
 30
0.0
 11
23.7892397943
 21
-4.6097360067
 31
0.0
 40
0.3966914607
 41
1.666141167
 42
1.6959103109
  0
ELLIPSE
  5
3EE
100
AcDbEntity
  8
0
100
AcDbEllipse
 62
7
  6
BYLAYER
 10
60.0993896083
 20
61.2451139591
 30
0.0
 11
24.0737379637
 21
-3.9807171728
 31
0.0
 40
0.4249164272
 41
1.7017799172
 42
1.7315490611
  0
ELLIPSE
  5
3EF
100
AcDbEntity
  8
0
100
AcDbEllipse
 62
7
  6
BYLAYER
 10
60.2101377522
 20
61.4899077594
 30
0.0
 11
24.3121969692
 21
-3.3037240113
 31
0.0
 40
0.4525380327
 41
1.7352035145
 42
1.7649726584
  0
ELLIPSE
  5
3F0
100
AcDbEntity
  8
0
100
AcDbEllipse
 62
7
  6
BYLAYER
 10
60.2971616638
 20
61.758369212
 30
0.0
 11
24.502794857
 21
-2.5734857904
 31
0.0
 40
0.4795417348
 41
1.7662177942
 42
1.7959869381
  0
ELLIPSE
  5
3F1
100
AcDbEntity
  8
0
100
AcDbEllipse
 62
7
  6
BYLAYER
 10
60.3597990384
 20
62.048455163
 30
0.0
 11
24.6432328068
 21
-1.7840411968
 31
0.0
 40
0.5058852725
 41
1.7945761185
 42
1.8243452623
  0
ELLIPSE
  5
3F2
100
AcDbEntity
  8
0
100
AcDbEllipse
 62
7
  6
BYLAYER
 10
60.3975731679
 20
62.3579578832
 30
0.0
 11
24.7305217616
 21
-0.9286688719
 31
0.0
 40
0.5314919031
 41
1.8199759772
 42
1.8497451211
  0
ELLIPSE
  5
3F3
100
AcDbEntity
  8
0
100
AcDbEllipse
 62
7
  6
BYLAYER
 10
60.4101965683
 20
62.68452187
 30
0.0
 11
24.7607031609
 21
0.0000861829
 31
0.0
 40
0.5562423032
 41
1.8420581444
 42
1.8718272883
  0
ELLIPSE
  5
3F4
100
AcDbEntity
  8
0
100
AcDbEllipse
 62
7
  6
BYLAYER
 10
60.3975731679
 20
63.0256617742
 30
0.0
 11
24.7285072235
 21
1.0102028488
 31
0.0
 40
0.5799651978
 41
1.8604117045
 42
1.8901808484
  0
ELLIPSE
  5
3F5
100
AcDbEntity
  8
0
100
AcDbEllipse
 62
7
  6
BYLAYER
 10
60.3597990384
 20
63.3787813153
 30
0.0
 11
24.6269820389
 21
2.1096547814
 31
0.0
 40
0.6024273025
 41
1.8745903182
 42
1.904359462
  0
ELLIPSE
  5
3F6
100
AcDbEntity
  8
0
100
AcDbEllipse
 62
7
  6
BYLAYER
 10
60.2971616638
 20
63.7411930403
 30
0.0
 11
24.4471885025
 21
3.3053747312
 31
0.0
 40
0.6233241255
 41
1.8841476047
 42
1.9139167486
  0
ELLIPSE
  5
3F7
100
AcDbEntity
  8
0
100
AcDbEllipse
 62
7
  6
BYLAYER
 10
60.2101377522
 20
64.1101387772
 30
0.0
 11
24.1781626933
 21
4.6015070124
 31
0.0
 40
0.6422747504
 41
1.8887013903
 42
1.9184705342
  0
ELLIPSE
  5
3F8
100
AcDbEntity
  8
0
100
AcDbEllipse
 62
7
  6
BYLAYER
 10
60.0993896083
 20
64.482810626
 30
0.0
 11
23.8074892293
 21
5.9968392568
 31
0.0
 40
0.658825825
 41
1.8880349872
 42
1.9178041311
  0
ELLIPSE
  5
3F9
100
AcDbEntity
  8
0
100
AcDbEllipse
 62
7
  6
BYLAYER
 10
59.9657600922
 20
64.856372329
 30
0.0
 11
23.322928028
 21
7.4816398014
 31
0.0
 40
0.6724718307
 41
1.8822336013
 42
1.9120027452
  0
ELLIPSE
  5
3FA
100
AcDbEntity
  8
0
100
AcDbEllipse
 62
7
  6
BYLAYER
 10
59.8102662052
 20
65.2279808562
 30
0.0
 11
22.7153962807
 21
9.0347748667
 31
0.0
 40
0.6826982561
 41
1.8718306187
 42
1.9015997626
  0
ELLIPSE
  5
3FB
100
AcDbEntity
  8
0
100
AcDbEllipse
 62
7
  6
BYLAYER
 10
59.6340913498
 20
65.5948080421
 30
0.0
 11
21.9829775565
 21
10.6227189975
 31
0.0
 40
0.6890485459
 41
1.8579057684
 42
1.8717762897
  0
ELLIPSE
  5
3FC
100
AcDbEntity
  8
0
100
AcDbEllipse
 62
7
  6
BYLAYER
 10
53.8259560596
 20
67.1510119787
 30
0.0
 11
1.3928541488
 21
20.7561492695
 31
0.0
 40
0.0744081482
 41
-1.2284998547
 42
-1.1987307108
  0
ELLIPSE
  5
3FD
100
AcDbEntity
  8
0
100
AcDbEllipse
 62
7
  6
BYLAYER
 10
53.7881819302
 20
66.8415092585
 30
0.0
 11
0.7081826227
 21
20.3182655047
 31
0.0
 40
0.0375271535
 41
-1.1685271495
 42
-1.1387580056
  0
ELLIPSE
  5
3FE
100
AcDbEntity
  8
0
100
AcDbEllipse
 62
7
  6
BYLAYER
 10
58.7515370587
 20
66.9594566401
 30
0.0
 11
18.1406319092
 21
16.4575787867
 31
0.0
 40
0.6724694506
 41
-1.9120043757
 42
-1.8822352318
  0
ELLIPSE
  5
3FF
100
AcDbEntity
  8
0
100
AcDbEllipse
 62
7
  6
BYLAYER
 10
46.7589310165
 20
56.6563405579
 30
0.0
 11
18.8830383564
 21
17.0261783987
 31
0.0
 40
0.6501830562
 41
-1.2644941753
 42
-1.2395961221
  0
ELLIPSE
  5
400
100
AcDbEntity
  8
0
100
AcDbEllipse
 62
7
  6
BYLAYER
 10
58.9956135703
 20
66.6389927774
 30
0.0
 11
19.1819169606
 21
15.154894765
 31
0.0
 40
0.6826966015
 41
-1.9016022161
 42
-1.8718330722
  0
ELLIPSE
  5
401
100
AcDbEntity
  8
0
100
AcDbEllipse
 62
7
  6
BYLAYER
 10
46.4147554525
 20
57.1082309503
 30
0.0
 11
19.9492334654
 21
15.6850161551
 31
0.0
 40
0.6600413929
 41
-1.254871012
 42
-1.225500106
  0
ELLIPSE
  5
402
100
AcDbEntity
  8
0
100
AcDbEllipse
 62
7
  6
BYLAYER
 10
59.225209112
 20
66.3030089209
 30
0.0
 11
20.1909098344
 21
13.7266466844
 31
0.0
 40
0.6890476962
 41
-1.8713782242
 42
-1.8579087761
  0
ELLIPSE
  5
403
100
AcDbEntity
  8
0
100
AcDbEllipse
 62
7
  6
BYLAYER
 10
45.0467388256
 20
59.6219279622
 30
0.0
 11
24.1865506121
 21
7.8402871916
 31
0.0
 40
0.6501853522
 41
1.2395947691
 42
1.2644926549
  0
ELLIPSE
  5
404
100
AcDbEntity
  8
0
100
AcDbEllipse
 62
7
  6
BYLAYER
 10
57.092877549
 20
68.4302550604
 30
0.0
 11
12.380371053
 21
21.4433867095
 31
0.0
 40
0.5562374973
 41
-1.8718232704
 42
-1.8420541266
  0
ELLIPSE
  5
405
100
AcDbEntity
  8
0
100
AcDbEllipse
 62
7
  6
BYLAYER
 10
56.803754146
 20
68.5826004679
 30
0.0
 11
11.5609645157
 21
21.8816127571
 31
0.0
 40
0.5314869125
 41
-1.8497404071
 42
-1.8199712632
  0
ELLIPSE
  5
406
100
AcDbEntity
  8
0
100
AcDbEllipse
 62
7
  6
BYLAYER
 10
56.5168311466
 20
68.7046338535
 30
0.0
 11
10.7765541815
 21
22.2336922154
 31
0.0
 40
0.5058801257
 41
-1.8243399288
 42
-1.7945707849
  0
ELLIPSE
  5
407
100
AcDbEntity
  8
0
100
AcDbEllipse
 62
7
  6
BYLAYER
 10
57.3820009521
 20
68.2487570713
 30
0.0
 11
13.2390488645
 21
20.9104611346
 31
0.0
 40
0.5799606162
 41
-1.8901776123
 42
-1.8604084684
  0
ELLIPSE
  5
408
100
AcDbEntity
  8
0
100
AcDbEllipse
 62
7
  6
BYLAYER
 10
56.2342922082
 20
68.7954264693
 30
0.0
 11
10.0226631519
 21
22.5067805604
 31
0.0
 40
0.479536451
 41
-1.7959810505
 42
-1.7662119067
  0
ELLIPSE
  5
409
100
AcDbEntity
  8
0
100
AcDbEllipse
 62
7
  6
BYLAYER
 10
55.9582876226
 20
68.8542873287
 30
0.0
 11
9.2949651699
 21
22.7068268769
 31
0.0
 40
0.4525326233
 41
-1.7649662711
 42
-1.7351971272
  0
ENDSEC
  0
SECTION
  2
OBJECTS
  0
DICTIONARY
  5
C
100
AcDbDictionary
280
0
281
1
  3
ACAD_GROUP
350
D
  3
ACAD_MLINESTYLE
350
17
  3
ACAD_LAYOUT
350
1A
  3
ACAD_PLOTSETTINGS
350
19
  3
ACAD_PLOTSTYLENAME
350
E
  0
DICTIONARY
  5
D
102
{ACAD_REACTORS
330
C
102
}
100
AcDbDictionary
280
0
281
1
  0
ACDBDICTIONARYWDFLT
  5
E
102
{ACAD_REACTORS
330
C
102
}
100
AcDbDictionary
281
1
  3
Normal
350
F
100
AcDbDictionaryWithDefault
340
F
  0
DICTIONARY
  5
17
102
{ACAD_REACTORS
330
C
102
}
100
AcDbDictionary
280
0
281
1
  3
Standard
350
18
  0
DICTIONARY
  5
19
102
{ACAD_REACTORS
330
C
102
}
100
AcDbDictionary
281
1
  0
DICTIONARY
  5
1A
102
{ACAD_REACTORS
330
C
102
}
100
AcDbDictionary
281
1
  3
Model
350
40A
  3
Layout1
350
40B
  0
ACDBPLACEHOLDER
  5
F
102
{ACAD_REACTORS
330
E
102
}
  0
MLINESTYLE
  5
18
102
{ACAD_REACTORS
330
17
102
}
100
AcDbMlineStyle
  2
STANDARD
 70
0
  3

 62
256
 51
90.0
 52
90.0
 71
2
 49
0.5
 62
256
  6
BYLAYER
 49
-0.5
 62
256
  6
BYLAYER
  0
LAYOUT
  5
40A
102
{ACAD_REACTORS
330
1A
102
}
100
AcDbPlotSettings
  1

  2
none_device
  4

  6

 40
0.0
 41
0.0
 42
0.0
 43
0.0
 44
210.0
 45
297.0
 46
0.0
 47
0.0
 48
0.0
 49
0.0
140
0.0
141
0.0
142
1.0
143
1.0
 70
1024
 72
1
 73
0
 74
0
  7

 75
0
147
1.0
148
0.0
149
0.0
100
AcDbLayout
  1
Model
 70
0
 71
0
 10
0.0
 20
0.0
 11
210.0
 21
297.0
 12
0.0
 22
0.0
 32
0.0
 14
0.0
 24
0.0
 34
0.0
 15
0.0
 25
0.0
 35
0.0
146
0.0
 13
0.0
 23
0.0
 33
0.0
 16
1.0
 26
0.0
 36
0.0
 17
0.0
 27
1.0
 37
0.0
 76
0
330
210
345
0
346
0
  0
LAYOUT
  5
40B
102
{ACAD_REACTORS
330
1A
102
}
100
AcDbPlotSettings
  1

  2
none_device
  4

  6

 40
0.0
 41
0.0
 42
0.0
 43
0.0
 44
210.0
 45
297.0
 46
0.0
 47
0.0
 48
0.0
 49
0.0
140
0.0
141
0.0
142
1.0
143
1.0
 70
0
 72
1
 73
0
 74
0
  7

 75
0
147
1.0
148
0.0
149
0.0
100
AcDbLayout
  1
Layout1
 70
0
 71
1
 10
0.0
 20
0.0
 11
210.0
 21
297.0
 12
0.0
 22
0.0
 32
0.0
 14
0.0
 24
0.0
 34
0.0
 15
0.0
 25
0.0
 35
0.0
146
0.0
 13
0.0
 23
0.0
 33
0.0
 16
1.0
 26
0.0
 36
0.0
 17
0.0
 27
1.0
 37
0.0
 76
0
330
211
345
0
346
0
  0
ENDSEC
  0
EOF
