999
DXF file: C:\Users\sesa63760\Dev\_Creo\CAD\MCADID0004992_3D-CAD\drw0001_1.dxf
999
Pro/ENGINEER 2019471 by Parametric Technology Corporation
  0
SECTION
  2
HEADER
  9
$ACADVER
  1
AC1024
  9
$DWGCODEPAGE
  3
ANSI_1252
  9
$EXTMAX
 10
46.13179661
 20
65.2435409198
 30
0.0
  9
$EXTMIN
 10
0.0
 20
0.0
 30
0.0
  9
$LIMMIN
 10
0.0
 20
0.0
  9
$LIMMAX
 10
46.13179661
 20
65.2435409198
  9
$VIEWCTR
 10
23.065898305
 20
32.6217704599
  9
$VIEWSIZE
 40
65.2435409198
  9
$CLAYER
  8
0
  9
$LTSCALE
 40
4.252912297
  9
$CELTYPE
  6
BYLAYER
  9
$DIMSCALE
 40
1.0
  9
$DIMASZ
 40
0.5491880549
  9
$DIMEXO
 40
1.0
  9
$DIMDLI
 40
2.9383757688
  9
$DIMEXE
 40
1.0
  9
$DIMCEN
 40
0.6959311031
  9
$DIMLFAC
 40
1.0
  9
$DIMBLK
  1
_FILLED
  9
$DIMALT
 70
0
  9
$DIMALTF
 40
0.0393700787
  9
$DIMTXT
 40
0.7688632768
  9
$DIMTOL
 70
1
  9
$DIMLIM
 70
0
  9
$DIMTFAC
 40
1.0
  9
$DIMTP
 40
0.01
  9
$DIMTM
 40
0.01
  9
$DIMGAP
 40
0.625
  9
$DIMDSEP
 70
46
  9
$AUNITS
 70
0
  9
$PDMODE
 70
3
  9
$PDSIZE
 40
0.3125
  9
$HANDSEED
  5
2F7
  9
$TILEMODE
 70
1
  9
$MEASUREMENT
 70
1
  9
$INSUNITS
 70
4
  0
ENDSEC
  0
SECTION
  2
CLASSES
  0
CLASS
  1
ACDBDICTIONARYWDFLT
  2
AcDbDictionaryWithDefault
  3
AutoCAD 2000
 90
0
 91
1
280
0
281
0
  0
CLASS
  1
ACDBPLACEHOLDER
  2
AcDbPlaceHolder
  3
AutoCAD 2000
 90
0
 91
1
280
0
281
0
  0
CLASS
  1
LAYOUT
  2
AcDbLayout
  3
AutoCAD 2000
 90
0
 91
0
280
0
281
0
  0
ENDSEC
  0
SECTION
  2
TABLES
  0
TABLE
  2
VPORT
  5
8
100
AcDbSymbolTable
 70
2
  0
VPORT
  5
1F4
100
AcDbSymbolTableRecord
100
AcDbViewportTableRecord
  2
*ACTIVE
 70
0
 10
0.0
 20
0.0
 11
1.0
 21
1.0
 12
23.065898305
 22
32.6217704599
 13
0.0
 23
0.0
 14
1.0
 24
1.0
 15
0.0
 25
0.0
 16
0.0
 26
0.0
 36
1.0
 17
0.0
 27
0.0
 37
0.0
 40
65.2435409198
 41
0.7070707071
 42
50.0
 43
0.0
 44
0.0
 50
0.0
 51
0.0
 71
0
 72
100
 73
1
 74
1
 75
0
 76
0
 77
0
 78
0
  0
ENDTAB
  0
TABLE
  2
LTYPE
  5
5
100
AcDbSymbolTable
 70
6
  0
LTYPE
  5
14
100
AcDbSymbolTableRecord
100
AcDbLinetypeTableRecord
  2
BYBLOCK
 70
0
  3

 72
65
 73
0
 40
0.0
  0
LTYPE
  5
15
100
AcDbSymbolTableRecord
100
AcDbLinetypeTableRecord
  2
BYLAYER
 70
0
  3

 72
65
 73
0
 40
0.0
  0
LTYPE
  5
16
100
AcDbSymbolTableRecord
100
AcDbLinetypeTableRecord
  2
CONTINUOUS
 70
64
  3
Solid line
 72
65
 73
0
 40
0.0
  0
LTYPE
  5
1F5
100
AcDbSymbolTableRecord
100
AcDbLinetypeTableRecord
  2
CENTER
 70
64
  3
____ _ ____ _ ____ _ ____ _ ____ _ ____ _ ____
 72
65
 73
4
 40
0.6
 49
0.375
 74
0
 49
-0.075
 74
0
 49
0.075
 74
0
 49
-0.075
 74
0
  0
LTYPE
  5
1F6
100
AcDbSymbolTableRecord
100
AcDbLinetypeTableRecord
  2
HIDDEN
 70
64
  3
- - - - - - - - - - - - - - - - - - - -
 72
65
 73
2
 40
0.2
 49
0.1
 74
0
 49
-0.1
 74
0
  0
LTYPE
  5
1F7
100
AcDbSymbolTableRecord
100
AcDbLinetypeTableRecord
  2
PHANTOM
 70
64
  3
_____ _ _ _____ _ _ _____ _ _ _____
 72
65
 73
6
 40
0.8
 49
0.45
 74
0
 49
-0.05
 74
0
 49
0.1
 74
0
 49
-0.05
 74
0
 49
0.1
 74
0
 49
-0.05
 74
0
  0
LTYPE
  5
1F8
100
AcDbSymbolTableRecord
100
AcDbLinetypeTableRecord
  2
DOT
 70
64
  3
. . . . . . . . . . . . . . . . . . . .
 72
65
 73
2
 40
0.2
 49
0.1
 74
0
 49
-0.1
 74
0
  0
LTYPE
  5
1F9
100
AcDbSymbolTableRecord
100
AcDbLinetypeTableRecord
  2
DASHED
 70
64
  3
- - - - - - - - - - - - - - - - - - - -
 72
65
 73
2
 40
0.2
 49
0.1
 74
0
 49
-0.1
 74
0
  0
ENDTAB
  0
TABLE
  2
LAYER
  5
2
100
AcDbSymbolTable
 70
36
  0
LAYER
  5
10
100
AcDbSymbolTableRecord
100
AcDbLayerTableRecord
  2
0
 70
0
 62
7
  6
CONTINUOUS
370
-3
390
F
  0
LAYER
  5
1FA
100
AcDbSymbolTableRecord
100
AcDbLayerTableRecord
  2
DEFAULT_1
 70
0
 62
7
  6
CENTER
370
-3
390
F
  0
LAYER
  5
1FB
100
AcDbSymbolTableRecord
100
AcDbLayerTableRecord
  2
DEFAULT_2
 70
0
 62
7
  6
HIDDEN
370
-3
390
F
  0
LAYER
  5
1FC
100
AcDbSymbolTableRecord
100
AcDbLayerTableRecord
  2
DEFAULT_3
 70
0
 62
7
  6
PHANTOM
370
-3
390
F
  0
LAYER
  5
1FD
100
AcDbSymbolTableRecord
100
AcDbLayerTableRecord
  2
00_COMPONENTS
 70
0
 62
7
  6
CONTINUOUS
370
-3
390
F
  0
LAYER
  5
1FE
100
AcDbSymbolTableRecord
100
AcDbLayerTableRecord
  2
01_1_DEFAULT_DATUMS
 70
0
 62
7
  6
CONTINUOUS
370
-3
390
F
  0
LAYER
  5
1FF
100
AcDbSymbolTableRecord
100
AcDbLayerTableRecord
  2
01_PLANES
 70
0
 62
7
  6
CONTINUOUS
370
-3
390
F
  0
LAYER
  5
200
100
AcDbSymbolTableRecord
100
AcDbLayerTableRecord
  2
02_COORD_SYS
 70
0
 62
7
  6
CONTINUOUS
370
-3
390
F
  0
LAYER
  5
201
100
AcDbSymbolTableRecord
100
AcDbLayerTableRecord
  2
03_AXES
 70
0
 62
7
  6
CONTINUOUS
370
-3
390
F
  0
LAYER
  5
202
100
AcDbSymbolTableRecord
100
AcDbLayerTableRecord
  2
04_POINTS
 70
0
 62
7
  6
CONTINUOUS
370
-3
390
F
  0
LAYER
  5
203
100
AcDbSymbolTableRecord
100
AcDbLayerTableRecord
  2
05_CURVES
 70
0
 62
7
  6
CONTINUOUS
370
-3
390
F
  0
LAYER
  5
204
100
AcDbSymbolTableRecord
100
AcDbLayerTableRecord
  2
06_SURFS
 70
0
 62
7
  6
CONTINUOUS
370
-3
390
F
  0
LAYER
  5
205
100
AcDbSymbolTableRecord
100
AcDbLayerTableRecord
  2
07_COSMETICS
 70
0
 62
7
  6
CONTINUOUS
370
-3
390
F
  0
LAYER
  5
206
100
AcDbSymbolTableRecord
100
AcDbLayerTableRecord
  2
10_NOTES
 70
0
 62
7
  6
CONTINUOUS
370
-3
390
F
  0
LAYER
  5
207
100
AcDbSymbolTableRecord
100
AcDbLayerTableRecord
  2
11_NOTES_PUB
 70
0
 62
7
  6
CONTINUOUS
370
-3
390
F
  0
LAYER
  5
208
100
AcDbSymbolTableRecord
100
AcDbLayerTableRecord
  2
13_REF_GTOL
 70
0
 62
7
  6
CONTINUOUS
370
-3
390
F
  0
LAYER
  5
209
100
AcDbSymbolTableRecord
100
AcDbLayerTableRecord
  2
16_MISC
 70
0
 62
7
  6
CONTINUOUS
370
-3
390
F
  0
LAYER
  5
20A
100
AcDbSymbolTableRecord
100
AcDbLayerTableRecord
  2
17_NO_PRINT
 70
0
 62
7
  6
CONTINUOUS
370
-3
390
F
  0
LAYER
  5
20B
100
AcDbSymbolTableRecord
100
AcDbLayerTableRecord
  2
18_DATUM_CAMS_JOINTS
 70
0
 62
7
  6
CONTINUOUS
370
-3
390
F
  0
LAYER
  5
20C
100
AcDbSymbolTableRecord
100
AcDbLayerTableRecord
  2
19_DATUM_FUNCTIONAL
 70
0
 62
7
  6
CONTINUOUS
370
-3
390
F
  0
LAYER
  5
20D
100
AcDbSymbolTableRecord
100
AcDbLayerTableRecord
  2
20_DATUM_KINEMATIC_SCHEME
 70
0
 62
7
  6
CONTINUOUS
370
-3
390
F
  0
ENDTAB
  0
TABLE
  2
STYLE
  5
3
100
AcDbSymbolTable
 70
1
  0
STYLE
  5
11
100
AcDbSymbolTableRecord
100
AcDbTextStyleTableRecord
  2
STANDARD
 70
0
 40
0.0
 41
1.0
 50
0.0
 71
0
 42
0.2
  3
ARIAL.TTF
  4

  0
STYLE
  5
20E
100
AcDbSymbolTableRecord
100
AcDbTextStyleTableRecord
  2
TEXTSTYLE_1
 70
0
 40
0.0
 41
0.8
 50
0.0
 71
0
 42
0.2
  3
gdt
  4

  0
ENDTAB
  0
TABLE
  2
VIEW
  5
6
100
AcDbSymbolTable
 70
0
  0
ENDTAB
  0
TABLE
  2
UCS
  5
7
100
AcDbSymbolTable
 70
0
  0
ENDTAB
  0
TABLE
  2
APPID
  5
9
100
AcDbSymbolTable
 70
1
  0
APPID
  5
20F
100
AcDbSymbolTableRecord
100
AcDbRegAppTableRecord
  2
ACAD
 70
0
  0
ENDTAB
  0
TABLE
  2
BLOCK_RECORD
  5
1
100
AcDbSymbolTable
 70
0
  0
BLOCK_RECORD
  5
210
100
AcDbSymbolTableRecord
100
AcDbBlockTableRecord
  2
*Model_Space
  0
BLOCK_RECORD
  5
211
100
AcDbSymbolTableRecord
100
AcDbBlockTableRecord
  2
*Paper_Space
  0
BLOCK_RECORD
  5
212
100
AcDbSymbolTableRecord
100
AcDbBlockTableRecord
  2
_FILLED
  0
ENDTAB
  0
TABLE
  2
DIMSTYLE
  5
A
100
AcDbSymbolTable
 70
1
100
AcDbDimStyleTable
 71
0
  0
DIMSTYLE
105
213
100
AcDbSymbolTableRecord
100
AcDbDimStyleTableRecord
  2
STANDARD
 70
0
  3

  4

 40
1.0
 41
0.5491880549
 42
1.0
 43
0.38
 44
1.0
 45
0.0
 46
0.0
 47
0.01
 48
0.01
140
0.7688632768
141
0.09
142
0.0
143
25.4
144
1.0
145
0.0
146
1.0
147
0.625
 71
1
 72
0
 73
0
 74
0
 75
0
 76
0
 77
1
 78
8
 79
2
170
0
171
1
172
0
173
0
174
0
175
0
176
0
177
0
178
0
270
2
179
2
271
2
272
2
273
2
274
2
275
0
280
0
281
0
282
0
283
1
284
8
285
0
286
0
287
3
288
0
340
11
278
46
341
212
342
212
343
212
344
212
  0
ENDTAB
  0
ENDSEC
  0
SECTION
  2
BLOCKS
  0
BLOCK
  5
20
100
AcDbEntity
  8
0
100
AcDbBlockBegin
  2
*Model_Space
 70
0
 10
0.0
 20
0.0
 30
0.0
  3
*Model_Space
  1

  0
ENDBLK
  5
21
100
AcDbEntity
  8
0
100
AcDbBlockEnd
  0
BLOCK
  5
1C
100
AcDbEntity
  8
0
100
AcDbBlockBegin
  2
*Paper_Space
 70
0
 10
0.0
 20
0.0
 30
0.0
  3
*Paper_Space
  1

  0
ENDBLK
  5
1D
100
AcDbEntity
  8
0
100
AcDbBlockEnd
  0
BLOCK
  5
214
100
AcDbEntity
  8
0
100
AcDbBlockBegin
  2
_FILLED
 70
64
 10
0.0
 20
0.0
  3
_FILLED
  1

  0
SOLID
  5
215
100
AcDbEntity
  8
0
  6
BYBLOCK
 62
0
100
AcDbTrace
 10
0.0
 20
0.0
 11
-1.0
 21
0.25
 12
-1.0
 22
-0.25
 13
-1.0
 23
-0.25
  0
ENDBLK
  5
216
100
AcDbEntity
  8
0
  6
BYBLOCK
 62
0
100
AcDbBlockEnd
  0
ENDSEC
  0
SECTION
  2
ENTITIES
  0
LINE
  5
217
100
AcDbEntity
  8
0
100
AcDbLine
 62
7
  6
BYLAYER
 10
14.2614017025
 20
11.122145748
 11
5.3518191657
 21
16.2659792549
  0
LINE
  5
218
100
AcDbEntity
  8
0
100
AcDbLine
 62
7
  6
BYLAYER
 10
11.6097402332
 20
13.600709725
 11
8.003480635
 21
15.6827375731
  0
LINE
  5
219
100
AcDbEntity
  8
0
100
AcDbLine
 62
7
  6
BYLAYER
 10
11.574384747
 20
14.6656521817
 11
8.0388361212
 21
16.7068559543
  0
LINE
  5
21A
100
AcDbEntity
  8
0
100
AcDbLine
 62
7
  6
BYLAYER
 10
12.3168499584
 20
15.2250416454
 11
11.6097402332
 21
15.6332823999
  0
LINE
  5
21B
100
AcDbEntity
  8
0
100
AcDbLine
 62
7
  6
BYLAYER
 10
8.003480635
 20
17.715310248
 11
7.2963709098
 21
18.1235510025
  0
LINE
  5
21C
100
AcDbEntity
  8
0
100
AcDbLine
 62
7
  6
BYLAYER
 10
8.2358318512
 20
18.0238691639
 11
9.2611409527
 21
17.4319200699
  0
LINE
  5
21D
100
AcDbEntity
  8
0
100
AcDbLine
 62
7
  6
BYLAYER
 10
8.1944093871
 20
18.1154263935
 11
9.2197184885
 21
17.5234772995
  0
LINE
  5
21E
100
AcDbEntity
  8
0
100
AcDbLine
 62
7
  6
BYLAYER
 10
11.9900707695
 20
16.0062567515
 11
12.3168499584
 21
15.817594967
  0
LINE
  5
21F
100
AcDbEntity
  8
0
100
AcDbLine
 62
7
  6
BYLAYER
 10
7.2963709098
 20
18.9400534196
 11
8.003480635
 21
18.5318126651
  0
LINE
  5
220
100
AcDbEntity
  8
0
100
AcDbLine
 62
7
  6
BYLAYER
 10
11.6097402332
 20
16.4497848171
 11
12.3168499584
 21
16.0415440625
  0
LINE
  5
221
100
AcDbEntity
  8
0
100
AcDbLine
 62
7
  6
BYLAYER
 10
9.7555759067
 20
17.6019131143
 11
10.5137201593
 21
17.1642082283
  0
LINE
  5
222
100
AcDbEntity
  8
0
100
AcDbLine
 62
7
  6
BYLAYER
 10
5.3518191657
 20
16.2659792549
 11
5.3518191657
 21
33.6983058606
  0
LINE
  5
223
100
AcDbEntity
  8
0
100
AcDbLine
 62
7
  6
BYLAYER
 10
5.8026004379
 20
36.0588143691
 11
5.8026004379
 21
38.410755866
  0
LINE
  5
224
100
AcDbEntity
  8
0
100
AcDbLine
 62
7
  6
BYLAYER
 10
6.0589230029
 20
34.6138657757
 11
6.0589230029
 21
35.326233794
  0
LINE
  5
225
100
AcDbEntity
  8
0
100
AcDbLine
 62
7
  6
BYLAYER
 10
6.0589230029
 20
38.8553164545
 11
6.0589230029
 21
40.1894930221
  0
LINE
  5
226
100
AcDbEntity
  8
0
100
AcDbLine
 62
7
  6
BYLAYER
 10
9.2197184885
 20
19.8096840674
 11
8.1944093871
 21
20.4016331615
  0
LINE
  5
227
100
AcDbEntity
  8
0
100
AcDbLine
 62
7
  6
BYLAYER
 10
8.3358301545
 20
20.6465824757
 11
9.361139256
 21
20.0546333816
  0
LINE
  5
228
100
AcDbEntity
  8
0
100
AcDbLine
 62
7
  6
BYLAYER
 10
8.0388361212
 20
21.9669114325
 11
9.099500709
 21
21.3545503007
  0
LINE
  5
229
100
AcDbEntity
  8
0
100
AcDbLine
 62
7
  6
BYLAYER
 10
10.5137201593
 20
20.5380687917
 11
11.574384747
 21
19.9257076599
  0
LINE
  5
22A
100
AcDbEntity
  8
0
100
AcDbLine
 62
7
  6
BYLAYER
 10
7.2963709098
 20
18.1235510025
 11
7.2963709098
 21
18.9400534196
  0
LINE
  5
22B
100
AcDbEntity
  8
0
100
AcDbLine
 62
7
  6
BYLAYER
 10
8.003480635
 20
15.6827375731
 11
8.003480635
 21
17.715310248
  0
LINE
  5
22C
100
AcDbEntity
  8
0
100
AcDbLine
 62
7
  6
BYLAYER
 10
8.003480635
 20
18.5318126651
 11
8.003480635
 21
22.3965979224
  0
LINE
  5
22D
100
AcDbEntity
  8
0
100
AcDbLine
 62
7
  6
BYLAYER
 10
8.0388361212
 20
16.7068559543
 11
8.0388361212
 21
21.9669114325
  0
LINE
  5
22E
100
AcDbEntity
  8
0
100
AcDbLine
 62
7
  6
BYLAYER
 10
8.1358301545
 20
20.4832819922
 11
8.1358301545
 21
18.1970752243
  0
LINE
  5
22F
100
AcDbEntity
  8
0
100
AcDbLine
 62
7
  6
BYLAYER
 10
8.1944093871
 20
20.4016331615
 11
8.1944093871
 21
18.1154263935
  0
LINE
  5
230
100
AcDbEntity
  8
0
100
AcDbLine
 62
7
  6
BYLAYER
 10
8.5691684151
 20
26.5743698371
 11
8.5691684151
 21
27.2275717708
  0
LINE
  5
231
100
AcDbEntity
  8
0
100
AcDbLine
 62
7
  6
BYLAYER
 10
8.6045239014
 20
26.5539577993
 11
8.6045239014
 21
27.2071597331
  0
LINE
  5
232
100
AcDbEntity
  8
0
100
AcDbLine
 62
7
  6
BYLAYER
 10
6.0589230029
 20
40.1894930221
 11
30.4656214875
 21
54.2806228495
  0
LINE
  5
233
100
AcDbEntity
  8
0
100
AcDbLine
 62
7
  6
BYLAYER
 10
8.003480635
 20
22.3965979224
 11
11.6097402332
 21
20.3145700743
  0
LINE
  5
234
100
AcDbEntity
  8
0
100
AcDbLine
 62
7
  6
BYLAYER
 10
9.099500709
 20
21.3545503007
 11
9.099500709
 21
21.1551245236
  0
LINE
  5
235
100
AcDbEntity
  8
0
100
AcDbLine
 62
7
  6
BYLAYER
 10
9.2197184885
 20
17.5234772995
 11
9.2197184885
 21
19.8096840674
  0
LINE
  5
236
100
AcDbEntity
  8
0
100
AcDbLine
 62
7
  6
BYLAYER
 10
9.502561201
 20
19.8096847473
 11
9.502561201
 21
17.5234779793
  0
LINE
  5
237
100
AcDbEntity
  8
0
100
AcDbLine
 62
7
  6
BYLAYER
 10
10.5137201593
 20
17.1642082283
 11
10.5137201593
 21
20.5380687917
  0
LINE
  5
238
100
AcDbEntity
  8
0
100
AcDbLine
 62
7
  6
BYLAYER
 10
30.6661441923
 20
53.3349591959
 11
31.3848641302
 21
53.7499098687
  0
LINE
  5
239
100
AcDbEntity
  8
0
100
AcDbLine
 62
7
  6
BYLAYER
 10
6.5867768225
 20
39.1600711802
 11
6.0210937527
 21
38.8334758571
  0
LINE
  5
23A
100
AcDbEntity
  8
0
100
AcDbLine
 62
7
  6
BYLAYER
 10
7.119545919
 20
39.1073009338
 11
6.5538628491
 21
38.7807056108
  0
LINE
  5
23B
100
AcDbEntity
  8
0
100
AcDbLine
 62
7
  6
BYLAYER
 10
23.2415878422
 20
16.3068276847
 11
23.5951646994
 21
16.1026946091
  0
LINE
  5
23C
100
AcDbEntity
  8
0
100
AcDbLine
 62
7
  6
BYLAYER
 10
10.6904975905
 20
24.9413963649
 11
8.9227232777
 21
25.9619982512
  0
LINE
  5
23D
100
AcDbEntity
  8
0
100
AcDbLine
 62
7
  6
BYLAYER
 10
10.6904975905
 20
24.9822214858
 11
8.9227232777
 21
26.0028233721
  0
LINE
  5
23E
100
AcDbEntity
  8
0
100
AcDbLine
 62
7
  6
BYLAYER
 10
11.0086969669
 20
25.8191411677
 11
11.0086969669
 21
25.165939234
  0
LINE
  5
23F
100
AcDbEntity
  8
0
100
AcDbLine
 62
7
  6
BYLAYER
 10
11.0440524531
 20
25.79872913
 11
11.0440524531
 21
25.1455271963
  0
LINE
  5
240
100
AcDbEntity
  8
0
100
AcDbLine
 62
7
  6
BYLAYER
 10
11.574384747
 20
19.9257076599
 11
11.574384747
 21
14.6656521817
  0
LINE
  5
241
100
AcDbEntity
  8
0
100
AcDbLine
 62
7
  6
BYLAYER
 10
11.6097402332
 20
20.3145700743
 11
11.6097402332
 21
16.4497848171
  0
LINE
  5
242
100
AcDbEntity
  8
0
100
AcDbLine
 62
7
  6
BYLAYER
 10
11.6097402332
 20
15.6332823999
 11
11.6097402332
 21
13.600709725
  0
LINE
  5
243
100
AcDbEntity
  8
0
100
AcDbLine
 62
7
  6
BYLAYER
 10
12.3168499584
 20
16.0415440625
 11
12.3168499584
 21
15.2250416454
  0
LINE
  5
244
100
AcDbEntity
  8
0
100
AcDbLine
 62
7
  6
BYLAYER
 10
36.5820929367
 20
53.4028908875
 11
33.5653117832
 21
51.6611618732
  0
LINE
  5
245
100
AcDbEntity
  8
0
100
AcDbLine
 62
7
  6
BYLAYER
 10
8.9227232777
 20
27.3908774812
 11
10.6904975905
 21
26.3702755949
  0
LINE
  5
246
100
AcDbEntity
  8
0
100
AcDbLine
 62
7
  6
BYLAYER
 10
8.9227232777
 20
27.4317026021
 11
10.6904975905
 21
26.4111007158
  0
LINE
  5
247
100
AcDbEntity
  8
0
100
AcDbLine
 62
7
  6
BYLAYER
 10
14.0934619652
 20
33.6241330192
 11
14.0934619652
 21
31.2721915224
  0
LINE
  5
248
100
AcDbEntity
  8
0
100
AcDbLine
 62
7
  6
BYLAYER
 10
14.2614017025
 20
28.5544723537
 11
14.2614017025
 21
11.122145748
  0
LINE
  5
249
100
AcDbEntity
  8
0
100
AcDbLine
 62
7
  6
BYLAYER
 10
6.3695909483
 20
34.7932289269
 11
5.6624871111
 21
34.3849847731
  0
LINE
  5
24A
100
AcDbEntity
  8
0
100
AcDbLine
 62
7
  6
BYLAYER
 10
35.5568014987
 20
51.5453852566
 11
36.4053261034
 21
52.0352782412
  0
LINE
  5
24B
100
AcDbEntity
  8
0
100
AcDbLine
 62
7
  6
BYLAYER
 10
35.5568014987
 20
51.137134048
 11
36.4053261034
 21
51.6270270327
  0
LINE
  5
24C
100
AcDbEntity
  8
0
100
AcDbLine
 62
7
  6
BYLAYER
 10
6.9251417306
 20
34.6066798089
 11
6.4124837534
 21
34.3106983545
  0
LINE
  5
24D
100
AcDbEntity
  8
0
100
AcDbLine
 62
7
  6
BYLAYER
 10
14.659145035
 20
33.9507283423
 11
14.659145035
 21
31.5987868454
  0
LINE
  5
24E
100
AcDbEntity
  8
0
100
AcDbLine
 62
7
  6
BYLAYER
 10
14.9685055398
 20
28.9627165075
 11
14.9685055398
 21
35.0456595152
  0
LINE
  5
24F
100
AcDbEntity
  8
0
100
AcDbLine
 62
7
  6
BYLAYER
 10
37.5367016636
 20
51.382093034
 11
36.688177059
 21
50.8922000494
  0
LINE
  5
250
100
AcDbEntity
  8
0
100
AcDbLine
 62
7
  6
BYLAYER
 10
39.9055086449
 20
51.4841593413
 11
36.8887274914
 21
49.742430327
  0
LINE
  5
251
100
AcDbEntity
  8
0
100
AcDbLine
 62
7
  6
BYLAYER
 10
39.9055086449
 20
51.0759081327
 11
37.2422884636
 21
49.5383064224
  0
LINE
  5
252
100
AcDbEntity
  8
0
100
AcDbLine
 62
7
  6
BYLAYER
 10
37.7372414437
 20
49.2525516507
 11
38.4559613817
 21
49.6675023234
  0
LINE
  5
253
100
AcDbEntity
  8
0
100
AcDbLine
 62
7
  6
BYLAYER
 10
13.3902291552
 20
34.8342110613
 11
13.955912225
 21
35.1608063844
  0
LINE
  5
254
100
AcDbEntity
  8
0
100
AcDbLine
 62
7
  6
BYLAYER
 10
14.9685055398
 20
35.0456595152
 11
39.3752040244
 21
49.1367893426
  0
LINE
  5
255
100
AcDbEntity
  8
0
100
AcDbLine
 62
7
  6
BYLAYER
 10
14.659145035
 20
33.9507283423
 11
14.0934619652
 21
33.6241330192
  0
LINE
  5
256
100
AcDbEntity
  8
0
100
AcDbLine
 62
7
  6
BYLAYER
 10
13.2007371148
 20
30.3915871111
 11
6.4124837534
 21
34.3106983545
  0
LINE
  5
257
100
AcDbEntity
  8
0
100
AcDbLine
 62
7
  6
BYLAYER
 10
13.3902708354
 20
30.8740962103
 11
6.5539045208
 21
34.8210102419
  0
LINE
  5
258
100
AcDbEntity
  8
0
100
AcDbLine
 62
7
  6
BYLAYER
 10
13.907840952
 20
30.799831265
 11
13.8847593994
 21
30.8131571042
  0
LINE
  5
259
100
AcDbEntity
  8
0
100
AcDbLine
 62
7
  6
BYLAYER
 10
19.211128563
 20
37.4951244384
 11
19.211128563
 21
13.9798548251
  0
LINE
  5
25A
100
AcDbEntity
  8
0
100
AcDbLine
 62
7
  6
BYLAYER
 10
39.9055086449
 20
47.2383467722
 11
39.3752040244
 21
46.9321770844
  0
LINE
  5
25B
100
AcDbEntity
  8
0
100
AcDbLine
 62
7
  6
BYLAYER
 10
39.9055086449
 20
46.8300955636
 11
39.3752040244
 21
46.5239258758
  0
LINE
  5
25C
100
AcDbEntity
  8
0
100
AcDbLine
 62
7
  6
BYLAYER
 10
14.0934619652
 20
31.2721915223
 11
14.659145035
 21
31.5987868454
  0
LINE
  5
25D
100
AcDbEntity
  8
0
100
AcDbLine
 62
7
  6
BYLAYER
 10
14.4551759469
 20
31.1479476982
 11
13.8894928771
 21
30.8213523751
  0
LINE
  5
25E
100
AcDbEntity
  8
0
100
AcDbLine
 62
7
  6
BYLAYER
 10
13.2007371148
 20
30.3915871111
 11
13.907840952
 21
30.799831265
  0
LINE
  5
25F
100
AcDbEntity
  8
0
100
AcDbLine
 62
7
  6
BYLAYER
 10
8.7909195215
 20
27.4669693805
 11
8.697724285
 21
27.4131634068
  0
LINE
  5
260
100
AcDbEntity
  8
0
100
AcDbLine
 62
7
  6
BYLAYER
 10
8.6174854561
 20
27.2554674609
 11
8.5691684151
 21
27.2275717708
  0
LINE
  5
261
100
AcDbEntity
  8
0
100
AcDbLine
 62
7
  6
BYLAYER
 10
8.9580793749
 20
27.4112902116
 11
8.9227232777
 21
27.3908774812
  0
LINE
  5
262
100
AcDbEntity
  8
0
100
AcDbLine
 62
7
  6
BYLAYER
 10
8.5691684151
 20
26.5743698371
 11
8.6045239014
 21
26.5947822147
  0
LINE
  5
263
100
AcDbEntity
  8
0
100
AcDbLine
 62
7
  6
BYLAYER
 10
6.5538628491
 20
38.7807056108
 11
13.3902291552
 21
34.8342110613
  0
LINE
  5
264
100
AcDbEntity
  8
0
100
AcDbLine
 62
7
  6
BYLAYER
 10
7.119545919
 20
39.1073009338
 11
13.955912225
 21
35.1608063844
  0
LINE
  5
265
100
AcDbEntity
  8
0
100
AcDbLine
 62
7
  6
BYLAYER
 10
6.0589230029
 20
40.1894930221
 11
14.9685055398
 21
35.0456595152
  0
LINE
  5
266
100
AcDbEntity
  8
0
100
AcDbLine
 62
7
  6
BYLAYER
 10
23.5951646994
 20
16.1026946091
 11
23.5951646994
 21
16.5109641599
  0
LINE
  5
267
100
AcDbEntity
  8
0
100
AcDbLine
 62
7
  6
BYLAYER
 10
8.9580793749
 20
25.9824109816
 11
8.9227232777
 21
25.9619982512
  0
LINE
  5
268
100
AcDbEntity
  8
0
100
AcDbLine
 62
7
  6
BYLAYER
 10
14.9685055398
 20
28.9627165075
 11
14.2614017025
 21
28.5544723537
  0
LINE
  5
269
100
AcDbEntity
  8
0
100
AcDbLine
 62
7
  6
BYLAYER
 10
10.6904975905
 20
26.3702755949
 11
10.7183746452
 21
26.3863703239
  0
LINE
  5
26A
100
AcDbEntity
  8
0
100
AcDbLine
 62
7
  6
BYLAYER
 10
39.9055086449
 20
42.9925342031
 11
39.3752040244
 21
42.6863645153
  0
LINE
  5
26B
100
AcDbEntity
  8
0
100
AcDbLine
 62
7
  6
BYLAYER
 10
39.9055086449
 20
42.5842829946
 11
39.3752040244
 21
42.2781133067
  0
LINE
  5
26C
100
AcDbEntity
  8
0
100
AcDbLine
 62
7
  6
BYLAYER
 10
11.0365741148
 20
25.8352359505
 11
11.0086969669
 21
25.8191411677
  0
LINE
  5
26D
100
AcDbEntity
  8
0
100
AcDbLine
 62
7
  6
BYLAYER
 10
38.6564840864
 20
41.6182676408
 11
39.3752040244
 21
42.0332183135
  0
LINE
  5
26E
100
AcDbEntity
  8
0
100
AcDbLine
 62
7
  6
BYLAYER
 10
24.3022685367
 20
16.510938763
 11
24.3022685367
 21
16.9192083137
  0
LINE
  5
26F
100
AcDbEntity
  8
0
100
AcDbLine
 62
7
  6
BYLAYER
 10
11.0086969669
 20
25.165939234
 11
11.0440524531
 21
25.1863516116
  0
LINE
  5
270
100
AcDbEntity
  8
0
100
AcDbLine
 62
7
  6
BYLAYER
 10
10.6904975905
 20
24.9413963649
 11
10.738817194
 21
24.9692935345
  0
LINE
  5
271
100
AcDbEntity
  8
0
100
AcDbLine
 62
7
  6
BYLAYER
 10
11.0086898743
 20
25.0137404107
 11
10.9154965832
 21
24.9599355602
  0
LINE
  5
272
100
AcDbEntity
  8
0
100
AcDbLine
 62
7
  6
BYLAYER
 10
38.6564840864
 20
40.3118637734
 11
39.3752040244
 21
40.7268144461
  0
LINE
  5
273
100
AcDbEntity
  8
0
100
AcDbLine
 62
7
  6
BYLAYER
 10
8.393283261
 20
22.1715503625
 11
8.0388361212
 21
21.9669114325
  0
LINE
  5
274
100
AcDbEntity
  8
0
100
AcDbLine
 62
7
  6
BYLAYER
 10
19.211128563
 20
37.4951244384
 11
10.3015460262
 21
42.6389579453
  0
LINE
  5
275
100
AcDbEntity
  8
0
100
AcDbLine
 62
7
  6
BYLAYER
 10
9.4539478487
 20
21.5591892308
 11
9.099500709
 21
21.3545503007
  0
LINE
  5
276
100
AcDbEntity
  8
0
100
AcDbLine
 62
7
  6
BYLAYER
 10
8.2358306022
 20
20.6564873315
 11
9.6266581069
 21
21.4594771725
  0
LINE
  5
277
100
AcDbEntity
  8
0
100
AcDbLine
 62
7
  6
BYLAYER
 10
9.6852362788
 20
21.4256578143
 11
8.3358301545
 21
20.6465824757
  0
LINE
  5
278
100
AcDbEntity
  8
0
100
AcDbLine
 62
7
  6
BYLAYER
 10
38.6564840864
 20
37.29080483
 11
39.3752040244
 21
37.7057555028
  0
LINE
  5
279
100
AcDbEntity
  8
0
100
AcDbLine
 62
7
  6
BYLAYER
 10
9.361139256
 20
20.0546333816
 11
10.7105453802
 21
20.8337087203
  0
LINE
  5
27A
100
AcDbEntity
  8
0
100
AcDbLine
 62
7
  6
BYLAYER
 10
10.868167299
 20
20.7427077217
 11
10.5137201593
 21
20.5380687917
  0
LINE
  5
27B
100
AcDbEntity
  8
0
100
AcDbLine
 62
7
  6
BYLAYER
 10
10.5137201593
 20
20.3934741593
 11
9.502561201
 21
19.8096847473
  0
LINE
  5
27C
100
AcDbEntity
  8
0
100
AcDbLine
 62
7
  6
BYLAYER
 10
8.0388361212
 20
18.5522250428
 11
7.2963709098
 21
18.1235510025
  0
LINE
  5
27D
100
AcDbEntity
  8
0
100
AcDbLine
 62
7
  6
BYLAYER
 10
11.6097402332
 20
19.9461200376
 11
11.574384747
 21
19.9257076599
  0
LINE
  5
27E
100
AcDbEntity
  8
0
100
AcDbLine
 62
7
  6
BYLAYER
 10
8.0388361212
 20
17.7357226256
 11
8.003480635
 21
17.715310248
  0
LINE
  5
27F
100
AcDbEntity
  8
0
100
AcDbLine
 62
7
  6
BYLAYER
 10
38.6564840864
 20
30.3638907587
 11
38.9509281798
 21
30.1938972279
  0
LINE
  5
280
100
AcDbEntity
  8
0
100
AcDbLine
 62
7
  6
BYLAYER
 10
9.502561201
 20
17.5234779793
 11
10.5137201593
 21
18.1072673913
  0
LINE
  5
281
100
AcDbEntity
  8
0
100
AcDbLine
 62
7
  6
BYLAYER
 10
9.4611388083
 20
17.431920791
 11
10.5137201593
 21
18.0396252898
  0
LINE
  5
282
100
AcDbEntity
  8
0
100
AcDbLine
 62
7
  6
BYLAYER
 10
8.9080834448
 20
16.2050071313
 11
8.003480635
 21
15.6827375731
  0
LINE
  5
283
100
AcDbEntity
  8
0
100
AcDbLine
 62
7
  6
BYLAYER
 10
40.7186848288
 20
34.1947326807
 11
38.6564840864
 21
33.0041276339
  0
LINE
  5
284
100
AcDbEntity
  8
0
100
AcDbLine
 62
7
  6
BYLAYER
 10
41.0722396914
 20
33.9906123035
 11
38.6564840864
 21
32.59588348
  0
LINE
  5
285
100
AcDbEntity
  8
0
100
AcDbLine
 62
7
  6
BYLAYER
 10
39.7994527844
 20
30.6837902125
 11
39.4458979219
 21
30.8879105898
  0
LINE
  5
286
100
AcDbEntity
  8
0
100
AcDbLine
 62
7
  6
BYLAYER
 10
31.3848641302
 20
52.9200154336
 11
31.3848641302
 21
53.7499098687
  0
LINE
  5
287
100
AcDbEntity
  8
0
100
AcDbLine
 62
7
  6
BYLAYER
 10
38.9509281798
 20
31.5003010953
 11
39.7994527844
 21
31.9901940799
  0
LINE
  5
288
100
AcDbEntity
  8
0
100
AcDbLine
 62
7
  6
BYLAYER
 10
12.1229137991
 20
15.9295615278
 11
11.6097402332
 21
15.6332823999
  0
LINE
  5
289
100
AcDbEntity
  8
0
100
AcDbLine
 62
7
  6
BYLAYER
 10
39.4458979219
 20
30.8879105898
 11
38.6564840864
 21
30.4321450199
  0
LINE
  5
28A
100
AcDbEntity
  8
0
100
AcDbLine
 62
7
  6
BYLAYER
 10
11.6097402332
 20
14.6860645593
 11
11.574384747
 21
14.6656521817
  0
LINE
  5
28B
100
AcDbEntity
  8
0
100
AcDbLine
 62
7
  6
BYLAYER
 10
39.7994527844
 20
30.6837902125
 11
38.9509281798
 21
30.1938972279
  0
LINE
  5
28C
100
AcDbEntity
  8
0
100
AcDbLine
 62
7
  6
BYLAYER
 10
38.6564840864
 20
28.7583221195
 11
41.0722396914
 21
30.1530509429
  0
LINE
  5
28D
100
AcDbEntity
  8
0
100
AcDbLine
 62
7
  6
BYLAYER
 10
40.7186848288
 20
34.1947326807
 11
41.4965019937
 21
33.7456573455
  0
LINE
  5
28E
100
AcDbEntity
  8
0
100
AcDbLine
 62
7
  6
BYLAYER
 10
35.5568014987
 20
51.5453852566
 11
35.5568014987
 21
51.137134048
  0
LINE
  5
28F
100
AcDbEntity
  8
0
100
AcDbLine
 62
7
  6
BYLAYER
 10
36.0401998887
 20
47.2113353005
 11
36.0401998887
 21
23.6960656872
  0
LINE
  5
290
100
AcDbEntity
  8
0
100
AcDbLine
 62
7
  6
BYLAYER
 10
36.4053261034
 20
51.6270270327
 11
36.4053261034
 21
52.0352782412
  0
LINE
  5
291
100
AcDbEntity
  8
0
100
AcDbLine
 62
7
  6
BYLAYER
 10
38.6564840864
 20
25.2065690565
 11
38.6564840864
 21
37.29080483
  0
LINE
  5
292
100
AcDbEntity
  8
0
100
AcDbLine
 62
7
  6
BYLAYER
 10
38.6564840864
 20
40.3118637734
 11
38.6564840864
 21
41.6182676408
  0
LINE
  5
293
100
AcDbEntity
  8
0
100
AcDbLine
 62
7
  6
BYLAYER
 10
14.2614017025
 20
11.122145748
 11
38.6564840864
 21
25.2065690565
  0
LINE
  5
294
100
AcDbEntity
  8
0
100
AcDbLine
 62
7
  6
BYLAYER
 10
23.5951646994
 20
16.1026946091
 11
24.3022685367
 21
16.510938763
  0
LINE
  5
295
100
AcDbEntity
  8
0
100
AcDbLine
 62
7
  6
BYLAYER
 10
39.3752040244
 20
40.7268144461
 11
38.6564840864
 21
41.1417582085
  0
LINE
  5
296
100
AcDbEntity
  8
0
100
AcDbLine
 62
7
  6
BYLAYER
 10
39.3752040244
 20
37.7057555028
 11
39.3752040244
 21
40.7268144461
  0
LINE
  5
297
100
AcDbEntity
  8
0
100
AcDbLine
 62
7
  6
BYLAYER
 10
39.3752040244
 20
42.0332183135
 11
39.3752040244
 21
49.1367893426
  0
LINE
  5
298
100
AcDbEntity
  8
0
100
AcDbLine
 62
7
  6
BYLAYER
 10
39.9055051122
 20
43.4824251482
 11
39.9055086449
 21
42.5842829946
  0
LINE
  5
299
100
AcDbEntity
  8
0
100
AcDbLine
 62
7
  6
BYLAYER
 10
39.9055051122
 20
47.7282377172
 11
39.9055086449
 21
46.8300955636
  0
LINE
  5
29A
100
AcDbEntity
  8
0
100
AcDbLine
 62
7
  6
BYLAYER
 10
39.9055051122
 20
51.9740502863
 11
39.9055086449
 21
51.0759081327
  0
LINE
  5
29B
100
AcDbEntity
  8
0
100
AcDbLine
 62
7
  6
BYLAYER
 10
41.4965019937
 20
30.8878988855
 11
41.0722396914
 21
30.1530509429
  0
LINE
  5
29C
100
AcDbEntity
  8
0
100
AcDbLine
 62
7
  6
BYLAYER
 10
41.4965019937
 20
30.8878988855
 11
41.4965019937
 21
33.7456573455
  0
LINE
  5
29D
100
AcDbEntity
  8
0
100
AcDbLine
 62
7
  6
BYLAYER
 10
39.9055051122
 20
43.4824251482
 11
39.3752040244
 21
43.7885876976
  0
LINE
  5
29E
100
AcDbEntity
  8
0
100
AcDbLine
 62
7
  6
BYLAYER
 10
36.0401998887
 20
47.2113353005
 11
27.1306173519
 21
52.3551688075
  0
LINE
  5
29F
100
AcDbEntity
  8
0
100
AcDbLine
 62
7
  6
BYLAYER
 10
36.5820929367
 20
53.4028908875
 11
37.4306210742
 21
53.4028929271
  0
LINE
  5
2A0
100
AcDbEntity
  8
0
100
AcDbLine
 62
7
  6
BYLAYER
 10
39.9055051122
 20
47.7282377172
 11
39.3752040244
 21
48.0344002667
  0
LINE
  5
2A1
100
AcDbEntity
  8
0
100
AcDbLine
 62
7
  6
BYLAYER
 10
37.7372414437
 20
49.2525516507
 11
30.6661441923
 21
53.3349591959
  0
LINE
  5
2A2
100
AcDbEntity
  8
0
100
AcDbLine
 62
7
  6
BYLAYER
 10
39.3752040244
 20
49.1367893426
 11
38.4559613817
 21
49.6675023234
  0
LINE
  5
2A3
100
AcDbEntity
  8
0
100
AcDbLine
 62
7
  6
BYLAYER
 10
31.3848641302
 20
53.7499098687
 11
30.4656214875
 21
54.2806228495
  0
LINE
  5
2A4
100
AcDbEntity
  8
0
100
AcDbLine
 62
7
  6
BYLAYER
 10
39.9055051122
 20
51.9740502863
 11
37.4306210742
 21
53.4028929271
  0
ARC
  5
2A5
100
AcDbEntity
  8
0
100
AcDbCircle
 62
7
  6
BYLAYER
 10
10.6802547223
 20
31.1981698412
 40
1.2604691852
100
AcDbArc
 50
148.0260595743
 51
180.0445317397
  0
ARC
  5
2A6
100
AcDbEntity
  8
0
100
AcDbCircle
 62
7
  6
BYLAYER
 10
11.0054756301
 20
30.7758186454
 40
0.9304664077
100
AcDbArc
 50
249.3039259502
 51
251.5337895944
  0
ARC
  5
2A7
100
AcDbEntity
  8
0
100
AcDbCircle
 62
7
  6
BYLAYER
 10
10.4229946638
 20
31.6809570857
 40
0.8605492527
100
AcDbArc
 50
166.2279077814
 51
167.0922990923
  0
ARC
  5
2A8
100
AcDbEntity
  8
0
100
AcDbCircle
 62
7
  6
BYLAYER
 10
10.443488529
 20
25.9838511858
 40
0.4935135635
100
AcDbArc
 50
57.1697773809
 51
59.966174096
  0
ARC
  5
2A9
100
AcDbEntity
  8
0
100
AcDbCircle
 62
7
  6
BYLAYER
 10
9.1697323392
 20
26.3892477812
 40
0.4935135635
100
AcDbArc
 50
237.169777381
 51
239.9661740959
  0
ARC
  5
2AA
100
AcDbEntity
  8
0
100
AcDbCircle
 62
7
  6
BYLAYER
 10
10.55839254
 20
25.7986296652
 40
0.4856599233
100
AcDbArc
 50
0.0117343642
 51
2.8533216462
  0
ARC
  5
2AB
100
AcDbEntity
  8
0
100
AcDbCircle
 62
7
  6
BYLAYER
 10
9.0548283282
 20
26.5744693018
 40
0.4856599233
100
AcDbArc
 50
180.0117343642
 51
182.8533216462
  0
ARC
  5
2AC
100
AcDbEntity
  8
0
100
AcDbCircle
 62
7
  6
BYLAYER
 10
12.7408311943
 20
15.9105861364
 40
0.4624182802
100
AcDbArc
 50
160.1596988565
 51
162.4966889824
  0
ARC
  5
2AD
100
AcDbEntity
  8
0
100
AcDbCircle
 62
7
  6
BYLAYER
 10
12.7300742165
 20
15.9140046835
 40
0.4511311904
100
AcDbArc
 50
162.499862627
 51
163.2304932613
  0
ARC
  5
2AE
100
AcDbEntity
  8
0
100
AcDbCircle
 62
7
  6
BYLAYER
 10
10.8958600405
 20
25.3378447593
 40
0.4106600157
100
AcDbArc
 50
239.9947732769
 51
241.6371309408
  0
ARC
  5
2AF
100
AcDbEntity
  8
0
100
AcDbCircle
 62
7
  6
BYLAYER
 10
8.7173608277
 20
27.0352542077
 40
0.4106600158
100
AcDbArc
 50
59.994773277
 51
61.6371309407
  0
ARC
  5
2B0
100
AcDbEntity
  8
0
100
AcDbCircle
 62
7
  6
BYLAYER
 10
8.3358301545
 20
18.1970752243
 40
0.2
100
AcDbArc
 50
180.0
 51
240.0005612632
  0
ARC
  5
2B1
100
AcDbEntity
  8
0
100
AcDbCircle
 62
7
  6
BYLAYER
 10
8.3358301545
 20
20.4832819922
 40
0.2
100
AcDbArc
 50
119.9998519061
 51
180.0
  0
ARC
  5
2B2
100
AcDbEntity
  8
0
100
AcDbCircle
 62
7
  6
BYLAYER
 10
9.361139256
 20
17.6051261302
 40
0.2
100
AcDbArc
 50
240.0005612632
 51
299.9998519061
  0
ARC
  5
2B3
100
AcDbEntity
  8
0
100
AcDbCircle
 62
7
  6
BYLAYER
 10
10.8573553163
 20
25.0606206881
 40
0.1662640173
100
AcDbArc
 50
300.0031431741
 51
303.7485395937
  0
ARC
  5
2B4
100
AcDbEntity
  8
0
100
AcDbCircle
 62
7
  6
BYLAYER
 10
8.7558655301
 20
27.3124783146
 40
0.1662639755
100
AcDbArc
 50
120.0031428063
 51
123.7483711287
  0
SPLINE
  5
2B5
100
AcDbEntity
  8
0
100
AcDbSpline
 62
7
  6
BYLAYER
 70
0
 71
3
 72
25
 73
21
 74
0
 42
0.0000001
 43
0.0000001
 44
0.0000000001
 40
0.0
 40
0.0
 40
0.0
 40
0.0
 40
0.0624964378
 40
0.125000947
 40
0.1875013062
 40
0.2500037257
 40
0.2812640303
 40
0.3125243489
 40
0.375025932
 40
0.4375248772
 40
0.5000208117
 40
0.5625151931
 40
0.6250068622
 40
0.6874985523
 40
0.7499914341
 40
0.8124845122
 40
0.8749791033
 40
0.9062379046
 40
0.937498063
 40
1.0
 40
1.0
 40
1.0
 40
1.0
 10
9.419768144
 20
31.1971901587
 30
0.0
 10
9.419768144
 20
31.1549622052
 30
0.0
 10
9.4239839771
 20
31.0704413373
 30
0.0
 10
9.442828957
 20
30.9449584277
 30
0.0
 10
9.4739520563
 20
30.8219352565
 30
0.0
 10
9.5098240652
 20
30.7224363299
 30
0.0
 10
9.5442373154
 20
30.6452554668
 30
0.0
 10
9.5823768445
 20
30.5698470984
 30
0.0
 10
9.6368901625
 20
30.4792122437
 30
0.0
 10
9.7125845657
 20
30.3773768409
 30
0.0
 10
9.7978767805
 20
30.2834302122
 30
0.0
 10
9.8919828045
 20
30.1983205813
 30
0.0
 10
9.9940315984
 20
30.122917864
 30
0.0
 10
10.1030591271
 20
30.0580129993
 30
0.0
 10
10.2180159256
 20
30.0042947801
 30
0.0
 10
10.3377663851
 20
29.962343793
 30
0.0
 10
10.4405899975
 20
29.9375669975
 30
0.0
 10
10.5240004626
 20
29.9240284016
 30
0.0
 10
10.6079850467
 20
29.9147060461
 30
0.0
 10
10.6714420069
 20
29.9124955509
 30
0.0
 10
10.7136684999
 20
29.9131567412
 30
0.0
  0
SPLINE
  5
2B6
100
AcDbEntity
  8
0
100
AcDbSpline
 62
7
  6
BYLAYER
 70
0
 71
3
 72
21
 73
17
 74
0
 42
0.0000001
 43
0.0000001
 44
0.0000000001
 40
0.0
 40
0.0
 40
0.0
 40
0.0
 40
0.0603576408
 40
0.1144712099
 40
0.1630710781
 40
0.2084567775
 40
0.2538491381
 40
0.302455043
 40
0.3564951045
 40
0.4169006223
 40
0.4835240126
 40
0.5554000976
 40
0.7084332434
 40
0.8614611171
 40
0.9334218189
 40
1.0
 40
1.0
 40
1.0
 40
1.0
 10
9.8302614824
 20
30.6636581476
 30
0.0
 10
9.8302614824
 20
30.6619643884
 30
0.0
 10
9.8300026293
 20
30.6587412876
 30
0.0
 10
9.8287006442
 20
30.6543128071
 30
0.0
 10
9.8264998136
 20
30.6507165106
 30
0.0
 10
9.8234465387
 20
30.6481516147
 30
0.0
 10
9.8196981933
 20
30.6467898639
 30
0.0
 10
9.8154854034
 20
30.64668344
 30
0.0
 10
9.8109980632
 20
30.647767106
 30
0.0
 10
9.8063832071
 20
30.649961505
 30
0.0
 10
9.8017953448
 20
30.6531789929
 30
0.0
 10
9.7958056956
 20
30.6587831009
 30
0.0
 10
9.7894834968
 20
30.667421626
 30
0.0
 10
9.7851597572
 20
30.6772189721
 30
0.0
 10
9.7833037684
 20
30.6852077136
 30
0.0
 10
9.7829593859
 20
30.6890990876
 30
0.0
 10
9.7829593859
 20
30.6909674079
 30
0.0
  0
SPLINE
  5
2B7
100
AcDbEntity
  8
0
100
AcDbSpline
 62
7
  6
BYLAYER
 70
0
 71
3
 72
21
 73
17
 74
0
 42
0.0000001
 43
0.0000001
 44
0.0000000001
 40
0.0
 40
0.0
 40
0.0
 40
0.0
 40
0.0603576408
 40
0.1144712099
 40
0.1630710781
 40
0.2084567775
 40
0.2538491381
 40
0.302455043
 40
0.3564951045
 40
0.4169006223
 40
0.4835240126
 40
0.5554000976
 40
0.7084332434
 40
0.8614611171
 40
0.9334218189
 40
1.0
 40
1.0
 40
1.0
 40
1.0
 10
9.7829593859
 20
30.6909674079
 30
0.0
 10
9.7829593859
 20
30.6926611671
 30
0.0
 10
9.7832182389
 20
30.6958842679
 30
0.0
 10
9.7845202241
 20
30.7003127484
 30
0.0
 10
9.7867210546
 20
30.7039090449
 30
0.0
 10
9.7897743295
 20
30.7064739407
 30
0.0
 10
9.7935226749
 20
30.7078356916
 30
0.0
 10
9.7977354648
 20
30.7079421155
 30
0.0
 10
9.802222805
 20
30.7068584494
 30
0.0
 10
9.8068376611
 20
30.7046640504
 30
0.0
 10
9.8114255234
 20
30.7014465625
 30
0.0
 10
9.8174151727
 20
30.6958424546
 30
0.0
 10
9.8237373714
 20
30.6872039295
 30
0.0
 10
9.828061111
 20
30.6774065833
 30
0.0
 10
9.8299170998
 20
30.6694178419
 30
0.0
 10
9.8302614824
 20
30.6655264679
 30
0.0
 10
9.8302614824
 20
30.6636581476
 30
0.0
  0
SPLINE
  5
2B8
100
AcDbEntity
  8
0
100
AcDbSpline
 62
7
  6
BYLAYER
 70
0
 71
3
 72
15
 73
11
 74
0
 42
0.0000001
 43
0.0000001
 44
0.0000000001
 40
0.0
 40
0.0
 40
0.0
 40
0.0
 40
0.1141447985
 40
0.2373324971
 40
0.3669747555
 40
0.5000005214
 40
0.6330262147
 40
0.7626682613
 40
0.8858556261
 40
1.0
 40
1.0
 40
1.0
 40
1.0
 10
9.2197184885
 20
17.5234772995
 30
0.0
 10
9.229399086
 20
17.5178883304
 30
0.0
 10
9.2505701893
 20
17.5080310899
 30
0.0
 10
9.2850438522
 20
17.4975510197
 30
0.0
 10
9.3223691894
 20
17.4911038603
 30
0.0
 10
9.3611400833
 20
17.4889261123
 30
0.0
 10
9.3999109462
 20
17.4911040444
 30
0.0
 10
9.4372361918
 20
17.4975513809
 30
0.0
 10
9.4717097063
 20
17.508031615
 30
0.0
 10
9.4928806799
 20
17.5178889612
 30
0.0
 10
9.502561201
 20
17.5234779793
 30
0.0
  0
SPLINE
  5
2B9
100
AcDbEntity
  8
0
100
AcDbSpline
 62
7
  6
BYLAYER
 70
0
 71
3
 72
15
 73
11
 74
0
 42
0.0000001
 43
0.0000001
 44
0.0000000001
 40
0.0
 40
0.0
 40
0.0
 40
0.0
 40
0.1141454591
 40
0.2373335362
 40
0.36697592
 40
0.5000016033
 40
0.6330270636
 40
0.7626687962
 40
0.8858558469
 40
1.0
 40
1.0
 40
1.0
 40
1.0
 10
9.2197184885
 20
19.8096840674
 30
0.0
 10
9.2197184885
 20
19.8208622738
 30
0.0
 10
9.2217672013
 20
19.844125759
 30
0.0
 10
9.229927749
 20
19.8792210916
 30
0.0
 10
9.2430067777
 20
19.9147695451
 30
0.0
 10
9.2605060523
 20
19.9494351288
 30
0.0
 10
9.281777497
 20
19.9819227882
 30
0.0
 10
9.3060236075
 20
20.0110237447
 30
0.0
 10
9.3323365093
 20
20.0356385208
 30
0.0
 10
9.3514587416
 20
20.0490443674
 30
0.0
 10
9.361139256
 20
20.0546333816
 30
0.0
  0
SPLINE
  5
2BA
100
AcDbEntity
  8
0
100
AcDbSpline
 62
7
  6
BYLAYER
 70
0
 71
3
 72
15
 73
11
 74
0
 42
0.0000001
 43
0.0000001
 44
0.0000000001
 40
0.0
 40
0.0
 40
0.0
 40
0.0
 40
0.1141444714
 40
0.2373317045
 40
0.3669734975
 40
0.4999989181
 40
0.6330244891
 40
0.7626667216
 40
0.8858546473
 40
1.0
 40
1.0
 40
1.0
 40
1.0
 10
9.361139256
 20
20.0546333816
 30
0.0
 10
9.3708198435
 20
20.0490444183
 30
0.0
 10
9.389942225
 20
20.0356386739
 30
0.0
 10
9.4162553506
 20
20.0110240234
 30
0.0
 10
9.4405016671
 20
19.9819231817
 30
0.0
 10
9.4617732924
 20
19.9494356218
 30
0.0
 10
9.4792727156
 20
19.9147701188
 30
0.0
 10
9.4923518553
 20
19.8792217237
 30
0.0
 10
9.5005124722
 20
19.8441264243
 30
0.0
 10
9.502561201
 20
19.82086295
 30
0.0
 10
9.502561201
 20
19.8096847473
 30
0.0
  0
SPLINE
  5
2BB
100
AcDbEntity
  8
0
100
AcDbSpline
 62
7
  6
BYLAYER
 70
0
 71
3
 72
15
 73
11
 74
0
 42
0.0000001
 43
0.0000001
 44
0.0000000001
 40
0.0
 40
0.0
 40
0.0
 40
0.0
 40
0.1141443739
 40
0.2373317387
 40
0.3669737853
 40
0.4999994786
 40
0.6330252445
 40
0.7626675029
 40
0.8858552015
 40
1.0
 40
1.0
 40
1.0
 40
1.0
 10
9.502561201
 20
19.8096847473
 30
0.0
 10
9.4928806799
 20
19.8040957292
 30
0.0
 10
9.4717097063
 20
19.7942383829
 30
0.0
 10
9.4372361918
 20
19.7837581489
 30
0.0
 10
9.3999109462
 20
19.7773108123
 30
0.0
 10
9.3611400833
 20
19.7751328803
 30
0.0
 10
9.3223691894
 20
19.7773106283
 30
0.0
 10
9.2850438522
 20
19.7837577877
 30
0.0
 10
9.2505701893
 20
19.7942378578
 30
0.0
 10
9.229399086
 20
19.8040950983
 30
0.0
 10
9.2197184885
 20
19.8096840674
 30
0.0
  0
SPLINE
  5
2BC
100
AcDbEntity
  8
0
100
AcDbSpline
 62
7
  6
BYLAYER
 70
0
 71
3
 72
14
 73
10
 74
0
 42
0.0000001
 43
0.0000001
 44
0.0000000001
 40
0.0
 40
0.0
 40
0.0
 40
0.0
 40
0.1080477618
 40
0.2181390417
 40
0.3321134044
 40
0.451489459
 40
0.5774370662
 40
0.7107578231
 40
1.0
 40
1.0
 40
1.0
 40
1.0
 10
8.2358310694
 20
20.6564865223
 30
0.0
 10
8.2391100934
 20
20.6583796565
 30
0.0
 10
8.2460714882
 20
20.6616418531
 30
0.0
 10
8.2573375723
 20
20.6647532235
 30
0.0
 10
8.2693452271
 20
20.6660943922
 30
0.0
 10
8.2819683149
 20
20.6656562458
 30
0.0
 10
8.2950891634
 20
20.6634557294
 30
0.0
 10
8.31357292
 20
20.658063906
 30
0.0
 10
8.3270522216
 20
20.651650303
 30
0.0
 10
8.3358301545
 20
20.6465824757
 30
0.0
  0
SPLINE
  5
2BD
100
AcDbEntity
  8
0
100
AcDbSpline
 62
7
  6
BYLAYER
 70
0
 71
3
 72
9
 73
5
 74
0
 42
0.0000001
 43
0.0000001
 44
0.0000000001
 40
0.0
 40
0.0
 40
0.0
 40
0.0
 40
0.2487623708
 40
1.0
 40
1.0
 40
1.0
 40
1.0
 10
8.1358310889
 20
18.1970752243
 30
0.0
 10
8.1358310889
 20
18.1957536072
 30
0.0
 10
8.1359881534
 20
18.1904417562
 30
0.0
 10
8.1367834035
 20
18.1851507286
 30
0.0
 10
8.1377131446
 20
18.1812693786
 30
0.0
  0
SPLINE
  5
2BE
100
AcDbEntity
  8
0
100
AcDbSpline
 62
7
  6
BYLAYER
 70
0
 71
3
 72
11
 73
7
 74
0
 42
0.0000001
 43
0.0000001
 44
0.0000000001
 40
0.0
 40
0.0
 40
0.0
 40
0.0
 40
0.2192929176
 40
0.4560666836
 40
0.7157710211
 40
1.0
 40
1.0
 40
1.0
 40
1.0
 10
8.1377131446
 20
18.1812693786
 30
0.0
 10
8.1392308572
 20
18.1749334491
 30
0.0
 10
8.1442561027
 20
18.1621581302
 30
0.0
 10
8.1566316233
 20
18.144667106
 30
0.0
 10
8.1736112599
 20
18.1286815267
 30
0.0
 10
8.1870962677
 20
18.1196485294
 30
0.0
 10
8.1944093871
 20
18.1154263935
 30
0.0
  0
SPLINE
  5
2BF
100
AcDbEntity
  8
0
100
AcDbSpline
 62
7
  6
BYLAYER
 70
0
 71
3
 72
14
 73
10
 74
0
 42
0.0000001
 43
0.0000001
 44
0.0000000001
 40
0.0
 40
0.0
 40
0.0
 40
0.0
 40
0.1080468035
 40
0.2181372646
 40
0.3321110702
 40
0.4514868989
 40
0.5774346435
 40
0.7107558953
 40
1.0
 40
1.0
 40
1.0
 40
1.0
 10
9.2611414198
 20
17.4319208791
 30
0.0
 10
9.2578623194
 20
17.4338140259
 30
0.0
 10
9.2515563083
 20
17.4382117029
 30
0.0
 10
9.2432285346
 20
17.4464128779
 30
0.0
 10
9.2360630663
 20
17.4561414674
 30
0.0
 10
9.2301308657
 20
17.4672927777
 30
0.0
 10
9.2254760994
 20
17.4797564213
 30
0.0
 10
9.2209036887
 20
17.4984603871
 30
0.0
 10
9.2197184885
 20
17.5133411214
 30
0.0
 10
9.2197184885
 20
17.5234772995
 30
0.0
  0
SPLINE
  5
2C0
100
AcDbEntity
  8
0
100
AcDbSpline
 62
7
  6
BYLAYER
 70
0
 71
3
 72
14
 73
10
 74
0
 42
0.0000001
 43
0.0000001
 44
0.0000000001
 40
0.0
 40
0.0
 40
0.0
 40
0.0
 40
0.2892431541
 40
0.4225641785
 40
0.5485118715
 40
0.6678878197
 40
0.7818618969
 40
0.891952746
 40
1.0
 40
1.0
 40
1.0
 40
1.0
 10
9.502561201
 20
17.5234779793
 30
0.0
 10
9.502561201
 20
17.513341847
 30
0.0
 10
9.5013760001
 20
17.4984611726
 30
0.0
 10
9.4968036003
 20
17.479757273
 30
0.0
 10
9.4921488425
 20
17.4672936499
 30
0.0
 10
9.4862166527
 20
17.4561423385
 30
0.0
 10
9.479051197
 20
17.4464137253
 30
0.0
 10
9.4707234378
 20
17.438212502
 30
0.0
 10
9.4644174376
 20
17.4338147762
 30
0.0
 10
9.4611383411
 20
17.4319216002
 30
0.0
  0
SPLINE
  5
2C1
100
AcDbEntity
  8
0
100
AcDbSpline
 62
7
  6
BYLAYER
 70
0
 71
3
 72
14
 73
10
 74
0
 42
0.0000001
 43
0.0000001
 44
0.0000000001
 40
0.0
 40
0.0
 40
0.0
 40
0.0
 40
0.2892451002
 40
0.4225665565
 40
0.5485143226
 40
0.6678900093
 40
0.781863537
 40
0.8919536238
 40
1.0
 40
1.0
 40
1.0
 40
1.0
 10
8.1944093871
 20
20.4016331615
 30
0.0
 10
8.1856313323
 20
20.4067010591
 30
0.0
 10
8.1733370118
 20
20.4151675244
 30
0.0
 10
8.1594252573
 20
20.4284788739
 30
0.0
 10
8.1509588871
 20
20.4387414919
 30
0.0
 10
8.144267707
 20
20.4494542294
 30
0.0
 10
8.1394252315
 20
20.46052365
 30
0.0
 10
8.1364866444
 20
20.4718359571
 30
0.0
 10
8.1358310889
 20
20.4794957413
 30
0.0
 10
8.1358310889
 20
20.4832819922
 30
0.0
  0
SPLINE
  5
2C2
100
AcDbEntity
  8
0
100
AcDbSpline
 62
7
  6
BYLAYER
 70
0
 71
3
 72
14
 73
10
 74
0
 42
0.0000001
 43
0.0000001
 44
0.0000000001
 40
0.0
 40
0.0
 40
0.0
 40
0.0
 40
0.2892441047
 40
0.4225653565
 40
0.5485131011
 40
0.6678889298
 40
0.7818627354
 40
0.8919531965
 40
1.0
 40
1.0
 40
1.0
 40
1.0
 10
8.1944093871
 20
18.1154263935
 30
0.0
 10
8.1944093871
 20
18.1052902154
 30
0.0
 10
8.1955945872
 20
18.0904094812
 30
0.0
 10
8.200166998
 20
18.0717055154
 30
0.0
 10
8.2048217642
 20
18.0592418717
 30
0.0
 10
8.2107539648
 20
18.0480905615
 30
0.0
 10
8.2179194331
 20
18.038361972
 30
0.0
 10
8.2262472068
 20
18.0301607969
 30
0.0
 10
8.232553218
 20
18.02576312
 30
0.0
 10
8.2358323184
 20
18.0238699731
 30
0.0
  0
SPLINE
  5
2C3
100
AcDbEntity
  8
0
100
AcDbSpline
 62
7
  6
BYLAYER
 70
0
 71
3
 72
15
 73
11
 74
0
 42
0.0000001
 43
0.0000001
 44
0.0000000001
 40
0.0
 40
0.0
 40
0.0
 40
0.0
 40
0.1141441531
 40
0.2373312038
 40
0.3669729364
 40
0.4999983967
 40
0.63302408
 40
0.7626664638
 40
0.8858545409
 40
1.0
 40
1.0
 40
1.0
 40
1.0
 10
8.3358301545
 20
20.6465824757
 30
0.0
 10
8.3261496401
 20
20.6409934614
 30
0.0
 10
8.3070274078
 20
20.6275876149
 30
0.0
 10
8.2807145061
 20
20.6029728387
 30
0.0
 10
8.2564683956
 20
20.5738718823
 30
0.0
 10
8.2351969508
 20
20.5413842228
 30
0.0
 10
8.2176976762
 20
20.5067186391
 30
0.0
 10
8.2046186475
 20
20.4711701857
 30
0.0
 10
8.1964580999
 20
20.4360748531
 30
0.0
 10
8.1944093871
 20
20.4128113679
 30
0.0
 10
8.1944093871
 20
20.4016331615
 30
0.0
  0
SPLINE
  5
2C4
100
AcDbEntity
  8
0
100
AcDbSpline
 62
7
  6
BYLAYER
 70
0
 71
3
 72
11
 73
7
 74
0
 42
0.0000001
 43
0.0000001
 44
0.0000000001
 40
0.0
 40
0.0
 40
0.0
 40
0.0
 40
0.2215290577
 40
0.4602474888
 40
0.7195817126
 40
1.0
 40
1.0
 40
1.0
 40
1.0
 10
12.3152372239
 20
15.8264047552
 30
0.0
 10
12.3096032473
 20
15.8332595134
 30
0.0
 10
12.2995551678
 20
15.8489154741
 30
0.0
 10
12.2890548401
 20
15.8759190204
 30
0.0
 10
12.2827808051
 20
15.9065878226
 30
0.0
 10
12.2814919359
 20
15.9282405545
 30
0.0
 10
12.2814919359
 20
15.9394722186
 30
0.0
  0
SPLINE
  5
2C5
100
AcDbEntity
  8
0
100
AcDbSpline
 62
7
  6
BYLAYER
 70
0
 71
3
 72
9
 73
5
 74
0
 42
0.0000001
 43
0.0000001
 44
0.0000000001
 40
0.0
 40
0.0
 40
0.0
 40
0.0
 40
0.519897514
 40
1.0
 40
1.0
 40
1.0
 40
1.0
 10
11.9462459116
 20
16.2537128277
 30
0.0
 10
11.9404152211
 20
16.2352087795
 30
0.0
 10
11.9314457474
 20
16.1988565676
 30
0.0
 10
11.9279370733
 20
16.1615085173
 30
0.0
 10
11.9279370733
 20
16.1435925959
 30
0.0
  0
SPLINE
  5
2C6
100
AcDbEntity
  8
0
100
AcDbSpline
 62
7
  6
BYLAYER
 70
0
 71
3
 72
14
 73
10
 74
0
 42
0.0000001
 43
0.0000001
 44
0.0000000001
 40
0.0
 40
0.0
 40
0.0
 40
0.0
 40
0.2892175586
 40
0.4225710582
 40
0.548527207
 40
0.6678993565
 40
0.7818622138
 40
0.8919537871
 40
1.0
 40
1.0
 40
1.0
 40
1.0
 10
11.9279370733
 20
16.1435925959
 30
0.0
 10
11.9279370733
 20
16.1283897943
 30
0.0
 10
11.9297179999
 20
16.1060691337
 30
0.0
 10
11.9365721571
 20
16.0780113354
 30
0.0
 10
11.9435574681
 20
16.059315135
 30
0.0
 10
11.9524527147
 20
16.042586959
 30
0.0
 10
11.9632042152
 20
16.0279972014
 30
0.0
 10
11.975695358
 20
16.0156965542
 30
0.0
 10
11.9851525556
 20
16.0090971134
 30
0.0
 10
11.990071641
 20
16.0062582608
 30
0.0
  0
SPLINE
  5
2C7
100
AcDbEntity
  8
0
100
AcDbSpline
 62
7
  6
BYLAYER
 70
0
 71
3
 72
9
 73
5
 74
0
 42
0.0000001
 43
0.0000001
 44
0.0000000001
 40
0.0
 40
0.0
 40
0.0
 40
0.0
 40
0.4807129847
 40
1.0
 40
1.0
 40
1.0
 40
1.0
 10
12.2814919359
 20
15.9394722186
 30
0.0
 10
12.2814919359
 20
15.9565032343
 30
0.0
 10
12.2846629406
 20
15.9919602041
 30
0.0
 10
12.2928203412
 20
16.0265507446
 30
0.0
 10
12.2981281979
 20
16.0441660755
 30
0.0
  0
SPLINE
  5
2C8
100
AcDbEntity
  8
0
100
AcDbSpline
 62
7
  6
BYLAYER
 70
0
 71
3
 72
19
 73
15
 74
0
 42
0.0000001
 43
0.0000001
 44
0.0000000001
 40
0.0
 40
0.0
 40
0.0
 40
0.0
 40
0.0558777903
 40
0.1143289277
 40
0.1750372483
 40
0.237703811
 40
0.3674943296
 40
0.5006194066
 40
0.6336580991
 40
0.7631963002
 40
0.8256807801
 40
0.8861746758
 40
0.9443841805
 40
1.0
 40
1.0
 40
1.0
 40
1.0
 10
14.659145035
 20
33.9507283423
 30
0.0
 10
14.659145035
 20
33.9778287496
 30
0.0
 10
14.6567120705
 20
34.0332975912
 30
0.0
 10
14.6464492013
 20
34.1176397208
 30
0.0
 10
14.6295400645
 20
34.2042630882
 30
0.0
 10
14.5980257806
 20
34.3230101406
 30
0.0
 10
14.5430776721
 20
34.4714969099
 30
0.0
 10
14.4559250827
 20
34.6430678629
 30
0.0
 10
14.3500745675
 20
34.8036322737
 30
0.0
 10
14.2483939106
 20
34.9246680163
 30
0.0
 10
14.1609790731
 20
35.0105494978
 30
0.0
 10
14.0942521785
 20
35.0678438893
 30
0.0
 10
14.0262423697
 20
35.1181895225
 30
0.0
 10
13.9793865898
 20
35.1475204534
 30
0.0
 10
13.955912225
 20
35.1608063844
 30
0.0
  0
SPLINE
  5
2C9
100
AcDbEntity
  8
0
100
AcDbSpline
 62
7
  6
BYLAYER
 70
0
 71
3
 72
15
 73
11
 74
0
 42
0.0000001
 43
0.0000001
 44
0.0000000001
 40
0.0
 40
0.0
 40
0.0
 40
0.0
 40
0.1485386117
 40
0.2895047414
 40
0.4227360629
 40
0.5486402594
 40
0.6679961307
 40
0.7819386785
 40
0.8919881065
 40
1.0
 40
1.0
 40
1.0
 40
1.0
 10
7.119545919
 20
39.1073009338
 30
0.0
 10
7.0955216222
 20
39.1211710542
 30
0.0
 10
7.0475435724
 20
39.1462783219
 30
0.0
 10
6.9743671849
 20
39.1762419907
 30
0.0
 10
6.902481923
 20
39.1971933743
 30
0.0
 10
6.8325907477
 20
39.2089188909
 30
0.0
 10
6.7653339796
 20
39.2112512687
 30
0.0
 10
6.7013545306
 20
39.2041231607
 30
0.0
 10
6.6413401241
 20
39.1875208279
 30
0.0
 10
6.6042469222
 20
39.1701561656
 30
0.0
 10
6.5867782337
 20
39.1600687425
 30
0.0
  0
SPLINE
  5
2CA
100
AcDbEntity
  8
0
100
AcDbSpline
 62
7
  6
BYLAYER
 70
0
 71
3
 72
15
 73
11
 74
0
 42
0.0000001
 43
0.0000001
 44
0.0000000001
 40
0.0
 40
0.0
 40
0.0
 40
0.0
 40
0.1077253055
 40
0.2175317533
 40
0.3313136337
 40
0.4506047976
 40
0.5765576586
 40
0.7099512454
 40
0.8511691055
 40
1.0
 40
1.0
 40
1.0
 40
1.0
 10
13.8894919981
 20
30.8213538974
 30
0.0
 10
13.8731440878
 20
30.8119149592
 30
0.0
 10
13.83840069
 20
30.7956994053
 30
0.0
 10
13.7821537195
 20
30.7803230211
 30
0.0
 10
13.7221668919
 20
30.7739388355
 30
0.0
 10
13.6591024619
 20
30.7765067347
 30
0.0
 10
13.593575506
 20
30.7879769921
 30
0.0
 10
13.5261987189
 20
30.8081735484
 30
0.0
 10
13.4576518261
 20
30.8368906651
 30
0.0
 10
13.4127464242
 20
30.8608663489
 30
0.0
 10
13.3902708354
 20
30.8740962103
 30
0.0
  0
SPLINE
  5
2CB
100
AcDbEntity
  8
0
100
AcDbSpline
 62
7
  6
BYLAYER
 70
0
 71
3
 72
15
 73
11
 74
0
 42
0.0000001
 43
0.0000001
 44
0.0000000001
 40
0.0
 40
0.0
 40
0.0
 40
0.0
 40
0.1080121307
 40
0.2180610903
 40
0.3320052415
 40
0.4513551388
 40
0.5772583911
 40
0.7105001917
 40
0.8514761027
 40
1.0
 40
1.0
 40
1.0
 40
1.0
 10
14.455175068
 20
31.1479492203
 30
0.0
 10
14.4713214593
 20
31.1572718039
 30
0.0
 10
14.5023617399
 20
31.1789388523
 30
0.0
 10
14.5433892966
 20
31.2193015477
 30
0.0
 10
14.5786567776
 20
31.267222123
 30
0.0
 10
14.6078762316
 20
31.3221314091
 30
0.0
 10
14.6307870419
 20
31.3834960619
 30
0.0
 10
14.6472380023
 20
31.4507216427
 30
0.0
 10
14.6570681493
 20
31.5231437983
 30
0.0
 10
14.659145035
 20
31.5731494439
 30
0.0
 10
14.659145035
 20
31.5987868455
 30
0.0
  0
SPLINE
  5
2CC
100
AcDbEntity
  8
0
100
AcDbSpline
 62
7
  6
BYLAYER
 70
0
 71
3
 72
15
 73
11
 74
0
 42
0.0000001
 43
0.0000001
 44
0.0000000001
 40
0.0
 40
0.0
 40
0.0
 40
0.0
 40
0.145983723
 40
0.2849956273
 40
0.4170428465
 40
0.5426017174
 40
0.6624743765
 40
0.7777369243
 40
0.8897199704
 40
1.0
 40
1.0
 40
1.0
 40
1.0
 10
5.8026004379
 20
38.410755866
 30
0.0
 10
5.8042559837
 20
38.4347988432
 30
0.0
 10
5.8093986216
 20
38.4816351997
 30
0.0
 10
5.8231172246
 20
38.5492064804
 30
0.0
 10
5.8426090521
 20
38.6118446434
 30
0.0
 10
5.8677192106
 20
38.6690358703
 30
0.0
 10
5.8982984126
 20
38.7203226953
 30
0.0
 10
5.9341190705
 20
38.7652958657
 30
0.0
 10
5.9749218883
 20
38.8035307414
 30
0.0
 10
6.0053292807
 20
38.8243692927
 30
0.0
 10
6.0210951643
 20
38.8334734187
 30
0.0
  0
SPLINE
  5
2CD
100
AcDbEntity
  8
0
100
AcDbSpline
 62
7
  6
BYLAYER
 70
0
 71
3
 72
17
 73
13
 74
0
 42
0.0000001
 43
0.0000001
 44
0.0000000001
 40
0.0
 40
0.0
 40
0.0
 40
0.0
 40
0.0554570975
 40
0.1133409018
 40
0.2352370515
 40
0.3635254046
 40
0.4954559291
 40
0.6280119381
 40
0.7581325095
 40
0.8829315866
 40
0.9425960839
 40
1.0
 40
1.0
 40
1.0
 40
1.0
 10
6.5539045208
 20
34.8210102419
 30
0.0
 10
6.5299169144
 20
34.8348591796
 30
0.0
 10
6.4820469828
 20
34.8652039487
 30
0.0
 10
6.3876396571
 20
34.9352788242
 30
0.0
 10
6.2738976569
 20
35.0395986659
 30
0.0
 10
6.1493387223
 20
35.1847158854
 30
0.0
 10
6.0385355561
 20
35.3470700749
 30
0.0
 10
5.9452661778
 20
35.5211251443
 30
0.0
 10
5.8727105039
 20
35.7009456612
 30
0.0
 10
5.830900229
 20
35.8528532042
 30
0.0
 10
5.8103639196
 20
35.9719717944
 30
0.0
 10
5.8044163179
 20
36.0302012375
 30
0.0
 10
5.8026004379
 20
36.0588143691
 30
0.0
  0
SPLINE
  5
2CE
100
AcDbEntity
  8
0
100
AcDbSpline
 62
7
  6
BYLAYER
 70
0
 71
3
 72
19
 73
15
 74
0
 42
0.0000001
 43
0.0000001
 44
0.0000000001
 40
0.0
 40
0.0
 40
0.0
 40
0.0
 40
0.055615823
 40
0.1138253367
 40
0.1743192418
 40
0.2368037268
 40
0.3663419347
 40
0.4993806303
 40
0.6325057042
 40
0.7622962161
 40
0.8249627736
 40
0.8856710849
 40
0.9441222132
 40
1.0
 40
1.0
 40
1.0
 40
1.0
 10
13.3902291552
 20
34.8342110613
 30
0.0
 10
13.4137035215
 20
34.8209251294
 30
0.0
 10
13.4605593057
 20
34.7915941939
 30
0.0
 10
13.528569123
 20
34.7412485545
 30
0.0
 10
13.5952960254
 20
34.6839541545
 30
0.0
 10
13.6827108682
 20
34.5980726637
 30
0.0
 10
13.7843915259
 20
34.477036912
 30
0.0
 10
13.8902420386
 20
34.3164724957
 30
0.0
 10
13.977394622
 20
34.1449015432
 30
0.0
 10
14.032342723
 20
33.996414779
 30
0.0
 10
14.0638570015
 20
33.8776677359
 30
0.0
 10
14.0807661347
 20
33.7910443794
 30
0.0
 10
14.0910290027
 20
33.7067022603
 30
0.0
 10
14.0934619652
 20
33.6512334248
 30
0.0
 10
14.0934619652
 20
33.6241330192
 30
0.0
  0
SPLINE
  5
2CF
100
AcDbEntity
  8
0
100
AcDbSpline
 62
7
  6
BYLAYER
 70
0
 71
3
 72
15
 73
11
 74
0
 42
0.0000001
 43
0.0000001
 44
0.0000000001
 40
0.0
 40
0.0
 40
0.0
 40
0.0
 40
0.1485238942
 40
0.2894998169
 40
0.4227416276
 40
0.5486448795
 40
0.6679947718
 40
0.7819389201
 40
0.8919878754
 40
1.0
 40
1.0
 40
1.0
 40
1.0
 10
14.0934619652
 20
31.2721915224
 30
0.0
 10
14.0934619652
 20
31.2465541214
 30
0.0
 10
14.0913850779
 20
31.1965484744
 30
0.0
 10
14.0815549312
 20
31.1241263157
 30
0.0
 10
14.0651039698
 20
31.0569007313
 30
0.0
 10
14.0421931584
 20
30.9955360781
 30
0.0
 10
14.0129737029
 20
30.9406267944
 30
0.0
 10
13.9777062225
 20
30.8927062217
 30
0.0
 10
13.9366786683
 20
30.8523435267
 30
0.0
 10
13.9056383877
 20
30.8306764818
 30
0.0
 10
13.8894919981
 20
30.8213538974
 30
0.0
  0
SPLINE
  5
2D0
100
AcDbEntity
  8
0
100
AcDbSpline
 62
7
  6
BYLAYER
 70
0
 71
3
 72
15
 73
11
 74
0
 42
0.0000001
 43
0.0000001
 44
0.0000000001
 40
0.0
 40
0.0
 40
0.0
 40
0.0
 40
0.1080118987
 40
0.2180613309
 40
0.3320038803
 40
0.4513597555
 40
0.5772639529
 40
0.7104952676
 40
0.8514613866
 40
1.0
 40
1.0
 40
1.0
 40
1.0
 10
6.0210951643
 20
38.8334734187
 30
0.0
 10
6.0385638537
 20
38.8435608424
 30
0.0
 10
6.0756570563
 20
38.8609255077
 30
0.0
 10
6.1356714659
 20
38.8775278371
 30
0.0
 10
6.1996509163
 20
38.8846559484
 30
0.0
 10
6.2669076856
 20
38.882323566
 30
0.0
 10
6.3367988606
 20
38.8705980502
 30
0.0
 10
6.4086841192
 20
38.8496466661
 30
0.0
 10
6.4818605044
 20
38.8196829996
 30
0.0
 10
6.5298385521
 20
38.7945757313
 30
0.0
 10
6.5538628491
 20
38.7807056108
 30
0.0
  0
SPLINE
  5
2D1
100
AcDbEntity
  8
0
100
AcDbSpline
 62
7
  6
BYLAYER
 70
0
 71
3
 72
13
 73
9
 74
0
 42
0.0000001
 43
0.0000001
 44
0.0000000001
 40
0.0
 40
0.0
 40
0.0
 40
0.0
 40
0.1081040887
 40
0.2182391431
 40
0.3322401274
 40
0.4516646903
 40
0.7106947514
 40
1.0
 40
1.0
 40
1.0
 40
1.0
 10
40.1994440017
 20
32.0298129305
 30
0.0
 10
40.1863272435
 20
32.0373857164
 30
0.0
 10
40.1584720762
 20
32.0504122316
 30
0.0
 10
40.1134199489
 20
32.0628765607
 30
0.0
 10
40.0653931967
 20
32.0682461378
 30
0.0
 10
39.9962287531
 20
32.0658359887
 30
0.0
 10
39.9043475385
 20
32.0436815362
 30
0.0
 10
39.8345553455
 20
32.010460432
 30
0.0
 10
39.7994527844
 20
31.9901940799
 30
0.0
  0
SPLINE
  5
2D2
100
AcDbEntity
  8
0
100
AcDbSpline
 62
7
  6
BYLAYER
 70
0
 71
3
 72
9
 73
5
 74
0
 42
0.0000001
 43
0.0000001
 44
0.0000000001
 40
0.0
 40
0.0
 40
0.0
 40
0.0
 40
0.478674831
 40
1.0
 40
1.0
 40
1.0
 40
1.0
 10
39.9844859747
 20
32.0518034015
 30
0.0
 10
39.9938549495
 20
32.0235313393
 30
0.0
 10
40.0075669812
 20
31.9624639544
 30
0.0
 10
40.0115809916
 20
31.9001456363
 30
0.0
 10
40.0115809916
 20
31.8677078466
 30
0.0
  0
SPLINE
  5
2D3
100
AcDbEntity
  8
0
100
AcDbSpline
 62
7
  6
BYLAYER
 70
0
 71
3
 72
21
 73
17
 74
0
 42
0.0000001
 43
0.0000001
 44
0.0000000001
 40
0.0
 40
0.0
 40
0.0
 40
0.0
 40
0.0428244848
 40
0.0874145731
 40
0.1352105355
 40
0.1871310724
 40
0.2435909399
 40
0.3045631224
 40
0.3696748897
 40
0.4383019113
 40
0.5825298815
 40
0.7295780621
 40
0.8015782121
 40
0.8712093456
 40
0.9376296827
 40
1.0
 40
1.0
 40
1.0
 40
1.0
 10
35.3224920061
 20
51.2187926514
 30
0.0
 10
35.3224902822
 20
51.1960194189
 30
0.0
 10
35.3285948277
 20
51.1493384208
 30
0.0
 10
35.3553525206
 20
51.0819255012
 30
0.0
 10
35.3988072427
 20
51.0180294095
 30
0.0
 10
35.4576860508
 20
50.958894343
 30
0.0
 10
35.5306486132
 20
50.9055732456
 30
0.0
 10
35.6161428314
 20
50.8590834378
 30
0.0
 10
35.712369709
 20
50.8202966364
 30
0.0
 10
35.8546183486
 20
50.7793337687
 30
0.0
 10
36.0452050872
 20
50.7525828812
 30
0.0
 10
36.2392817371
 20
50.7579235779
 30
0.0
 10
36.3910759357
 20
50.7819701228
 30
0.0
 10
36.4984864648
 20
50.8092247144
 30
0.0
 10
36.5978417566
 20
50.845266947
 30
0.0
 10
36.6594532673
 20
50.8756164595
 30
0.0
 10
36.688177059
 20
50.8922000494
 30
0.0
  0
SPLINE
  5
2D4
100
AcDbEntity
  8
0
100
AcDbSpline
 62
7
  6
BYLAYER
 70
0
 71
3
 72
9
 73
5
 74
0
 42
0.0000001
 43
0.0000001
 44
0.0000000001
 40
0.0
 40
0.0
 40
0.0
 40
0.0
 40
0.4786297968
 40
1.0
 40
1.0
 40
1.0
 40
1.0
 10
35.4106585586
 20
51.0213305803
 30
0.0
 10
35.4304783024
 20
51.0436417505
 30
0.0
 10
35.4765822253
 20
51.0861652388
 30
0.0
 10
35.5286486935
 20
51.1208801154
 30
0.0
 10
35.5568014987
 20
51.137134048
 30
0.0
  0
SPLINE
  5
2D5
100
AcDbEntity
  8
0
100
AcDbSpline
 62
7
  6
BYLAYER
 70
0
 71
3
 72
10
 73
6
 74
0
 42
0.0000001
 43
0.0000001
 44
0.0000000001
 40
0.0
 40
0.0
 40
0.0
 40
0.0
 40
0.2314394158
 40
0.4771608006
 40
1.0
 40
1.0
 40
1.0
 40
1.0
 10
38.9509281798
 20
31.5003010953
 30
0.0
 10
38.9240824074
 20
31.4848017739
 30
0.0
 10
38.8706707331
 20
31.4494045136
 30
0.0
 10
38.7671640331
 20
31.364156129
 30
0.0
 10
38.6973681884
 20
31.28751574
 30
0.0
 10
38.6544289582
 20
31.2321964194
 30
0.0
  0
SPLINE
  5
2D6
100
AcDbEntity
  8
0
100
AcDbSpline
 62
7
  6
BYLAYER
 70
0
 71
3
 72
15
 73
11
 74
0
 42
0.0000001
 43
0.0000001
 44
0.0000000001
 40
0.0
 40
0.0
 40
0.0
 40
0.0
 40
0.1141242661
 40
0.2373486253
 40
0.3669740476
 40
0.5000015346
 40
0.6330288076
 40
0.7626536034
 40
0.8858770013
 40
1.0
 40
1.0
 40
1.0
 40
1.0
 10
40.0115809916
 20
31.8677078466
 30
0.0
 10
40.0115809916
 20
31.8230034557
 30
0.0
 10
40.0033727114
 20
31.7299454719
 30
0.0
 10
39.970747321
 20
31.5895617404
 30
0.0
 10
39.9184201931
 20
31.4473632304
 30
0.0
 10
39.8484330701
 20
31.308702344
 30
0.0
 10
39.7633435678
 20
31.1787610514
 30
0.0
 10
39.6663605538
 20
31.0623452979
 30
0.0
 10
39.5610984292
 20
30.9638995096
 30
0.0
 10
39.4846126879
 20
30.910262437
 30
0.0
 10
39.4458979219
 20
30.8879105898
 30
0.0
  0
SPLINE
  5
2D7
100
AcDbEntity
  8
0
100
AcDbSpline
 62
7
  6
BYLAYER
 70
0
 71
3
 72
13
 73
9
 74
0
 42
0.0000001
 43
0.0000001
 44
0.0000000001
 40
0.0
 40
0.0
 40
0.0
 40
0.0
 40
0.2893056469
 40
0.5483380184
 40
0.6677638292
 40
0.7817653218
 40
0.8918999303
 40
1.0
 40
1.0
 40
1.0
 40
1.0
 10
37.5367016636
 20
51.382093034
 30
0.0
 10
37.5718044299
 20
51.4023595046
 30
0.0
 10
37.6354717744
 20
51.4461905928
 30
0.0
 10
37.7006005727
 20
51.5146843765
 30
0.0
 10
37.7372712633
 20
51.5733778187
 30
0.0
 10
37.7566336451
 20
51.6176558877
 30
0.0
 10
37.768363278
 20
51.6629044685
 30
0.0
 10
37.7710100098
 20
51.6935402958
 30
0.0
 10
37.7710111563
 20
51.7086856392
 30
0.0
  0
SPLINE
  5
2D8
100
AcDbEntity
  8
0
100
AcDbSpline
 62
7
  6
BYLAYER
 70
0
 71
3
 72
15
 73
11
 74
0
 42
0.0000001
 43
0.0000001
 44
0.0000000001
 40
0.0
 40
0.0
 40
0.0
 40
0.0
 40
0.1189649365
 40
0.2485523808
 40
0.3846628592
 40
0.5224967673
 40
0.6570163536
 40
0.7835801692
 40
0.8985359239
 40
1.0
 40
1.0
 40
1.0
 40
1.0
 10
36.4053261034
 20
51.6270270327
 30
0.0
 10
36.4520620761
 20
51.654009898
 30
0.0
 10
36.5557857487
 20
51.7000973395
 30
0.0
 10
36.725192854
 20
51.7443437526
 30
0.0
 10
36.90767136
 20
51.7650335149
 30
0.0
 10
37.0934727436
 20
51.7610789392
 30
0.0
 10
37.2727866612
 20
51.73268301
 30
0.0
 10
37.4362178754
 20
51.6812855699
 30
0.0
 10
37.5752102625
 20
51.6095596794
 30
0.0
 10
37.6517517128
 20
51.5461125503
 30
0.0
 10
37.6823682418
 20
51.511745133
 30
0.0
  0
SPLINE
  5
2D9
100
AcDbEntity
  8
0
100
AcDbSpline
 62
7
  6
BYLAYER
 70
0
 71
3
 72
11
 73
7
 74
0
 42
0.0000001
 43
0.0000001
 44
0.0000000001
 40
0.0
 40
0.0
 40
0.0
 40
0.0
 40
0.2223345463
 40
0.461635429
 40
0.7208207999
 40
1.0
 40
1.0
 40
1.0
 40
1.0
 10
38.6556082177
 20
30.1194808576
 30
0.0
 10
38.6783599993
 20
30.1165293371
 30
0.0
 10
38.7263751477
 20
30.1156686688
 30
0.0
 10
38.8000286851
 20
30.1283037613
 30
0.0
 10
38.8762023434
 20
30.1544476971
 30
0.0
 10
38.9259795452
 20
30.179493213
 30
0.0
 10
38.9509281798
 20
30.1938972279
 30
0.0
  0
SPLINE
  5
2DA
100
AcDbEntity
  8
0
100
AcDbSpline
 62
7
  6
BYLAYER
 70
0
 71
3
 72
21
 73
17
 74
0
 42
0.0000001
 43
0.0000001
 44
0.0000000001
 40
0.0
 40
0.0
 40
0.0
 40
0.0
 40
0.0428244848
 40
0.0874145731
 40
0.1352105355
 40
0.1871310724
 40
0.2435909399
 40
0.3045631224
 40
0.3696748897
 40
0.4383019113
 40
0.5825298815
 40
0.7295780621
 40
0.8015782121
 40
0.8712093456
 40
0.9376296827
 40
1.0
 40
1.0
 40
1.0
 40
1.0
 10
37.7710111563
 20
51.7086856392
 30
0.0
 10
37.7710128802
 20
51.7314588717
 30
0.0
 10
37.7649083347
 20
51.7781398698
 30
0.0
 10
37.7381506418
 20
51.8455527894
 30
0.0
 10
37.6946959197
 20
51.9094488811
 30
0.0
 10
37.6358171116
 20
51.9685839476
 30
0.0
 10
37.5628545492
 20
52.021905045
 30
0.0
 10
37.477360331
 20
52.0683948528
 30
0.0
 10
37.3811334534
 20
52.1071816542
 30
0.0
 10
37.2388848138
 20
52.1481445219
 30
0.0
 10
37.0482980752
 20
52.1748954094
 30
0.0
 10
36.8542214253
 20
52.1695547127
 30
0.0
 10
36.7024272267
 20
52.1455081679
 30
0.0
 10
36.5950166976
 20
52.1182535762
 30
0.0
 10
36.4956614058
 20
52.0822113436
 30
0.0
 10
36.4340498951
 20
52.0518618311
 30
0.0
 10
36.4053261034
 20
52.0352782412
 30
0.0
  0
SPLINE
  5
2DB
100
AcDbEntity
  8
0
100
AcDbSpline
 62
7
  6
BYLAYER
 70
0
 71
3
 72
13
 73
9
 74
0
 42
0.0000001
 43
0.0000001
 44
0.0000000001
 40
0.0
 40
0.0
 40
0.0
 40
0.0
 40
0.2893056469
 40
0.5483380184
 40
0.6677638292
 40
0.7817653218
 40
0.8918999303
 40
1.0
 40
1.0
 40
1.0
 40
1.0
 10
35.5568014987
 20
51.5453852566
 30
0.0
 10
35.5216987325
 20
51.525118786
 30
0.0
 10
35.458031388
 20
51.4812876978
 30
0.0
 10
35.3929025897
 20
51.4127939141
 30
0.0
 10
35.3562318991
 20
51.3541004719
 30
0.0
 10
35.3368695173
 20
51.3098224029
 30
0.0
 10
35.3251398844
 20
51.2645738221
 30
0.0
 10
35.3224931526
 20
51.2339379948
 30
0.0
 10
35.3224920061
 20
51.2187926514
 30
0.0
  0
SPLINE
  5
2DC
100
AcDbEntity
  8
0
100
AcDbSpline
 62
7
  6
BYLAYER
 70
0
 71
3
 72
13
 73
9
 74
0
 42
0.0000001
 43
0.0000001
 44
0.0000000001
 40
0.0
 40
0.0
 40
0.0
 40
0.0
 40
0.2893067043
 40
0.5483372018
 40
0.6677616121
 40
0.7817621933
 40
0.8918966414
 40
1.0
 40
1.0
 40
1.0
 40
1.0
 10
40.3651358542
 20
31.6635874693
 30
0.0
 10
40.3651358542
 20
31.7041221678
 30
0.0
 10
40.3590099986
 20
31.7811778779
 30
0.0
 10
40.3322545728
 20
31.8718304307
 30
0.0
 10
40.2997581155
 20
31.9329359836
 30
0.0
 10
40.271093223
 20
31.9718447968
 30
0.0
 10
40.2377712212
 20
32.0046296934
 30
0.0
 10
40.212561192
 20
32.0222398951
 30
0.0
 10
40.1994440017
 20
32.0298129305
 30
0.0
  0
SPLINE
  5
2DD
100
AcDbEntity
  8
0
100
AcDbSpline
 62
7
  6
BYLAYER
 70
0
 71
3
 72
15
 73
11
 74
0
 42
0.0000001
 43
0.0000001
 44
0.0000000001
 40
0.0
 40
0.0
 40
0.0
 40
0.0
 40
0.1141229605
 40
0.2373462928
 40
0.366971064
 40
0.4999983279
 40
0.633025824
 40
0.762651271
 40
0.8858756957
 40
1.0
 40
1.0
 40
1.0
 40
1.0
 10
39.7994527844
 20
30.6837902125
 30
0.0
 10
39.8381675375
 20
30.7061420522
 30
0.0
 10
39.9146532534
 20
30.7597790899
 30
0.0
 10
40.0199153401
 20
30.8582248454
 30
0.0
 10
40.1168983423
 20
30.974640557
 30
0.0
 10
40.2019878548
 20
31.1045818317
 30
0.0
 10
40.2719749983
 20
31.2432427183
 30
0.0
 10
40.3243021566
 20
31.3854412595
 30
0.0
 10
40.3569275564
 20
31.5258250401
 30
0.0
 10
40.3651358542
 20
31.6188830634
 30
0.0
 10
40.3651358542
 20
31.6635874693
 30
0.0
  0
SPLINE
  5
2DE
100
AcDbEntity
  8
0
100
AcDbSpline
 62
7
  6
BYLAYER
 70
0
 71
3
 72
15
 73
11
 74
0
 42
0.0000001
 43
0.0000001
 44
0.0000000001
 40
0.0
 40
0.0
 40
0.0
 40
0.0
 40
0.1080099244
 40
0.2180650649
 40
0.3320023985
 40
0.4513407304
 40
0.5772495526
 40
0.7105306992
 40
0.8515229445
 40
1.0
 40
1.0
 40
1.0
 40
1.0
 10
10.481602437
 20
29.508185357
 30
0.0
 10
10.5037360282
 20
29.5209634042
 30
0.0
 10
10.5463014601
 20
29.5506467278
 30
0.0
 10
10.6025126513
 20
29.6060048044
 30
0.0
 10
10.6508814007
 20
29.6716705564
 30
0.0
 10
10.6909241368
 20
29.7469444486
 30
0.0
 10
10.7223410592
 20
29.8310665934
 30
0.0
 10
10.7448825858
 20
29.9232372805
 30
0.0
 10
10.7583559681
 20
30.0225149158
 30
0.0
 10
10.7612085631
 20
30.0910551629
 30
0.0
 10
10.7612085631
 20
30.1261877591
 30
0.0
  0
SPLINE
  5
2DF
100
AcDbEntity
  8
0
100
AcDbSpline
 62
7
  6
BYLAYER
 70
0
 71
3
 72
15
 73
11
 74
0
 42
0.0000001
 43
0.0000001
 44
0.0000000001
 40
0.0
 40
0.0
 40
0.0
 40
0.0
 40
0.1484803481
 40
0.2894747676
 40
0.4227556535
 40
0.5486625662
 40
0.6679988372
 40
0.7819347831
 40
0.8919889139
 40
1.0
 40
1.0
 40
1.0
 40
1.0
 10
5.3518191657
 20
33.6983058606
 30
0.0
 10
5.3518191657
 20
33.737342902
 30
0.0
 10
5.3549890324
 20
33.8135000877
 30
0.0
 10
5.3699602312
 20
33.923809738
 30
0.0
 10
5.3950069062
 20
34.0262213376
 30
0.0
 10
5.4299146015
 20
34.1196891623
 30
0.0
 10
5.4744073078
 20
34.2033245657
 30
0.0
 10
5.5281481998
 20
34.276286544
 30
0.0
 10
5.5906057446
 20
34.3377942832
 30
0.0
 10
5.6378998498
 20
34.3707766631
 30
0.0
 10
5.6624926241
 20
34.3849752241
 30
0.0
  0
SPLINE
  5
2E0
100
AcDbEntity
  8
0
100
AcDbSpline
 62
7
  6
BYLAYER
 70
0
 71
3
 72
10
 73
6
 74
0
 42
0.0000001
 43
0.0000001
 44
0.0000000001
 40
0.0
 40
0.0
 40
0.0
 40
0.0
 40
0.2783296535
 40
0.537709705
 40
1.0
 40
1.0
 40
1.0
 40
1.0
 10
8.9227232777
 20
27.4317026021
 30
0.0
 10
8.9078179751
 20
27.4403079878
 30
0.0
 10
8.8780386825
 20
27.4553695773
 30
0.0
 10
8.8197246106
 20
27.476053543
 30
0.0
 10
8.7742412596
 20
27.4816226366
 30
0.0
 10
8.7457706339
 20
27.4790498845
 30
0.0
  0
SPLINE
  5
2E1
100
AcDbEntity
  8
0
100
AcDbSpline
 62
7
  6
BYLAYER
 70
0
 71
3
 72
9
 73
5
 74
0
 42
0.0000001
 43
0.0000001
 44
0.0000000001
 40
0.0
 40
0.0
 40
0.0
 40
0.0
 40
0.5080253381
 40
1.0
 40
1.0
 40
1.0
 40
1.0
 10
8.7457706339
 20
27.4790498845
 30
0.0
 10
8.7327988339
 20
27.477877686
 30
0.0
 10
8.7074047099
 20
27.4730527863
 30
0.0
 10
8.6836489691
 20
27.4627691297
 30
0.0
 10
8.6727256444
 20
27.4564625809
 30
0.0
  0
SPLINE
  5
2E2
100
AcDbEntity
  8
0
100
AcDbSpline
 62
7
  6
BYLAYER
 70
0
 71
3
 72
15
 73
11
 74
0
 42
0.0000001
 43
0.0000001
 44
0.0000000001
 40
0.0
 40
0.0
 40
0.0
 40
0.0
 40
0.1156826066
 40
0.2391578055
 40
0.3681293214
 40
0.5000008639
 40
0.6318722871
 40
0.7608434483
 40
0.8843181103
 40
1.0
 40
1.0
 40
1.0
 40
1.0
 10
11.0434503632
 20
25.8228054644
 30
0.0
 10
11.0421482535
 20
25.849242297
 30
0.0
 10
11.0352829343
 20
25.903737531
 30
0.0
 10
11.0142352182
 20
25.9854854917
 30
0.0
 10
10.9827496272
 20
26.067781149
 30
0.0
 10
10.9418608091
 20
26.1479778027
 30
0.0
 10
10.8928526278
 20
26.2234866256
 30
0.0
 10
10.8373251422
 20
26.2919013574
 30
0.0
 10
10.7770531407
 20
26.3510026229
 30
0.0
 10
10.7332915465
 20
26.3841953175
 30
0.0
 10
10.7110476578
 20
26.3985411301
 30
0.0
  0
SPLINE
  5
2E3
100
AcDbEntity
  8
0
100
AcDbSpline
 62
7
  6
BYLAYER
 70
0
 71
3
 72
24
 73
20
 74
0
 42
0.0000001
 43
0.0000001
 44
0.0000000001
 40
0.0
 40
0.0
 40
0.0
 40
0.0
 40
0.0623679519
 40
0.1287421774
 40
0.1983324012
 40
0.2703132375
 40
0.3436960505
 40
0.4174305354
 40
0.490459163
 40
0.5617514151
 40
0.6303554432
 40
0.6954474429
 40
0.7564003365
 40
0.8128431363
 40
0.864746879
 40
0.912526272
 40
0.9571049822
 40
0.9786666411
 40
1.0
 40
1.0
 40
1.0
 40
1.0
 10
10.7612085631
 20
30.1261877591
 30
0.0
 10
10.7612085631
 20
30.1821759429
 30
0.0
 10
10.7536003318
 20
30.2978239872
 30
0.0
 10
10.7224086256
 20
30.4734157388
 30
0.0
 10
10.6716350452
 20
30.6533513601
 30
0.0
 10
10.6024138091
 20
30.8337424774
 30
0.0
 10
10.5162294032
 20
31.0108071763
 30
0.0
 10
10.4148996989
 20
31.1807541946
 30
0.0
 10
10.3005800459
 20
31.3399525627
 30
0.0
 10
10.1757244252
 20
31.48502721
 30
0.0
 10
10.0429733103
 20
31.6128862089
 30
0.0
 10
9.9051102981
 20
31.72080377
 30
0.0
 10
9.7650165639
 20
31.8065163749
 30
0.0
 10
9.625533322
 20
31.8681726268
 30
0.0
 10
9.4894103085
 20
31.9043129113
 30
0.0
 10
9.3594085288
 20
31.9139256216
 30
0.0
 10
9.257204478
 20
31.8988786789
 30
0.0
 10
9.1828273903
 20
31.8731554031
 30
0.0
 10
9.1482040417
 20
31.8560153148
 30
0.0
 10
9.1316184312
 20
31.8464401984
 30
0.0
  0
SPLINE
  5
2E4
100
AcDbEntity
  8
0
100
AcDbSpline
 62
7
  6
BYLAYER
 70
0
 71
3
 72
11
 73
7
 74
0
 42
0.0000001
 43
0.0000001
 44
0.0000000001
 40
0.0
 40
0.0
 40
0.0
 40
0.0
 40
0.2195591714
 40
0.4534270897
 40
0.7120621585
 40
1.0
 40
1.0
 40
1.0
 40
1.0
 10
10.9154954605
 20
24.9599375049
 30
0.0
 10
10.9012726149
 20
24.9517259964
 30
0.0
 10
10.8688233063
 20
24.9396698644
 30
0.0
 10
10.8149293968
 20
24.937252165
 30
0.0
 10
10.7573588533
 20
24.9496075832
 30
0.0
 10
10.7197277582
 20
24.966252061
 30
0.0
 10
10.7007743382
 20
24.97648176
 30
0.0
  0
SPLINE
  5
2E5
100
AcDbEntity
  8
0
100
AcDbSpline
 62
7
  6
BYLAYER
 70
0
 71
3
 72
11
 73
7
 74
0
 42
0.0000001
 43
0.0000001
 44
0.0000000001
 40
0.0
 40
0.0
 40
0.0
 40
0.0
 40
0.2178165054
 40
0.4519571895
 40
0.7116349221
 40
1.0
 40
1.0
 40
1.0
 40
1.0
 10
10.9497231314
 20
24.9223748557
 30
0.0
 10
10.9649123903
 20
24.9325225587
 30
0.0
 10
10.9930509445
 20
24.9590160091
 30
0.0
 10
11.0228188347
 20
25.0115515357
 30
0.0
 10
11.0405363765
 20
25.0752433567
 30
0.0
 10
11.0440524531
 20
25.1213434752
 30
0.0
 10
11.0440524531
 20
25.1455271963
 30
0.0
  0
SPLINE
  5
2E6
100
AcDbEntity
  8
0
100
AcDbSpline
 62
7
  6
BYLAYER
 70
0
 71
3
 72
15
 73
11
 74
0
 42
0.0000001
 43
0.0000001
 44
0.0000000001
 40
0.0
 40
0.0
 40
0.0
 40
0.0
 40
0.1141232787
 40
0.2373467935
 40
0.3669716251
 40
0.4999988493
 40
0.6330262331
 40
0.7626515288
 40
0.885875802
 40
1.0
 40
1.0
 40
1.0
 40
1.0
 10
8.9227232777
 20
26.0028233721
 30
0.0
 10
8.9009460647
 20
26.0153961675
 30
0.0
 10
8.8579225137
 20
26.0455667714
 30
0.0
 10
8.7987120862
 20
26.1009422259
 30
0.0
 10
8.744158684
 20
26.1664258057
 30
0.0
 10
8.696295427
 20
26.2395175485
 30
0.0
 10
8.6569273246
 20
26.3175141157
 30
0.0
 10
8.627493048
 20
26.3975006639
 30
0.0
 10
8.609141105
 20
26.4764664657
 30
0.0
 10
8.6045239014
 20
26.5288115794
 30
0.0
 10
8.6045239014
 20
26.5539577993
 30
0.0
  0
SPLINE
  5
2E7
100
AcDbEntity
  8
0
100
AcDbSpline
 62
7
  6
BYLAYER
 70
0
 71
3
 72
11
 73
7
 74
0
 42
0.0000001
 43
0.0000001
 44
0.0000000001
 40
0.0
 40
0.0
 40
0.0
 40
0.0
 40
0.2897033281
 40
0.5490895198
 40
0.7822165953
 40
1.0
 40
1.0
 40
1.0
 40
1.0
 10
8.6045239014
 20
27.2071597331
 30
0.0
 10
8.6045239014
 20
27.229960398
 30
0.0
 10
8.6079808176
 20
27.2733224304
 30
0.0
 10
8.6255419205
 20
27.3328995906
 30
0.0
 10
8.6551089855
 20
27.3812430869
 30
0.0
 10
8.682881434
 20
27.4045913477
 30
0.0
 10
8.6977254077
 20
27.4131614622
 30
0.0
  0
SPLINE
  5
2E8
100
AcDbEntity
  8
0
100
AcDbSpline
 62
7
  6
BYLAYER
 70
0
 71
3
 72
15
 73
11
 74
0
 42
0.0000001
 43
0.0000001
 44
0.0000000001
 40
0.0
 40
0.0
 40
0.0
 40
0.0
 40
0.1141465952
 40
0.2373352439
 40
0.366975646
 40
0.4999989181
 40
0.6330223406
 40
0.7626631822
 40
0.8858525235
 40
1.0
 40
1.0
 40
1.0
 40
1.0
 10
13.2007371148
 20
30.3915871111
 30
0.0
 10
13.2733428252
 20
30.349669133
 30
0.0
 10
13.416761909
 20
30.2491233562
 30
0.0
 10
13.6141107202
 20
30.0645118674
 30
0.0
 10
13.7959555917
 20
29.8462557515
 30
0.0
 10
13.9554902643
 20
29.6026026868
 30
0.0
 10
14.0867340494
 20
29.342615411
 30
0.0
 10
14.1848286778
 20
29.0760047127
 30
0.0
 10
14.2460345147
 20
28.8127888428
 30
0.0
 10
14.2614017025
 20
28.6383103797
 30
0.0
 10
14.2614017025
 20
28.5544723537
 30
0.0
  0
SPLINE
  5
2E9
100
AcDbEntity
  8
0
100
AcDbSpline
 62
7
  6
BYLAYER
 70
0
 71
3
 72
9
 73
5
 74
0
 42
0.0000001
 43
0.0000001
 44
0.0000000001
 40
0.0
 40
0.0
 40
0.0
 40
0.0
 40
0.5047328198
 40
1.0
 40
1.0
 40
1.0
 40
1.0
 10
6.5312509595
 20
34.8529086252
 30
0.0
 10
6.5026801784
 20
34.8474135341
 30
0.0
 10
6.4468161265
 20
34.8320671023
 30
0.0
 10
6.3943204795
 20
34.8074937122
 30
0.0
 10
6.3695964613
 20
34.793219378
 30
0.0
  0
SPLINE
  5
2EA
100
AcDbEntity
  8
0
100
AcDbSpline
 62
7
  6
BYLAYER
 70
0
 71
3
 72
11
 73
7
 74
0
 42
0.0000001
 43
0.0000001
 44
0.0000000001
 40
0.0
 40
0.0
 40
0.0
 40
0.0
 40
0.2178164972
 40
0.4519571357
 40
0.7116348582
 40
1.0
 40
1.0
 40
1.0
 40
1.0
 10
8.6634981447
 20
27.4507243838
 30
0.0
 10
8.6483088273
 20
27.4405767062
 30
0.0
 10
8.6201701524
 20
27.4140832753
 30
0.0
 10
8.5904021269
 20
27.3615476919
 30
0.0
 10
8.5726845061
 20
27.2978557566
 30
0.0
 10
8.5691684151
 20
27.2517555438
 30
0.0
 10
8.5691684151
 20
27.2275717708
 30
0.0
  0
SPLINE
  5
2EB
100
AcDbEntity
  8
0
100
AcDbSpline
 62
7
  6
BYLAYER
 70
0
 71
3
 72
15
 73
11
 74
0
 42
0.0000001
 43
0.0000001
 44
0.0000000001
 40
0.0
 40
0.0
 40
0.0
 40
0.0
 40
0.1080115942
 40
0.2180661562
 40
0.332002388
 40
0.4513387659
 40
0.5772455935
 40
0.7105262128
 40
0.8515201999
 40
1.0
 40
1.0
 40
1.0
 40
1.0
 10
5.6624926241
 20
34.3849752241
 30
0.0
 10
5.6870848552
 20
34.3991734714
 30
0.0
 10
5.7392943799
 20
34.4236394517
 30
0.0
 10
5.8237884427
 20
34.4469748846
 30
0.0
 10
5.9138435716
 20
34.457034938
 30
0.0
 10
6.0085178635
 20
34.453749667
 30
0.0
 10
6.1069146369
 20
34.43724788
 30
0.0
 10
6.2081263542
 20
34.4077348312
 30
0.0
 10
6.3111402321
 20
34.3655476407
 30
0.0
 10
6.3786775233
 20
34.3302159491
 30
0.0
 10
6.4124837534
 20
34.3106983545
 30
0.0
  0
SPLINE
  5
2EC
100
AcDbEntity
  8
0
100
AcDbSpline
 62
7
  6
BYLAYER
 70
0
 71
3
 72
15
 73
11
 74
0
 42
0.0000001
 43
0.0000001
 44
0.0000000001
 40
0.0
 40
0.0
 40
0.0
 40
0.0
 40
0.1141232787
 40
0.2373467935
 40
0.3669716251
 40
0.4999988493
 40
0.6330262331
 40
0.7626515288
 40
0.885875802
 40
1.0
 40
1.0
 40
1.0
 40
1.0
 10
10.6904975905
 20
26.3702755949
 30
0.0
 10
10.7122748036
 20
26.3577027996
 30
0.0
 10
10.7552983546
 20
26.3275321957
 30
0.0
 10
10.814508782
 20
26.2721567411
 30
0.0
 10
10.8690621842
 20
26.2066731614
 30
0.0
 10
10.9169254412
 20
26.1335814186
 30
0.0
 10
10.9562935436
 20
26.0555848513
 30
0.0
 10
10.9857278202
 20
25.9755983031
 30
0.0
 10
11.0040797632
 20
25.8966325013
 30
0.0
 10
11.0086969669
 20
25.8442873876
 30
0.0
 10
11.0086969669
 20
25.8191411677
 30
0.0
  0
SPLINE
  5
2ED
100
AcDbEntity
  8
0
100
AcDbSpline
 62
7
  6
BYLAYER
 70
0
 71
3
 72
11
 73
7
 74
0
 42
0.0000001
 43
0.0000001
 44
0.0000000001
 40
0.0
 40
0.0
 40
0.0
 40
0.0
 40
0.2897033281
 40
0.5490895198
 40
0.7822165953
 40
1.0
 40
1.0
 40
1.0
 40
1.0
 10
11.0086969669
 20
25.165939234
 30
0.0
 10
11.0086969669
 20
25.143138569
 30
0.0
 10
11.0052400506
 20
25.0997765366
 30
0.0
 10
10.9876789477
 20
25.0401993764
 30
0.0
 10
10.9581118827
 20
24.9918558801
 30
0.0
 10
10.9303394342
 20
24.9685076193
 30
0.0
 10
10.9154954605
 20
24.9599375049
 30
0.0
  0
SPLINE
  5
2EE
100
AcDbEntity
  8
0
100
AcDbSpline
 62
7
  6
BYLAYER
 70
0
 71
3
 72
15
 73
11
 74
0
 42
0.0000001
 43
0.0000001
 44
0.0000000001
 40
0.0
 40
0.0
 40
0.0
 40
0.0
 40
0.1156826066
 40
0.2391578055
 40
0.3681293214
 40
0.5000008639
 40
0.6318722871
 40
0.7608434483
 40
0.8843181103
 40
1.0
 40
1.0
 40
1.0
 40
1.0
 10
8.569770505
 20
26.5502935026
 30
0.0
 10
8.5710726148
 20
26.5238566701
 30
0.0
 10
8.5779379339
 20
26.469361436
 30
0.0
 10
8.5989856501
 20
26.3876134753
 30
0.0
 10
8.630471241
 20
26.305317818
 30
0.0
 10
8.6713600591
 20
26.2251211644
 30
0.0
 10
8.7203682404
 20
26.1496123415
 30
0.0
 10
8.775895726
 20
26.0811976096
 30
0.0
 10
8.8361677275
 20
26.0220963441
 30
0.0
 10
8.8799293217
 20
25.9889036495
 30
0.0
 10
8.9021732104
 20
25.9745578369
 30
0.0
  0
SPLINE
  5
2EF
100
AcDbEntity
  8
0
100
AcDbSpline
 62
7
  6
BYLAYER
 70
0
 71
3
 72
10
 73
6
 74
0
 42
0.0000001
 43
0.0000001
 44
0.0000000001
 40
0.0
 40
0.0
 40
0.0
 40
0.0
 40
0.2783296535
 40
0.537709705
 40
1.0
 40
1.0
 40
1.0
 40
1.0
 10
10.6904975905
 20
24.9413963649
 30
0.0
 10
10.7054028931
 20
24.9327909792
 30
0.0
 10
10.7351821858
 20
24.9177293898
 30
0.0
 10
10.7934962576
 20
24.8970454241
 30
0.0
 10
10.8389796087
 20
24.8914763304
 30
0.0
 10
10.8674502343
 20
24.8940490825
 30
0.0
  0
SPLINE
  5
2F0
100
AcDbEntity
  8
0
100
AcDbSpline
 62
7
  6
BYLAYER
 70
0
 71
3
 72
9
 73
5
 74
0
 42
0.0000001
 43
0.0000001
 44
0.0000000001
 40
0.0
 40
0.0
 40
0.0
 40
0.0
 40
0.5080253381
 40
1.0
 40
1.0
 40
1.0
 40
1.0
 10
10.8674502343
 20
24.8940490825
 30
0.0
 10
10.8804220343
 20
24.895221281
 30
0.0
 10
10.9058161583
 20
24.9000461807
 30
0.0
 10
10.9295718992
 20
24.9103298374
 30
0.0
 10
10.9404952239
 20
24.9166363861
 30
0.0
  0
SPLINE
  5
2F1
100
AcDbEntity
  8
0
100
AcDbSpline
 62
7
  6
BYLAYER
 70
0
 71
3
 72
15
 73
11
 74
0
 42
0.0000001
 43
0.0000001
 44
0.0000000001
 40
0.0
 40
0.0
 40
0.0
 40
0.0
 40
0.1141474765
 40
0.2373368178
 40
0.3669776594
 40
0.5000010819
 40
0.633024354
 40
0.7626647561
 40
0.8858534048
 40
1.0
 40
1.0
 40
1.0
 40
1.0
 10
14.9685055398
 20
28.9627165075
 30
0.0
 10
14.9685055398
 20
29.0465545335
 30
0.0
 10
14.9531383519
 20
29.2210329966
 30
0.0
 10
14.891932515
 20
29.4842488666
 30
0.0
 10
14.7938378866
 20
29.7508595649
 30
0.0
 10
14.6625941016
 20
30.0108468407
 30
0.0
 10
14.5030594289
 20
30.2544999054
 30
0.0
 10
14.3212145574
 20
30.4727560212
 30
0.0
 10
14.1238657462
 20
30.6573675101
 30
0.0
 10
13.9804466624
 20
30.7579132869
 30
0.0
 10
13.907840952
 20
30.799831265
 30
0.0
  0
SPLINE
  5
2F2
100
AcDbEntity
  8
0
100
AcDbSpline
 62
7
  6
BYLAYER
 70
0
 71
3
 72
24
 73
20
 74
0
 42
0.0000001
 43
0.0000001
 44
0.0000000001
 40
0.0
 40
0.0
 40
0.0
 40
0.0
 40
0.0623679519
 40
0.1287421774
 40
0.1983324012
 40
0.2703132375
 40
0.3436960505
 40
0.4174305354
 40
0.490459163
 40
0.5617514151
 40
0.6303554432
 40
0.6954474429
 40
0.7564003365
 40
0.8128431363
 40
0.864746879
 40
0.912526272
 40
0.9571049822
 40
0.9786666411
 40
1.0
 40
1.0
 40
1.0
 40
1.0
 10
8.8520123052
 20
31.2284377963
 30
0.0
 10
8.8520123052
 20
31.1724496126
 30
0.0
 10
8.8596205364
 20
31.0568015683
 30
0.0
 10
8.8908122426
 20
30.8812098167
 30
0.0
 10
8.941585823
 20
30.7012741954
 30
0.0
 10
9.0108070591
 20
30.5208830781
 30
0.0
 10
9.096991465
 20
30.3438183791
 30
0.0
 10
9.1983211693
 20
30.1738713609
 30
0.0
 10
9.3126408224
 20
30.0146729927
 30
0.0
 10
9.437496443
 20
29.8695983455
 30
0.0
 10
9.5702475579
 20
29.7417393465
 30
0.0
 10
9.7081105701
 20
29.6338217855
 30
0.0
 10
9.8482043044
 20
29.5481091805
 30
0.0
 10
9.9876875462
 20
29.4864529287
 30
0.0
 10
10.1238105597
 20
29.4503126441
 30
0.0
 10
10.2538123394
 20
29.4406999338
 30
0.0
 10
10.3560163902
 20
29.4557468765
 30
0.0
 10
10.4303934779
 20
29.4814701523
 30
0.0
 10
10.4650168265
 20
29.4986102406
 30
0.0
 10
10.481602437
 20
29.508185357
 30
0.0
  0
SPLINE
  5
2F3
100
AcDbEntity
  8
0
100
AcDbSpline
 62
7
  6
BYLAYER
 70
0
 71
3
 72
11
 73
7
 74
0
 42
0.0000001
 43
0.0000001
 44
0.0000000001
 40
0.0
 40
0.0
 40
0.0
 40
0.0
 40
0.2195591714
 40
0.4534270897
 40
0.7120621585
 40
1.0
 40
1.0
 40
1.0
 40
1.0
 10
8.6977254077
 20
27.4131614622
 30
0.0
 10
8.7119482533
 20
27.4213729706
 30
0.0
 10
8.7443975619
 20
27.4334291026
 30
0.0
 10
8.7982914714
 20
27.4358468021
 30
0.0
 10
8.855862015
 20
27.4234913839
 30
0.0
 10
8.8934931101
 20
27.4068469061
 30
0.0
 10
8.91244653
 20
27.396617207
 30
0.0
  0
SPLINE
  5
2F4
100
AcDbEntity
  8
0
100
AcDbSpline
 62
7
  6
BYLAYER
 70
0
 71
3
 72
15
 73
11
 74
0
 42
0.0000001
 43
0.0000001
 44
0.0000000001
 40
0.0
 40
0.0
 40
0.0
 40
0.0
 40
0.1080099244
 40
0.2180650649
 40
0.3320023985
 40
0.4513407304
 40
0.5772495526
 40
0.7105306992
 40
0.8515229445
 40
1.0
 40
1.0
 40
1.0
 40
1.0
 10
9.1316184312
 20
31.8464401984
 30
0.0
 10
9.1094848401
 20
31.8336621513
 30
0.0
 10
9.0669194082
 20
31.8039788277
 30
0.0
 10
9.0107082169
 20
31.748620751
 30
0.0
 10
8.9623394676
 20
31.682954999
 30
0.0
 10
8.9222967314
 20
31.6076811069
 30
0.0
 10
8.890879809
 20
31.5235589621
 30
0.0
 10
8.8683382824
 20
31.4313882749
 30
0.0
 10
8.8548649001
 20
31.3321106396
 30
0.0
 10
8.8520123052
 20
31.2635703925
 30
0.0
 10
8.8520123052
 20
31.2284377963
 30
0.0
  0
ENDSEC
  0
SECTION
  2
OBJECTS
  0
DICTIONARY
  5
C
100
AcDbDictionary
280
0
281
1
  3
ACAD_GROUP
350
D
  3
ACAD_MLINESTYLE
350
17
  3
ACAD_LAYOUT
350
1A
  3
ACAD_PLOTSETTINGS
350
19
  3
ACAD_PLOTSTYLENAME
350
E
  0
DICTIONARY
  5
D
102
{ACAD_REACTORS
330
C
102
}
100
AcDbDictionary
280
0
281
1
  0
ACDBDICTIONARYWDFLT
  5
E
102
{ACAD_REACTORS
330
C
102
}
100
AcDbDictionary
281
1
  3
Normal
350
F
100
AcDbDictionaryWithDefault
340
F
  0
DICTIONARY
  5
17
102
{ACAD_REACTORS
330
C
102
}
100
AcDbDictionary
280
0
281
1
  3
Standard
350
18
  0
DICTIONARY
  5
19
102
{ACAD_REACTORS
330
C
102
}
100
AcDbDictionary
281
1
  0
DICTIONARY
  5
1A
102
{ACAD_REACTORS
330
C
102
}
100
AcDbDictionary
281
1
  3
Model
350
2F5
  3
Layout1
350
2F6
  0
ACDBPLACEHOLDER
  5
F
102
{ACAD_REACTORS
330
E
102
}
  0
MLINESTYLE
  5
18
102
{ACAD_REACTORS
330
17
102
}
100
AcDbMlineStyle
  2
STANDARD
 70
0
  3

 62
256
 51
90.0
 52
90.0
 71
2
 49
0.5
 62
256
  6
BYLAYER
 49
-0.5
 62
256
  6
BYLAYER
  0
LAYOUT
  5
2F5
102
{ACAD_REACTORS
330
1A
102
}
100
AcDbPlotSettings
  1

  2
none_device
  4

  6

 40
0.0
 41
0.0
 42
0.0
 43
0.0
 44
210.0
 45
297.0
 46
0.0
 47
0.0
 48
0.0
 49
0.0
140
0.0
141
0.0
142
1.0
143
1.0
 70
1024
 72
1
 73
0
 74
0
  7

 75
0
147
1.0
148
0.0
149
0.0
100
AcDbLayout
  1
Model
 70
0
 71
0
 10
0.0
 20
0.0
 11
210.0
 21
297.0
 12
0.0
 22
0.0
 32
0.0
 14
0.0
 24
0.0
 34
0.0
 15
0.0
 25
0.0
 35
0.0
146
0.0
 13
0.0
 23
0.0
 33
0.0
 16
1.0
 26
0.0
 36
0.0
 17
0.0
 27
1.0
 37
0.0
 76
0
330
210
345
0
346
0
  0
LAYOUT
  5
2F6
102
{ACAD_REACTORS
330
1A
102
}
100
AcDbPlotSettings
  1

  2
none_device
  4

  6

 40
0.0
 41
0.0
 42
0.0
 43
0.0
 44
210.0
 45
297.0
 46
0.0
 47
0.0
 48
0.0
 49
0.0
140
0.0
141
0.0
142
1.0
143
1.0
 70
0
 72
1
 73
0
 74
0
  7

 75
0
147
1.0
148
0.0
149
0.0
100
AcDbLayout
  1
Layout1
 70
0
 71
1
 10
0.0
 20
0.0
 11
210.0
 21
297.0
 12
0.0
 22
0.0
 32
0.0
 14
0.0
 24
0.0
 34
0.0
 15
0.0
 25
0.0
 35
0.0
146
0.0
 13
0.0
 23
0.0
 33
0.0
 16
1.0
 26
0.0
 36
0.0
 17
0.0
 27
1.0
 37
0.0
 76
0
330
211
345
0
346
0
  0
ENDSEC
  0
EOF
