999
DXF file: C:\Users\sesa63760\Dev\_Creo\CAD\MCADID0003544_3D-CAD\drw0001_4.dxf
999
Pro/ENGINEER 2019471 by Parametric Technology Corporation
  0
SECTION
  2
HEADER
  9
$ACADVER
  1
AC1024
  9
$DWGCODEPAGE
  3
ANSI_1252
  9
$EXTMAX
 10
66.4942808348
 20
94.0419114663
 30
0.0
  9
$EXTMIN
 10
0.0
 20
0.0
 30
0.0
  9
$LIMMIN
 10
0.0
 20
0.0
  9
$LIMMAX
 10
66.4942808348
 20
94.0419114663
  9
$VIEWCTR
 10
33.2471404174
 20
47.0209557332
  9
$VIEWSIZE
 40
94.0419114663
  9
$CLAYER
  8
0
  9
$LTSCALE
 40
6.1301394141
  9
$CELTYPE
  6
BYLAYER
  9
$DIMSCALE
 40
1.0
  9
$DIMASZ
 40
0.7915985814
  9
$DIMEXO
 40
1.0
  9
$DIMDLI
 40
4.2353690497
  9
$DIMEXE
 40
1.0
  9
$DIMCEN
 40
1.0031137223
  9
$DIMLFAC
 40
1.0
  9
$DIMBLK
  1
_FILLED
  9
$DIMALT
 70
0
  9
$DIMALTF
 40
0.0393700787
  9
$DIMTXT
 40
1.1082380139
  9
$DIMTOL
 70
1
  9
$DIMLIM
 70
0
  9
$DIMTFAC
 40
1.0
  9
$DIMTP
 40
0.01
  9
$DIMTM
 40
0.01
  9
$DIMGAP
 40
0.625
  9
$DIMDSEP
 70
46
  9
$AUNITS
 70
0
  9
$PDMODE
 70
3
  9
$PDSIZE
 40
0.3125
  9
$HANDSEED
  5
25F
  9
$TILEMODE
 70
1
  9
$MEASUREMENT
 70
1
  9
$INSUNITS
 70
4
  0
ENDSEC
  0
SECTION
  2
CLASSES
  0
CLASS
  1
ACDBDICTIONARYWDFLT
  2
AcDbDictionaryWithDefault
  3
AutoCAD 2000
 90
0
 91
1
280
0
281
0
  0
CLASS
  1
ACDBPLACEHOLDER
  2
AcDbPlaceHolder
  3
AutoCAD 2000
 90
0
 91
1
280
0
281
0
  0
CLASS
  1
LAYOUT
  2
AcDbLayout
  3
AutoCAD 2000
 90
0
 91
0
280
0
281
0
  0
ENDSEC
  0
SECTION
  2
TABLES
  0
TABLE
  2
VPORT
  5
8
100
AcDbSymbolTable
 70
2
  0
VPORT
  5
1F4
100
AcDbSymbolTableRecord
100
AcDbViewportTableRecord
  2
*ACTIVE
 70
0
 10
0.0
 20
0.0
 11
1.0
 21
1.0
 12
33.2471404174
 22
47.0209557332
 13
0.0
 23
0.0
 14
1.0
 24
1.0
 15
0.0
 25
0.0
 16
0.0
 26
0.0
 36
1.0
 17
0.0
 27
0.0
 37
0.0
 40
94.0419114663
 41
0.7070707071
 42
50.0
 43
0.0
 44
0.0
 50
0.0
 51
0.0
 71
0
 72
100
 73
1
 74
1
 75
0
 76
0
 77
0
 78
0
  0
ENDTAB
  0
TABLE
  2
LTYPE
  5
5
100
AcDbSymbolTable
 70
6
  0
LTYPE
  5
14
100
AcDbSymbolTableRecord
100
AcDbLinetypeTableRecord
  2
BYBLOCK
 70
0
  3

 72
65
 73
0
 40
0.0
  0
LTYPE
  5
15
100
AcDbSymbolTableRecord
100
AcDbLinetypeTableRecord
  2
BYLAYER
 70
0
  3

 72
65
 73
0
 40
0.0
  0
LTYPE
  5
16
100
AcDbSymbolTableRecord
100
AcDbLinetypeTableRecord
  2
CONTINUOUS
 70
64
  3
Solid line
 72
65
 73
0
 40
0.0
  0
LTYPE
  5
1F5
100
AcDbSymbolTableRecord
100
AcDbLinetypeTableRecord
  2
CENTER
 70
64
  3
____ _ ____ _ ____ _ ____ _ ____ _ ____ _ ____
 72
65
 73
4
 40
0.6
 49
0.375
 74
0
 49
-0.075
 74
0
 49
0.075
 74
0
 49
-0.075
 74
0
  0
LTYPE
  5
1F6
100
AcDbSymbolTableRecord
100
AcDbLinetypeTableRecord
  2
HIDDEN
 70
64
  3
- - - - - - - - - - - - - - - - - - - -
 72
65
 73
2
 40
0.2
 49
0.1
 74
0
 49
-0.1
 74
0
  0
LTYPE
  5
1F7
100
AcDbSymbolTableRecord
100
AcDbLinetypeTableRecord
  2
PHANTOM
 70
64
  3
_____ _ _ _____ _ _ _____ _ _ _____
 72
65
 73
6
 40
0.8
 49
0.45
 74
0
 49
-0.05
 74
0
 49
0.1
 74
0
 49
-0.05
 74
0
 49
0.1
 74
0
 49
-0.05
 74
0
  0
LTYPE
  5
1F8
100
AcDbSymbolTableRecord
100
AcDbLinetypeTableRecord
  2
DOT
 70
64
  3
. . . . . . . . . . . . . . . . . . . .
 72
65
 73
2
 40
0.2
 49
0.1
 74
0
 49
-0.1
 74
0
  0
LTYPE
  5
1F9
100
AcDbSymbolTableRecord
100
AcDbLinetypeTableRecord
  2
DASHED
 70
64
  3
- - - - - - - - - - - - - - - - - - - -
 72
65
 73
2
 40
0.2
 49
0.1
 74
0
 49
-0.1
 74
0
  0
ENDTAB
  0
TABLE
  2
LAYER
  5
2
100
AcDbSymbolTable
 70
36
  0
LAYER
  5
10
100
AcDbSymbolTableRecord
100
AcDbLayerTableRecord
  2
0
 70
0
 62
7
  6
CONTINUOUS
370
-3
390
F
  0
LAYER
  5
1FA
100
AcDbSymbolTableRecord
100
AcDbLayerTableRecord
  2
DEFAULT_1
 70
0
 62
7
  6
CENTER
370
-3
390
F
  0
LAYER
  5
1FB
100
AcDbSymbolTableRecord
100
AcDbLayerTableRecord
  2
DEFAULT_2
 70
0
 62
7
  6
HIDDEN
370
-3
390
F
  0
LAYER
  5
1FC
100
AcDbSymbolTableRecord
100
AcDbLayerTableRecord
  2
DEFAULT_3
 70
0
 62
7
  6
PHANTOM
370
-3
390
F
  0
LAYER
  5
1FD
100
AcDbSymbolTableRecord
100
AcDbLayerTableRecord
  2
00_COMPONENTS
 70
0
 62
7
  6
CONTINUOUS
370
-3
390
F
  0
LAYER
  5
1FE
100
AcDbSymbolTableRecord
100
AcDbLayerTableRecord
  2
01_1_DEFAULT_DATUMS
 70
0
 62
7
  6
CONTINUOUS
370
-3
390
F
  0
LAYER
  5
1FF
100
AcDbSymbolTableRecord
100
AcDbLayerTableRecord
  2
01_PLANES
 70
0
 62
7
  6
CONTINUOUS
370
-3
390
F
  0
LAYER
  5
200
100
AcDbSymbolTableRecord
100
AcDbLayerTableRecord
  2
02_COORD_SYS
 70
0
 62
7
  6
CONTINUOUS
370
-3
390
F
  0
LAYER
  5
201
100
AcDbSymbolTableRecord
100
AcDbLayerTableRecord
  2
03_AXES
 70
0
 62
7
  6
CONTINUOUS
370
-3
390
F
  0
LAYER
  5
202
100
AcDbSymbolTableRecord
100
AcDbLayerTableRecord
  2
04_POINTS
 70
0
 62
7
  6
CONTINUOUS
370
-3
390
F
  0
LAYER
  5
203
100
AcDbSymbolTableRecord
100
AcDbLayerTableRecord
  2
05_CURVES
 70
0
 62
7
  6
CONTINUOUS
370
-3
390
F
  0
LAYER
  5
204
100
AcDbSymbolTableRecord
100
AcDbLayerTableRecord
  2
06_SURFS
 70
0
 62
7
  6
CONTINUOUS
370
-3
390
F
  0
LAYER
  5
205
100
AcDbSymbolTableRecord
100
AcDbLayerTableRecord
  2
07_COSMETICS
 70
0
 62
7
  6
CONTINUOUS
370
-3
390
F
  0
LAYER
  5
206
100
AcDbSymbolTableRecord
100
AcDbLayerTableRecord
  2
10_NOTES
 70
0
 62
7
  6
CONTINUOUS
370
-3
390
F
  0
LAYER
  5
207
100
AcDbSymbolTableRecord
100
AcDbLayerTableRecord
  2
11_NOTES_PUB
 70
0
 62
7
  6
CONTINUOUS
370
-3
390
F
  0
LAYER
  5
208
100
AcDbSymbolTableRecord
100
AcDbLayerTableRecord
  2
13_REF_GTOL
 70
0
 62
7
  6
CONTINUOUS
370
-3
390
F
  0
LAYER
  5
209
100
AcDbSymbolTableRecord
100
AcDbLayerTableRecord
  2
16_MISC
 70
0
 62
7
  6
CONTINUOUS
370
-3
390
F
  0
LAYER
  5
20A
100
AcDbSymbolTableRecord
100
AcDbLayerTableRecord
  2
17_NO_PRINT
 70
0
 62
7
  6
CONTINUOUS
370
-3
390
F
  0
LAYER
  5
20B
100
AcDbSymbolTableRecord
100
AcDbLayerTableRecord
  2
18_DATUM_CAMS_JOINTS
 70
0
 62
7
  6
CONTINUOUS
370
-3
390
F
  0
LAYER
  5
20C
100
AcDbSymbolTableRecord
100
AcDbLayerTableRecord
  2
19_DATUM_FUNCTIONAL
 70
0
 62
7
  6
CONTINUOUS
370
-3
390
F
  0
LAYER
  5
20D
100
AcDbSymbolTableRecord
100
AcDbLayerTableRecord
  2
20_DATUM_KINEMATIC_SCHEME
 70
0
 62
7
  6
CONTINUOUS
370
-3
390
F
  0
LAYER
  5
20E
100
AcDbSymbolTableRecord
100
AcDbLayerTableRecord
  2
INTFCLR_17482
 70
0
 62
7
  6
CONTINUOUS
370
-3
390
F
  0
ENDTAB
  0
TABLE
  2
STYLE
  5
3
100
AcDbSymbolTable
 70
1
  0
STYLE
  5
11
100
AcDbSymbolTableRecord
100
AcDbTextStyleTableRecord
  2
STANDARD
 70
0
 40
0.0
 41
1.0
 50
0.0
 71
0
 42
0.2
  3
ARIAL.TTF
  4

  0
STYLE
  5
20F
100
AcDbSymbolTableRecord
100
AcDbTextStyleTableRecord
  2
TEXTSTYLE_1
 70
0
 40
0.0
 41
0.8
 50
0.0
 71
0
 42
0.2
  3
gdt
  4

  0
ENDTAB
  0
TABLE
  2
VIEW
  5
6
100
AcDbSymbolTable
 70
0
  0
ENDTAB
  0
TABLE
  2
UCS
  5
7
100
AcDbSymbolTable
 70
0
  0
ENDTAB
  0
TABLE
  2
APPID
  5
9
100
AcDbSymbolTable
 70
1
  0
APPID
  5
210
100
AcDbSymbolTableRecord
100
AcDbRegAppTableRecord
  2
ACAD
 70
0
  0
ENDTAB
  0
TABLE
  2
BLOCK_RECORD
  5
1
100
AcDbSymbolTable
 70
0
  0
BLOCK_RECORD
  5
211
100
AcDbSymbolTableRecord
100
AcDbBlockTableRecord
  2
*Model_Space
  0
BLOCK_RECORD
  5
212
100
AcDbSymbolTableRecord
100
AcDbBlockTableRecord
  2
*Paper_Space
  0
BLOCK_RECORD
  5
213
100
AcDbSymbolTableRecord
100
AcDbBlockTableRecord
  2
_FILLED
  0
ENDTAB
  0
TABLE
  2
DIMSTYLE
  5
A
100
AcDbSymbolTable
 70
1
100
AcDbDimStyleTable
 71
0
  0
DIMSTYLE
105
214
100
AcDbSymbolTableRecord
100
AcDbDimStyleTableRecord
  2
STANDARD
 70
0
  3

  4

 40
1.0
 41
0.7915985814
 42
1.0
 43
0.38
 44
1.0
 45
0.0
 46
0.0
 47
0.01
 48
0.01
140
1.1082380139
141
0.09
142
0.0
143
25.4
144
1.0
145
0.0
146
1.0
147
0.625
 71
1
 72
0
 73
0
 74
0
 75
0
 76
0
 77
1
 78
8
 79
2
170
0
171
1
172
0
173
0
174
0
175
0
176
0
177
0
178
0
270
2
179
2
271
2
272
2
273
2
274
2
275
0
280
0
281
0
282
0
283
1
284
8
285
0
286
0
287
3
288
0
340
11
278
46
341
213
342
213
343
213
344
213
  0
ENDTAB
  0
ENDSEC
  0
SECTION
  2
BLOCKS
  0
BLOCK
  5
20
100
AcDbEntity
  8
0
100
AcDbBlockBegin
  2
*Model_Space
 70
0
 10
0.0
 20
0.0
 30
0.0
  3
*Model_Space
  1

  0
ENDBLK
  5
21
100
AcDbEntity
  8
0
100
AcDbBlockEnd
  0
BLOCK
  5
1C
100
AcDbEntity
  8
0
100
AcDbBlockBegin
  2
*Paper_Space
 70
0
 10
0.0
 20
0.0
 30
0.0
  3
*Paper_Space
  1

  0
ENDBLK
  5
1D
100
AcDbEntity
  8
0
100
AcDbBlockEnd
  0
BLOCK
  5
215
100
AcDbEntity
  8
0
100
AcDbBlockBegin
  2
_FILLED
 70
64
 10
0.0
 20
0.0
  3
_FILLED
  1

  0
SOLID
  5
216
100
AcDbEntity
  8
0
  6
BYBLOCK
 62
0
100
AcDbTrace
 10
0.0
 20
0.0
 11
-1.0
 21
0.25
 12
-1.0
 22
-0.25
 13
-1.0
 23
-0.25
  0
ENDBLK
  5
217
100
AcDbEntity
  8
0
  6
BYBLOCK
 62
0
100
AcDbBlockEnd
  0
ENDSEC
  0
SECTION
  2
ENTITIES
  0
LINE
  5
218
100
AcDbEntity
  8
0
100
AcDbLine
 62
7
  6
BYLAYER
 10
60.1275085402
 20
38.7333018816
 11
60.1151181361
 21
38.7331922144
  0
LINE
  5
219
100
AcDbEntity
  8
0
100
AcDbLine
 62
7
  6
BYLAYER
 10
31.5151178922
 20
38.7331922144
 11
60.1151190242
 21
38.7331922144
  0
LINE
  5
21A
100
AcDbEntity
  8
0
100
AcDbLine
 62
7
  6
BYLAYER
 10
59.6151181715
 20
39.0331922144
 11
35.8151180946
 21
39.0331922144
  0
LINE
  5
21B
100
AcDbEntity
  8
0
100
AcDbLine
 62
7
  6
BYLAYER
 10
30.8151181361
 20
39.7331922144
 11
60.8151181361
 21
39.7331922144
  0
LINE
  5
21C
100
AcDbEntity
  8
0
100
AcDbLine
 62
7
  6
BYLAYER
 10
30.8151181361
 20
39.8331922144
 11
60.8151181361
 21
39.8331922144
  0
LINE
  5
21D
100
AcDbEntity
  8
0
100
AcDbLine
 62
7
  6
BYLAYER
 10
35.3151181361
 20
43.0331922144
 11
10.5976985248
 21
43.0331922144
  0
LINE
  5
21E
100
AcDbEntity
  8
0
100
AcDbLine
 62
7
  6
BYLAYER
 10
30.8151181361
 20
39.4331923139
 11
30.8151181361
 21
43.0331922144
  0
LINE
  5
21F
100
AcDbEntity
  8
0
100
AcDbLine
 62
7
  6
BYLAYER
 10
30.8151181361
 20
50.4331922144
 11
30.8151181361
 21
54.0331922357
  0
LINE
  5
220
100
AcDbEntity
  8
0
100
AcDbLine
 62
7
  6
BYLAYER
 10
35.815118126
 20
53.7331922144
 11
35.8151181333
 21
54.7331922144
  0
LINE
  5
221
100
AcDbEntity
  8
0
100
AcDbLine
 62
7
  6
BYLAYER
 10
35.8151180828
 20
38.7331922144
 11
35.8151181124
 21
39.7331922144
  0
LINE
  5
222
100
AcDbEntity
  8
0
100
AcDbLine
 62
7
  6
BYLAYER
 10
10.5976985248
 20
50.4331922144
 11
35.3151181361
 21
50.4331922144
  0
LINE
  5
223
100
AcDbEntity
  8
0
100
AcDbLine
 62
7
  6
BYLAYER
 10
60.8151181361
 20
53.6331922144
 11
30.8151181361
 21
53.6331922144
  0
LINE
  5
224
100
AcDbEntity
  8
0
100
AcDbLine
 62
7
  6
BYLAYER
 10
60.8151181361
 20
53.7331922144
 11
30.8151181361
 21
53.7331922144
  0
LINE
  5
225
100
AcDbEntity
  8
0
100
AcDbLine
 62
7
  6
BYLAYER
 10
42.8151181361
 20
46.7331922144
 11
42.8151181361
 21
53.6331922144
  0
LINE
  5
226
100
AcDbEntity
  8
0
100
AcDbLine
 62
7
  6
BYLAYER
 10
35.8151181264
 20
54.4331922144
 11
59.6151183419
 21
54.4331922145
  0
LINE
  5
227
100
AcDbEntity
  8
0
100
AcDbLine
 62
7
  6
BYLAYER
 10
31.5151172183
 20
54.7331922144
 11
60.1151194313
 21
54.7331922144
  0
LINE
  5
228
100
AcDbEntity
  8
0
100
AcDbLine
 62
7
  6
BYLAYER
 10
60.1151181361
 20
54.7331922144
 11
60.1283470259
 21
54.7330672007
  0
LINE
  5
229
100
AcDbEntity
  8
0
100
AcDbLine
 62
7
  6
BYLAYER
 10
48.8151181361
 20
53.6331922144
 11
48.8151181361
 21
46.7331922144
  0
LINE
  5
22A
100
AcDbEntity
  8
0
100
AcDbLine
 62
7
  6
BYLAYER
 10
60.8148988156
 20
54.0507136466
 11
60.8151181361
 21
54.0331921068
  0
LINE
  5
22B
100
AcDbEntity
  8
0
100
AcDbLine
 62
7
  6
BYLAYER
 10
59.6151181478
 20
38.7331922144
 11
59.6151181755
 21
39.7331922144
  0
LINE
  5
22C
100
AcDbEntity
  8
0
100
AcDbLine
 62
7
  6
BYLAYER
 10
59.6151182814
 20
53.7331922144
 11
59.615118363
 21
54.7331922144
  0
LINE
  5
22D
100
AcDbEntity
  8
0
100
AcDbLine
 62
7
  6
BYLAYER
 10
60.8151181361
 20
39.4331916071
 11
60.8151181361
 21
54.0331923244
  0
ARC
  5
22E
100
AcDbEntity
  8
0
100
AcDbCircle
 62
7
  6
BYLAYER
 10
35.3151181361
 20
46.7331922144
 40
3.7
100
AcDbArc
 50
270.0
 51
90.0
  0
ARC
  5
22F
100
AcDbEntity
  8
0
100
AcDbCircle
 62
7
  6
BYLAYER
 10
45.8151181361
 20
46.7331922144
 40
3.0
100
AcDbArc
 50
180.0
 51
360.0
  0
ARC
  5
230
100
AcDbEntity
  8
0
100
AcDbCircle
 62
7
  6
BYLAYER
 10
33.4151181361
 20
52.0331922144
 40
1.7
100
AcDbArc
 50
90.0
 51
109.7499227957
  0
ARC
  5
231
100
AcDbEntity
  8
0
100
AcDbCircle
 62
7
  6
BYLAYER
 10
33.4151181361
 20
41.4331922144
 40
1.7
100
AcDbArc
 50
250.2500772044
 51
270.0
  0
ARC
  5
232
100
AcDbEntity
  8
0
100
AcDbCircle
 62
7
  6
BYLAYER
 10
58.2151181361
 20
41.4331922144
 40
1.7
100
AcDbArc
 50
270.0
 51
289.7499227957
  0
ARC
  5
233
100
AcDbEntity
  8
0
100
AcDbCircle
 62
7
  6
BYLAYER
 10
58.2151181361
 20
52.0331922144
 40
1.7
100
AcDbArc
 50
70.2500772044
 51
90.0
  0
ARC
  5
234
100
AcDbEntity
  8
0
100
AcDbCircle
 62
7
  6
BYLAYER
 10
31.5151181361
 20
54.0331922144
 40
0.7
100
AcDbArc
 50
90.0
 51
179.9999987508
  0
ARC
  5
235
100
AcDbEntity
  8
0
100
AcDbCircle
 62
7
  6
BYLAYER
 10
60.1151181361
 20
54.0331922144
 40
0.7
100
AcDbArc
 50
1.4342985353
 51
90.0
  0
ARC
  5
236
100
AcDbEntity
  8
0
100
AcDbCircle
 62
7
  6
BYLAYER
 10
60.1151181361
 20
39.4331922144
 40
0.7
100
AcDbArc
 50
270.0
 51
359.9110817013
  0
ARC
  5
237
100
AcDbEntity
  8
0
100
AcDbCircle
 62
7
  6
BYLAYER
 10
31.5151181361
 20
39.4331922144
 40
0.7
100
AcDbArc
 50
179.999989815
 51
270.0
  0
ARC
  5
238
100
AcDbEntity
  8
0
100
AcDbCircle
 62
7
  6
BYLAYER
 10
31.4398732497
 20
54.4269661795
 40
0.2991110178
100
AcDbArc
 50
93.2914466393
 51
100.7920252715
  0
ARC
  5
239
100
AcDbEntity
  8
0
100
AcDbCircle
 62
7
  6
BYLAYER
 10
59.9216483068
 20
38.8915154755
 40
0.1835393504
100
AcDbArc
 50
323.5956626329
 51
327.1384461724
  0
ARC
  5
23A
100
AcDbEntity
  8
0
100
AcDbCircle
 62
7
  6
BYLAYER
 10
59.9232688311
 20
54.5759889436
 40
0.1815701202
100
AcDbArc
 50
33.1314189432
 51
36.9207900735
  0
SPLINE
  5
23B
100
AcDbEntity
  8
0
100
AcDbSpline
 62
7
  6
BYLAYER
 70
0
 71
3
 72
15
 73
11
 74
0
 42
0.0000001
 43
0.0000001
 44
0.0000000001
 40
0.0
 40
0.0
 40
0.0
 40
0.0
 40
0.1158180797
 40
0.233107436
 40
0.353068524
 40
0.4764300743
 40
0.6033786258
 40
0.7335391811
 40
0.8661427641
 40
1.0
 40
1.0
 40
1.0
 40
1.0
 10
10.5976985243
 20
43.0332041452
 30
0.0
 10
10.3887804643
 20
43.0332062775
 30
0.0
 10
9.9667643045
 20
43.0816415178
 30
0.0
 10
9.3616980171
 20
43.2959093643
 30
0.0
 10
8.8055099743
 20
43.6426599462
 30
0.0
 10
8.3197347198
 20
44.1075126741
 30
0.0
 10
7.9223135706
 20
44.6720222915
 30
0.0
 10
7.6275872929
 20
45.3144266799
 30
0.0
 10
7.4464752046
 20
46.0100775702
 30
0.0
 10
7.4057583804
 20
46.4917342821
 30
0.0
 10
7.4057583804
 20
46.7331922144
 30
0.0
  0
SPLINE
  5
23C
100
AcDbEntity
  8
0
100
AcDbSpline
 62
7
  6
BYLAYER
 70
0
 71
3
 72
15
 73
11
 74
0
 42
0.0000001
 43
0.0000001
 44
0.0000000001
 40
0.0
 40
0.0
 40
0.0
 40
0.0
 40
0.1338570184
 40
0.2664575156
 40
0.3966162494
 40
0.5235631298
 40
0.6469250487
 40
0.766888228
 40
0.8841801426
 40
1.0
 40
1.0
 40
1.0
 40
1.0
 10
7.4057583804
 20
46.7331922144
 30
0.0
 10
7.4057583804
 20
46.9746497879
 30
0.0
 10
7.4464732262
 20
47.456300798
 30
0.0
 10
7.62758267
 20
48.1519426041
 30
0.0
 10
7.922297179
 20
48.7943392191
 30
0.0
 10
8.3197115504
 20
49.3588469588
 30
0.0
 10
8.8054838505
 20
49.8237046418
 30
0.0
 10
9.3616770387
 20
50.1704653149
 30
0.0
 10
9.9667532113
 20
50.3847381404
 30
0.0
 10
10.3887772296
 20
50.4331824158
 30
0.0
 10
10.5976985252
 20
50.4331802835
 30
0.0
  0
SPLINE
  5
23D
100
AcDbEntity
  8
0
100
AcDbSpline
 62
7
  6
BYLAYER
 70
0
 71
3
 72
9
 73
5
 74
0
 42
0.0000001
 43
0.0000001
 44
0.0000000001
 40
0.0
 40
0.0
 40
0.0
 40
0.0
 40
0.2562524549
 40
1.0
 40
1.0
 40
1.0
 40
1.0
 10
31.5139759236
 20
38.74952165
 30
0.0
 10
31.50830523
 20
38.7480633414
 30
0.0
 10
31.4860068831
 20
38.7430443413
 30
0.0
 10
31.4631260625
 20
38.7406701461
 30
0.0
 10
31.446135064
 20
38.7403424866
 30
0.0
  0
SPLINE
  5
23E
100
AcDbEntity
  8
0
100
AcDbSpline
 62
7
  6
BYLAYER
 70
0
 71
3
 72
17
 73
13
 74
0
 42
0.0000001
 43
0.0000001
 44
0.0000000001
 40
0.0
 40
0.0
 40
0.0
 40
0.0
 40
0.0410417908
 40
0.0832011737
 40
0.1274740298
 40
0.174644658
 40
0.2794804549
 40
0.3998569442
 40
0.5350631095
 40
0.6826318351
 40
0.8390504298
 40
1.0
 40
1.0
 40
1.0
 40
1.0
 10
17.7366485876
 20
50.4331922144
 30
0.0
 10
17.6752228682
 20
50.4331922144
 30
0.0
 10
17.5503841734
 20
50.4208609396
 30
0.0
 10
17.3665211635
 20
50.3662370587
 30
0.0
 10
17.186936332
 20
50.2761785064
 30
0.0
 10
16.9471859899
 20
50.1047055395
 30
0.0
 10
16.669137639
 20
49.8006985294
 30
0.0
 10
16.3902216868
 20
49.3361457295
 30
0.0
 10
16.1621220114
 20
48.775377534
 30
0.0
 10
15.9928908731
 20
48.1386725209
 30
0.0
 10
15.8887631456
 20
47.4494212291
 30
0.0
 10
15.8654142049
 20
46.9740794405
 30
0.0
 10
15.8654142049
 20
46.7331922144
 30
0.0
  0
SPLINE
  5
23F
100
AcDbEntity
  8
0
100
AcDbSpline
 62
7
  6
BYLAYER
 70
0
 71
3
 72
12
 73
8
 74
0
 42
0.0000001
 43
0.0000001
 44
0.0000000001
 40
0.0
 40
0.0
 40
0.0
 40
0.0
 40
0.2662054013
 40
0.3971624421
 40
0.5255102023
 40
0.7713404402
 40
1.0
 40
1.0
 40
1.0
 40
1.0
 10
38.5456307311
 20
46.7331922144
 30
0.0
 10
38.5456307311
 20
47.0206259731
 30
0.0
 10
38.510348535
 20
47.4506477591
 30
0.0
 10
38.3922732464
 20
48.0061915409
 30
0.0
 10
38.2322686067
 20
48.5282637892
 30
0.0
 10
37.957939499
 20
49.1229395429
 30
0.0
 10
37.6488074711
 20
49.5379740729
 30
0.0
 10
37.4775471309
 20
49.7158123974
 30
0.0
  0
SPLINE
  5
240
100
AcDbEntity
  8
0
100
AcDbSpline
 62
7
  6
BYLAYER
 70
0
 71
3
 72
14
 73
10
 74
0
 42
0.0000001
 43
0.0000001
 44
0.0000000001
 40
0.0
 40
0.0
 40
0.0
 40
0.0
 40
0.3546636735
 40
0.5091264203
 40
0.6469083132
 40
0.7661198994
 40
0.8652424136
 40
0.943392449
 40
1.0
 40
1.0
 40
1.0
 40
1.0
 10
60.3259961008
 20
39.0891635413
 30
0.0
 10
60.3971525697
 20
39.1072544499
 30
0.0
 10
60.4977674149
 20
39.1422178971
 30
0.0
 10
60.6142986149
 20
39.2087070526
 30
0.0
 10
60.6835171702
 20
39.2586042309
 30
0.0
 10
60.7390345779
 20
39.307245732
 30
0.0
 10
60.7802845334
 20
39.3530858344
 30
0.0
 10
60.8062872748
 20
39.3939988902
 30
0.0
 10
60.8151181471
 20
39.4214716527
 30
0.0
 10
60.8151181361
 20
39.4331901831
 30
0.0
  0
SPLINE
  5
241
100
AcDbEntity
  8
0
100
AcDbSpline
 62
7
  6
BYLAYER
 70
0
 71
3
 72
9
 73
5
 74
0
 42
0.0000001
 43
0.0000001
 44
0.0000000001
 40
0.0
 40
0.0
 40
0.0
 40
0.0
 40
0.2603508897
 40
1.0
 40
1.0
 40
1.0
 40
1.0
 10
60.1151178744
 20
39.0516432879
 30
0.0
 10
60.1335739566
 20
39.0538931737
 30
0.0
 10
60.2043020292
 20
39.0638793234
 30
0.0
 10
60.2743881391
 20
39.077906882
 30
0.0
 10
60.3259961008
 20
39.0891635413
 30
0.0
  0
SPLINE
  5
242
100
AcDbEntity
  8
0
100
AcDbSpline
 62
7
  6
BYLAYER
 70
0
 71
3
 72
12
 73
8
 74
0
 42
0.0000001
 43
0.0000001
 44
0.0000000001
 40
0.0
 40
0.0
 40
0.0
 40
0.0
 40
0.2286595598
 40
0.4744897977
 40
0.6028375579
 40
0.7337945987
 40
1.0
 40
1.0
 40
1.0
 40
1.0
 10
37.4775471309
 20
43.7505720313
 30
0.0
 10
37.6488074711
 20
43.9284103558
 30
0.0
 10
37.957939499
 20
44.3434448858
 30
0.0
 10
38.2322686067
 20
44.9381206396
 30
0.0
 10
38.3922732464
 20
45.4601928879
 30
0.0
 10
38.510348535
 20
46.0157366697
 30
0.0
 10
38.5456307311
 20
46.4457584556
 30
0.0
 10
38.5456307311
 20
46.7331922144
 30
0.0
  0
SPLINE
  5
243
100
AcDbEntity
  8
0
100
AcDbSpline
 62
7
  6
BYLAYER
 70
0
 71
3
 72
17
 73
13
 74
0
 42
0.0000001
 43
0.0000001
 44
0.0000000001
 40
0.0
 40
0.0
 40
0.0
 40
0.0
 40
0.1609495702
 40
0.3173681649
 40
0.4649368905
 40
0.6001430558
 40
0.7205195451
 40
0.825355342
 40
0.8725259702
 40
0.9167988263
 40
0.9589582092
 40
1.0
 40
1.0
 40
1.0
 40
1.0
 10
15.8654142049
 20
46.7331922144
 30
0.0
 10
15.8654142049
 20
46.4923049882
 30
0.0
 10
15.8887631456
 20
46.0169631996
 30
0.0
 10
15.9928908731
 20
45.3277119078
 30
0.0
 10
16.1621220114
 20
44.6910068947
 30
0.0
 10
16.3902216868
 20
44.1302386993
 30
0.0
 10
16.669137639
 20
43.6656858993
 30
0.0
 10
16.9471859899
 20
43.3616788892
 30
0.0
 10
17.186936332
 20
43.1902059223
 30
0.0
 10
17.3665211635
 20
43.1001473701
 30
0.0
 10
17.5503841734
 20
43.0455234892
 30
0.0
 10
17.6752228682
 20
43.0331922144
 30
0.0
 10
17.7366485876
 20
43.0331922144
 30
0.0
  0
SPLINE
  5
244
100
AcDbEntity
  8
0
100
AcDbSpline
 62
7
  6
BYLAYER
 70
0
 71
3
 72
10
 73
6
 74
0
 42
0.0000001
 43
0.0000001
 44
0.0000000001
 40
0.0
 40
0.0
 40
0.0
 40
0.0
 40
0.2304724901
 40
0.472069754
 40
1.0
 40
1.0
 40
1.0
 40
1.0
 10
60.1151110284
 20
54.7331922144
 30
0.0
 10
60.1314483005
 20
54.7331922792
 30
0.0
 10
60.1650745385
 20
54.729185779
 30
0.0
 10
60.2317324321
 20
54.7031078862
 30
0.0
 10
60.2720666965
 20
54.6615820941
 30
0.0
 10
60.2914372007
 20
54.6295625043
 30
0.0
  0
SPLINE
  5
245
100
AcDbEntity
  8
0
100
AcDbSpline
 62
7
  6
BYLAYER
 70
0
 71
3
 72
9
 73
5
 74
0
 42
0.0000001
 43
0.0000001
 44
0.0000000001
 40
0.0
 40
0.0
 40
0.0
 40
0.0
 40
0.4966403231
 40
1.0
 40
1.0
 40
1.0
 40
1.0
 10
60.2914372007
 20
54.6295625043
 30
0.0
 10
60.3136272241
 20
54.5928822278
 30
0.0
 10
60.3396238662
 20
54.5073772741
 30
0.0
 10
60.3345548915
 20
54.4198211486
 30
0.0
 10
60.3259831179
 20
54.3772250046
 30
0.0
  0
SPLINE
  5
246
100
AcDbEntity
  8
0
100
AcDbSpline
 62
7
  6
BYLAYER
 70
0
 71
3
 72
9
 73
5
 74
0
 42
0.0000001
 43
0.0000001
 44
0.0000000001
 40
0.0
 40
0.0
 40
0.0
 40
0.0
 40
0.2603505037
 40
1.0
 40
1.0
 40
1.0
 40
1.0
 10
60.1151180457
 20
54.414741122
 30
0.0
 10
60.1335743516
 20
54.4124939828
 30
0.0
 10
60.2042998819
 20
54.4024913432
 30
0.0
 10
60.274387786
 20
54.3884777047
 30
0.0
 10
60.3259955322
 20
54.3772210274
 30
0.0
  0
SPLINE
  5
247
100
AcDbEntity
  8
0
100
AcDbSpline
 62
7
  6
BYLAYER
 70
0
 71
3
 72
10
 73
6
 74
0
 42
0.0000001
 43
0.0000001
 44
0.0000000001
 40
0.0
 40
0.0
 40
0.0
 40
0.0
 40
0.5116644419
 40
0.7649891762
 40
1.0
 40
1.0
 40
1.0
 40
1.0
 10
60.1151184032
 20
54.4147410575
 30
0.0
 10
60.1204013313
 20
54.4532474143
 30
0.0
 10
60.1227416475
 20
54.5119550708
 30
0.0
 10
60.1116318345
 20
54.5872573189
 30
0.0
 10
60.1009179174
 20
54.6230067002
 30
0.0
 10
60.0940518119
 20
54.6394853787
 30
0.0
  0
SPLINE
  5
248
100
AcDbEntity
  8
0
100
AcDbSpline
 62
7
  6
BYLAYER
 70
0
 71
3
 72
9
 73
5
 74
0
 42
0.0000001
 43
0.0000001
 44
0.0000000001
 40
0.0
 40
0.0
 40
0.0
 40
0.0
 40
0.2611839865
 40
1.0
 40
1.0
 40
1.0
 40
1.0
 10
60.0940518119
 20
54.6394853787
 30
0.0
 10
60.0926994974
 20
54.6427309385
 30
0.0
 10
60.0872598281
 20
54.6550449186
 30
0.0
 10
60.0807598225
 20
54.6669023644
 30
0.0
 10
60.0753191228
 20
54.6752281362
 30
0.0
  0
SPLINE
  5
249
100
AcDbEntity
  8
0
100
AcDbSpline
 62
7
  6
BYLAYER
 70
0
 71
3
 72
9
 73
5
 74
0
 42
0.0000001
 43
0.0000001
 44
0.0000000001
 40
0.0
 40
0.0
 40
0.0
 40
0.0
 40
0.5448272845
 40
1.0
 40
1.0
 40
1.0
 40
1.0
 10
60.0684281032
 20
54.6850599951
 30
0.0
 10
60.0573545088
 20
54.6997796721
 30
0.0
 10
60.0321407605
 20
54.7242389921
 30
0.0
 10
59.9978194072
 20
54.7331922144
 30
0.0
 10
59.9824305961
 20
54.7331922144
 30
0.0
  0
SPLINE
  5
24A
100
AcDbEntity
  8
0
100
AcDbSpline
 62
7
  6
BYLAYER
 70
0
 71
3
 72
9
 73
5
 74
0
 42
0.0000001
 43
0.0000001
 44
0.0000000001
 40
0.0
 40
0.0
 40
0.0
 40
0.0
 40
0.5117832084
 40
1.0
 40
1.0
 40
1.0
 40
1.0
 10
59.6151183117
 20
54.4331922145
 30
0.0
 10
59.7005105032
 20
54.4331951143
 30
0.0
 10
59.8673216136
 20
54.4335019592
 30
0.0
 10
60.0342611713
 20
54.4246361063
 30
0.0
 10
60.1151180457
 20
54.414741122
 30
0.0
  0
SPLINE
  5
24B
100
AcDbEntity
  8
0
100
AcDbSpline
 62
7
  6
BYLAYER
 70
0
 71
3
 72
13
 73
9
 74
0
 42
0.0000001
 43
0.0000001
 44
0.0000000001
 40
0.0
 40
0.0
 40
0.0
 40
0.0
 40
0.0853620221
 40
0.185751403
 40
0.2995735221
 40
0.4250686219
 40
0.7025939671
 40
1.0
 40
1.0
 40
1.0
 40
1.0
 10
31.5151864368
 20
54.268192037
 30
0.0
 10
31.6360451593
 20
54.2883946919
 30
0.0
 10
31.9006624728
 20
54.3225609685
 30
0.0
 10
32.3291559888
 20
54.3595756263
 30
0.0
 10
32.8160513969
 20
54.3875214238
 30
0.0
 10
33.5574848161
 20
54.4151628818
 30
0.0
 10
34.5628960456
 20
54.4311146816
 30
0.0
 10
35.3881972121
 20
54.4331922317
 30
0.0
 10
35.8151181262
 20
54.4331922144
 30
0.0
  0
SPLINE
  5
24C
100
AcDbEntity
  8
0
100
AcDbSpline
 62
7
  6
BYLAYER
 70
0
 71
3
 72
13
 73
9
 74
0
 42
0.0000001
 43
0.0000001
 44
0.0000000001
 40
0.0
 40
0.0
 40
0.0
 40
0.0
 40
0.2620934084
 40
0.5149272531
 40
0.6381839595
 40
0.7594893529
 40
0.8798641247
 40
1.0
 40
1.0
 40
1.0
 40
1.0
 10
31.5151183087
 20
54.2681806739
 30
0.0
 10
31.5122569233
 20
54.3278572743
 30
0.0
 10
31.5273708416
 20
54.4472727576
 30
0.0
 10
31.599537382
 20
54.5781605124
 30
0.0
 10
31.6823053009
 20
54.6567298553
 30
0.0
 10
31.7539200512
 20
54.7003675376
 30
0.0
 10
31.8325936113
 20
54.727150713
 30
0.0
 10
31.8876052408
 20
54.7331911763
 30
0.0
 10
31.9149906571
 20
54.7331922141
 30
0.0
  0
SPLINE
  5
24D
100
AcDbEntity
  8
0
100
AcDbSpline
 62
7
  6
BYLAYER
 70
0
 71
3
 72
10
 73
6
 74
0
 42
0.0000001
 43
0.0000001
 44
0.0000000001
 40
0.0
 40
0.0
 40
0.0
 40
0.0
 40
0.41912827
 40
0.6855957951
 40
1.0
 40
1.0
 40
1.0
 40
1.0
 10
60.8151181361
 20
54.0331928068
 30
0.0
 10
60.815118456
 20
54.0504266814
 30
0.0
 10
60.8044563844
 20
54.0782580541
 30
0.0
 10
60.7810431771
 20
54.111828148
 30
0.0
 10
60.7653629981
 20
54.1299710908
 30
0.0
 10
60.7565984351
 20
54.1394742595
 30
0.0
  0
SPLINE
  5
24E
100
AcDbEntity
  8
0
100
AcDbSpline
 62
7
  6
BYLAYER
 70
0
 71
3
 72
10
 73
6
 74
0
 42
0.0000001
 43
0.0000001
 44
0.0000000001
 40
0.0
 40
0.0
 40
0.0
 40
0.0
 40
0.4254909291
 40
0.6950252371
 40
1.0
 40
1.0
 40
1.0
 40
1.0
 10
60.7565984351
 20
54.1394742595
 30
0.0
 10
60.7087979092
 20
54.1913030226
 30
0.0
 10
60.615872479
 20
54.2634097504
 30
0.0
 10
60.464530297
 20
54.3316579166
 30
0.0
 10
60.3742533319
 20
54.3622188365
 30
0.0
 10
60.3259955322
 20
54.3772210274
 30
0.0
  0
SPLINE
  5
24F
100
AcDbEntity
  8
0
100
AcDbSpline
 62
7
  6
BYLAYER
 70
0
 71
3
 72
9
 73
5
 74
0
 42
0.0000001
 43
0.0000001
 44
0.0000000001
 40
0.0
 40
0.0
 40
0.0
 40
0.0
 40
0.5026299335
 40
1.0
 40
1.0
 40
1.0
 40
1.0
 10
60.3259801695
 20
39.0891586871
 30
0.0
 10
60.3343833577
 20
39.0473995699
 30
0.0
 10
60.3395941866
 20
38.9614961488
 30
0.0
 10
60.3149920044
 20
38.8774605051
 30
0.0
 10
60.2938896621
 20
38.8409728054
 30
0.0
  0
SPLINE
  5
250
100
AcDbEntity
  8
0
100
AcDbSpline
 62
7
  6
BYLAYER
 70
0
 71
3
 72
10
 73
6
 74
0
 42
0.0000001
 43
0.0000001
 44
0.0000000001
 40
0.0
 40
0.0
 40
0.0
 40
0.0
 40
0.5285808022
 40
0.7699856439
 40
1.0
 40
1.0
 40
1.0
 40
1.0
 10
60.2938896621
 20
38.8409728054
 30
0.0
 10
60.2747137941
 20
38.8078161395
 30
0.0
 10
60.2340586551
 20
38.7646023649
 30
0.0
 10
60.1661133745
 20
38.7373628287
 30
0.0
 10
60.1317777119
 20
38.7331922201
 30
0.0
 10
60.1151102213
 20
38.7331922144
 30
0.0
  0
SPLINE
  5
251
100
AcDbEntity
  8
0
100
AcDbSpline
 62
7
  6
BYLAYER
 70
0
 71
3
 72
9
 73
5
 74
0
 42
0.0000001
 43
0.0000001
 44
0.0000000001
 40
0.0
 40
0.0
 40
0.0
 40
0.0
 40
0.4542844702
 40
1.0
 40
1.0
 40
1.0
 40
1.0
 10
59.9824303424
 20
38.7331922144
 30
0.0
 10
59.9980230759
 20
38.7331922144
 30
0.0
 10
60.0328747925
 20
38.7424242506
 30
0.0
 10
60.0582456521
 20
38.767518591
 30
0.0
 10
60.069369746
 20
38.7825885756
 30
0.0
  0
SPLINE
  5
252
100
AcDbEntity
  8
0
100
AcDbSpline
 62
7
  6
BYLAYER
 70
0
 71
3
 72
9
 73
5
 74
0
 42
0.0000001
 43
0.0000001
 44
0.0000000001
 40
0.0
 40
0.0
 40
0.0
 40
0.0
 40
0.2402545977
 40
1.0
 40
1.0
 40
1.0
 40
1.0
 10
60.0758184524
 20
38.7919250175
 30
0.0
 10
60.0773681716
 20
38.7943214619
 30
0.0
 10
60.0835962688
 20
38.8044389536
 30
0.0
 10
60.0889460794
 20
38.8150894308
 30
0.0
 10
60.0925464758
 20
38.8233647881
 30
0.0
  0
SPLINE
  5
253
100
AcDbEntity
  8
0
100
AcDbSpline
 62
7
  6
BYLAYER
 70
0
 71
3
 72
10
 73
6
 74
0
 42
0.0000001
 43
0.0000001
 44
0.0000000001
 40
0.0
 40
0.0
 40
0.0
 40
0.0
 40
0.2338691023
 40
0.4871524567
 40
1.0
 40
1.0
 40
1.0
 40
1.0
 10
60.0925464758
 20
38.8233647881
 30
0.0
 10
60.0997526137
 20
38.8399277883
 30
0.0
 10
60.1110066217
 20
38.8760888413
 30
0.0
 10
60.1227794224
 20
38.9525873434
 30
0.0
 10
60.1205017783
 20
39.0124014917
 30
0.0
 10
60.1151179621
 20
39.051643296
 30
0.0
  0
SPLINE
  5
254
100
AcDbEntity
  8
0
100
AcDbSpline
 62
7
  6
BYLAYER
 70
0
 71
3
 72
9
 73
5
 74
0
 42
0.0000001
 43
0.0000001
 44
0.0000000001
 40
0.0
 40
0.0
 40
0.0
 40
0.0
 40
0.4882150147
 40
1.0
 40
1.0
 40
1.0
 40
1.0
 10
60.1151178744
 20
39.0516432879
 30
0.0
 10
60.0342608157
 20
39.0417522957
 30
0.0
 10
59.8673220092
 20
39.0328803994
 30
0.0
 10
59.7005106558
 20
39.0331893069
 30
0.0
 10
59.6151181735
 20
39.0331922144
 30
0.0
  0
SPLINE
  5
255
100
AcDbEntity
  8
0
100
AcDbSpline
 62
7
  6
BYLAYER
 70
0
 71
3
 72
13
 73
9
 74
0
 42
0.0000001
 43
0.0000001
 44
0.0000000001
 40
0.0
 40
0.0
 40
0.0
 40
0.0
 40
0.2620896434
 40
0.5149201635
 40
0.6381765715
 40
0.7594829982
 40
0.8798603234
 40
1.0
 40
1.0
 40
1.0
 40
1.0
 10
31.515117926
 20
39.1982006052
 30
0.0
 10
31.5122542645
 20
39.1385239396
 30
0.0
 10
31.5273650209
 20
39.019107163
 30
0.0
 10
31.5995326923
 20
38.8882184134
 30
0.0
 10
31.6823033391
 20
38.8096498487
 30
0.0
 10
31.7539212866
 20
38.7660130982
 30
0.0
 10
31.8325987132
 20
38.7392315451
 30
0.0
 10
31.8876129089
 20
38.7331924981
 30
0.0
 10
31.914999665
 20
38.7331922144
 30
0.0
  0
SPLINE
  5
256
100
AcDbEntity
  8
0
100
AcDbSpline
 62
7
  6
BYLAYER
 70
0
 71
3
 72
13
 73
9
 74
0
 42
0.0000001
 43
0.0000001
 44
0.0000000001
 40
0.0
 40
0.0
 40
0.0
 40
0.0
 40
0.2973313661
 40
0.5748660255
 40
0.7003700881
 40
0.8142214624
 40
0.9145967782
 40
1.0
 40
1.0
 40
1.0
 40
1.0
 10
35.8151181035
 20
39.0331922144
 30
0.0
 10
35.3882968529
 20
39.0331922567
 30
0.0
 10
34.5630750318
 20
39.0352506055
 30
0.0
 10
33.5577263521
 20
39.0511590858
 30
0.0
 10
32.8162109993
 20
39.0787931615
 30
0.0
 10
32.3292732534
 20
39.1067509165
 30
0.0
 10
31.9006893555
 20
39.1437531496
 30
0.0
 10
31.6360334689
 20
39.1779678675
 30
0.0
 10
31.515117632
 20
39.198200647
 30
0.0
  0
SPLINE
  5
257
100
AcDbEntity
  8
0
100
AcDbSpline
 62
7
  6
BYLAYER
 70
0
 71
3
 72
11
 73
7
 74
0
 42
0.0000001
 43
0.0000001
 44
0.0000000001
 40
0.0
 40
0.0
 40
0.0
 40
0.0
 40
0.2400032842
 40
0.4994042538
 40
0.7591836868
 40
1.0
 40
1.0
 40
1.0
 40
1.0
 10
31.5151158594
 20
38.7331502168
 30
0.0
 10
31.4408877283
 20
38.7332271251
 30
0.0
 10
31.2848743195
 20
38.7629545079
 30
0.0
 10
31.084112936
 20
38.8972961898
 30
0.0
 10
30.9543914323
 20
39.1013270036
 30
0.0
 10
30.9278835193
 20
39.2582382782
 30
0.0
 10
30.92925284
 20
39.332705314
 30
0.0
  0
SPLINE
  5
258
100
AcDbEntity
  8
0
100
AcDbSpline
 62
7
  6
BYLAYER
 70
0
 71
3
 72
11
 73
7
 74
0
 42
0.0000001
 43
0.0000001
 44
0.0000000001
 40
0.0
 40
0.0
 40
0.0
 40
0.0
 40
0.1780965388
 40
0.4053137185
 40
0.6799429236
 40
1.0
 40
1.0
 40
1.0
 40
1.0
 10
30.9292957827
 20
39.3328591013
 30
0.0
 10
30.9626938195
 20
39.3201672653
 30
0.0
 10
31.0404166804
 20
39.2958765521
 30
0.0
 10
31.1727961044
 20
39.2628812718
 30
0.0
 10
31.3342916209
 20
39.2294334489
 30
0.0
 10
31.4517755642
 20
39.2086205691
 30
0.0
 10
31.5151126503
 20
39.1980854159
 30
0.0
  0
SPLINE
  5
259
100
AcDbEntity
  8
0
100
AcDbSpline
 62
7
  6
BYLAYER
 70
0
 71
3
 72
13
 73
9
 74
0
 42
0.0000001
 43
0.0000001
 44
0.0000000001
 40
0.0
 40
0.0
 40
0.0
 40
0.0
 40
0.0357813301
 40
0.1027299013
 40
0.1970489182
 40
0.3157664669
 40
0.6181918412
 40
1.0
 40
1.0
 40
1.0
 40
1.0
 10
30.8150766823
 20
39.4331583402
 30
0.0
 10
30.8150598588
 20
39.4312822082
 30
0.0
 10
30.8162821455
 20
39.4259467229
 30
0.0
 10
30.820222827
 20
39.4163855426
 30
0.0
 10
30.8279949411
 20
39.403841169
 30
0.0
 10
30.8452412656
 20
39.3829519434
 30
0.0
 10
30.8781830869
 20
39.3560596397
 30
0.0
 10
30.9105276593
 20
39.3397891267
 30
0.0
 10
30.9292518946
 20
39.3327029746
 30
0.0
  0
SPLINE
  5
25A
100
AcDbEntity
  8
0
100
AcDbSpline
 62
7
  6
BYLAYER
 70
0
 71
3
 72
13
 73
9
 74
0
 42
0.0000001
 43
0.0000001
 44
0.0000000001
 40
0.0
 40
0.0
 40
0.0
 40
0.0
 40
0.3813863807
 40
0.6835715595
 40
0.8024167281
 40
0.8965991493
 40
0.9633206505
 40
1.0
 40
1.0
 40
1.0
 40
1.0
 10
30.9293354326
 20
54.1337172633
 30
0.0
 10
30.9106243201
 20
54.1266327405
 30
0.0
 10
30.8783078026
 20
54.1103642628
 30
0.0
 10
30.8453340785
 20
54.08350507
 30
0.0
 10
30.8281228167
 20
54.0626017633
 30
0.0
 10
30.8202782431
 20
54.0500950189
 30
0.0
 10
30.8164292887
 20
54.0404688713
 30
0.0
 10
30.8151185104
 20
54.0351163879
 30
0.0
 10
30.8151181361
 20
54.0331922013
 30
0.0
  0
SPLINE
  5
25B
100
AcDbEntity
  8
0
100
AcDbSpline
 62
7
  6
BYLAYER
 70
0
 71
3
 72
11
 73
7
 74
0
 42
0.0000001
 43
0.0000001
 44
0.0000000001
 40
0.0
 40
0.0
 40
0.0
 40
0.0
 40
0.3200448022
 40
0.5946681424
 40
0.8218883834
 40
1.0
 40
1.0
 40
1.0
 40
1.0
 10
31.5151817439
 20
54.2683006638
 30
0.0
 10
31.4518430549
 20
54.257777682
 30
0.0
 10
31.3343554092
 20
54.236984424
 30
0.0
 10
31.1728539196
 20
54.2035537952
 30
0.0
 10
31.0404664367
 20
54.170562184
 30
0.0
 10
30.9627385124
 20
54.1462657709
 30
0.0
 10
30.9293380244
 20
54.1335686628
 30
0.0
  0
SPLINE
  5
25C
100
AcDbEntity
  8
0
100
AcDbSpline
 62
7
  6
BYLAYER
 70
0
 71
3
 72
13
 73
9
 74
0
 42
0.0000001
 43
0.0000001
 44
0.0000000001
 40
0.0
 40
0.0
 40
0.0
 40
0.0
 40
0.2401405876
 40
0.3691670299
 40
0.5005902426
 40
0.6319133873
 40
0.7606689544
 40
1.0
 40
1.0
 40
1.0
 40
1.0
 10
30.9293396584
 20
54.1337189045
 30
0.0
 10
30.927893042
 20
54.2081716921
 30
0.0
 10
30.9476015232
 20
54.3246458994
 30
0.0
 10
31.0176712408
 20
54.4640270587
 30
0.0
 10
31.0931639844
 20
54.560417011
 30
0.0
 10
31.1877154123
 20
54.6380718969
 30
0.0
 10
31.3251581794
 20
54.7111025425
 30
0.0
 10
31.4409004357
 20
54.7331919368
 30
0.0
 10
31.5151162394
 20
54.7331922172
 30
0.0
  0
ENDSEC
  0
SECTION
  2
OBJECTS
  0
DICTIONARY
  5
C
100
AcDbDictionary
280
0
281
1
  3
ACAD_GROUP
350
D
  3
ACAD_MLINESTYLE
350
17
  3
ACAD_LAYOUT
350
1A
  3
ACAD_PLOTSETTINGS
350
19
  3
ACAD_PLOTSTYLENAME
350
E
  0
DICTIONARY
  5
D
102
{ACAD_REACTORS
330
C
102
}
100
AcDbDictionary
280
0
281
1
  0
ACDBDICTIONARYWDFLT
  5
E
102
{ACAD_REACTORS
330
C
102
}
100
AcDbDictionary
281
1
  3
Normal
350
F
100
AcDbDictionaryWithDefault
340
F
  0
DICTIONARY
  5
17
102
{ACAD_REACTORS
330
C
102
}
100
AcDbDictionary
280
0
281
1
  3
Standard
350
18
  0
DICTIONARY
  5
19
102
{ACAD_REACTORS
330
C
102
}
100
AcDbDictionary
281
1
  0
DICTIONARY
  5
1A
102
{ACAD_REACTORS
330
C
102
}
100
AcDbDictionary
281
1
  3
Model
350
25D
  3
Layout1
350
25E
  0
ACDBPLACEHOLDER
  5
F
102
{ACAD_REACTORS
330
E
102
}
  0
MLINESTYLE
  5
18
102
{ACAD_REACTORS
330
17
102
}
100
AcDbMlineStyle
  2
STANDARD
 70
0
  3

 62
256
 51
90.0
 52
90.0
 71
2
 49
0.5
 62
256
  6
BYLAYER
 49
-0.5
 62
256
  6
BYLAYER
  0
LAYOUT
  5
25D
102
{ACAD_REACTORS
330
1A
102
}
100
AcDbPlotSettings
  1

  2
none_device
  4

  6

 40
0.0
 41
0.0
 42
0.0
 43
0.0
 44
210.0
 45
297.0
 46
0.0
 47
0.0
 48
0.0
 49
0.0
140
0.0
141
0.0
142
1.0
143
1.0
 70
1024
 72
1
 73
0
 74
0
  7

 75
0
147
1.0
148
0.0
149
0.0
100
AcDbLayout
  1
Model
 70
0
 71
0
 10
0.0
 20
0.0
 11
210.0
 21
297.0
 12
0.0
 22
0.0
 32
0.0
 14
0.0
 24
0.0
 34
0.0
 15
0.0
 25
0.0
 35
0.0
146
0.0
 13
0.0
 23
0.0
 33
0.0
 16
1.0
 26
0.0
 36
0.0
 17
0.0
 27
1.0
 37
0.0
 76
0
330
211
345
0
346
0
  0
LAYOUT
  5
25E
102
{ACAD_REACTORS
330
1A
102
}
100
AcDbPlotSettings
  1

  2
none_device
  4

  6

 40
0.0
 41
0.0
 42
0.0
 43
0.0
 44
210.0
 45
297.0
 46
0.0
 47
0.0
 48
0.0
 49
0.0
140
0.0
141
0.0
142
1.0
143
1.0
 70
0
 72
1
 73
0
 74
0
  7

 75
0
147
1.0
148
0.0
149
0.0
100
AcDbLayout
  1
Layout1
 70
0
 71
1
 10
0.0
 20
0.0
 11
210.0
 21
297.0
 12
0.0
 22
0.0
 32
0.0
 14
0.0
 24
0.0
 34
0.0
 15
0.0
 25
0.0
 35
0.0
146
0.0
 13
0.0
 23
0.0
 33
0.0
 16
1.0
 26
0.0
 36
0.0
 17
0.0
 27
1.0
 37
0.0
 76
0
330
212
345
0
346
0
  0
ENDSEC
  0
EOF
