ISO-10303-21;
HEADER;
FILE_DESCRIPTION(('STEP AP214'),'1');
FILE_NAME('xsav11801.stp','2020-04-09T08:28:52',('TraceParts'),('TraceParts S.A.'),'Spatial InterOp 3D',' ',' ');
FILE_SCHEMA(('AUTOMOTIVE_DESIGN { 1 0 10303 214 1 1 1 1 }'));
ENDSEC;
DATA;
#1=PRODUCT_DEFINITION_CONTEXT('',#9,'design');
#2=APPLICATION_PROTOCOL_DEFINITION('INTERNATIONAL STANDARD','automotive_design',1994,#9);
#3=PRODUCT_CATEGORY_RELATIONSHIP('NONE','NONE',#10,#11);
#4=SHAPE_DEFINITION_REPRESENTATION(#12,#13);
#5= (GEOMETRIC_REPRESENTATION_CONTEXT(3)GLOBAL_UNCERTAINTY_ASSIGNED_CONTEXT((#16))GLOBAL_UNIT_ASSIGNED_CONTEXT((#18,#19,#20))REPRESENTATION_CONTEXT('NONE','WORKSPACE'));
#9=APPLICATION_CONTEXT(' ');
#10=PRODUCT_CATEGORY('part','NONE');
#11=PRODUCT_RELATED_PRODUCT_CATEGORY('detail',' ',(#22));
#12=PRODUCT_DEFINITION_SHAPE('NONE','NONE',#23);
#13=ADVANCED_BREP_SHAPE_REPRESENTATION('xsav11801',(#24,#25),#5);
#16=UNCERTAINTY_MEASURE_WITH_UNIT(LENGTH_MEASURE(1.0E-06),#18,'','');
#18= (CONVERSION_BASED_UNIT('MILLIMETRE',#28)LENGTH_UNIT()NAMED_UNIT(#31));
#19= (NAMED_UNIT(#33)PLANE_ANGLE_UNIT()SI_UNIT($,.RADIAN.));
#20= (NAMED_UNIT(#33)SOLID_ANGLE_UNIT()SI_UNIT($,.STERADIAN.));
#22=PRODUCT('xsav11801','xsav11801','PART-xsav11801-DESC',(#39));
#23=PRODUCT_DEFINITION('','NONE',#40,#1);
#24=MANIFOLD_SOLID_BREP('xsav11801',#41);
#25=AXIS2_PLACEMENT_3D('',#42,#43,#44);
#28=LENGTH_MEASURE_WITH_UNIT(LENGTH_MEASURE(1.0),#45);
#31=DIMENSIONAL_EXPONENTS(1.0,0.0,0.0,0.0,0.0,0.0,0.0);
#33=DIMENSIONAL_EXPONENTS(0.0,0.0,0.0,0.0,0.0,0.0,0.0);
#39=PRODUCT_CONTEXT('',#9,'mechanical');
#40=PRODUCT_DEFINITION_FORMATION_WITH_SPECIFIED_SOURCE(' ','NONE',#22,.NOT_KNOWN.);
#41=CLOSED_SHELL('',(#46,#47,#48,#49,#50,#51,#52,#53,#54,#55,#56,#57,#58,#59,#60,#61,#62,#63,#64,#65,#66,#67));
#42=CARTESIAN_POINT('',(0.0,0.0,0.0));
#43=DIRECTION('',(0.0,0.0,1.0));
#44=DIRECTION('',(1.0,0.0,0.0));
#45= (NAMED_UNIT(#31)LENGTH_UNIT()SI_UNIT(.MILLI.,.METRE.));
#46=ADVANCED_FACE('',(#69),#70,.T.);
#47=ADVANCED_FACE('',(#71),#72,.T.);
#48=ADVANCED_FACE('',(#73),#74,.T.);
#49=ADVANCED_FACE('',(#75),#76,.T.);
#50=ADVANCED_FACE('',(#77,#78),#79,.F.);
#51=ADVANCED_FACE('',(#80),#81,.T.);
#52=ADVANCED_FACE('',(#82),#83,.T.);
#53=ADVANCED_FACE('',(#84,#85),#86,.T.);
#54=ADVANCED_FACE('',(#87),#88,.T.);
#55=ADVANCED_FACE('',(#89),#90,.T.);
#56=ADVANCED_FACE('',(#91,#92),#93,.T.);
#57=ADVANCED_FACE('',(#94),#95,.T.);
#58=ADVANCED_FACE('',(#96),#97,.T.);
#59=ADVANCED_FACE('',(#98,#99),#100,.T.);
#60=ADVANCED_FACE('',(#101),#102,.T.);
#61=ADVANCED_FACE('',(#103),#104,.T.);
#62=ADVANCED_FACE('',(#105),#106,.T.);
#63=ADVANCED_FACE('',(#107),#108,.T.);
#64=ADVANCED_FACE('',(#109),#110,.T.);
#65=ADVANCED_FACE('',(#111),#112,.T.);
#66=ADVANCED_FACE('',(#113),#114,.T.);
#67=ADVANCED_FACE('',(#115),#116,.T.);
#69=FACE_OUTER_BOUND('',#117,.T.);
#70=TOROIDAL_SURFACE('',#118,13.2,0.8);
#71=FACE_OUTER_BOUND('',#119,.T.);
#72=TOROIDAL_SURFACE('',#120,13.2,0.8);
#73=FACE_OUTER_BOUND('',#121,.T.);
#74=TOROIDAL_SURFACE('',#122,13.0,1.0);
#75=FACE_OUTER_BOUND('',#123,.T.);
#76=TOROIDAL_SURFACE('',#124,13.0,1.0);
#77=FACE_OUTER_BOUND('',#125,.T.);
#78=FACE_BOUND('',#126,.T.);
#79=PLANE('',#127);
#80=FACE_OUTER_BOUND('',#128,.T.);
#81=CYLINDRICAL_SURFACE('',#129,15.0);
#82=FACE_OUTER_BOUND('',#130,.T.);
#83=CYLINDRICAL_SURFACE('',#131,15.0);
#84=FACE_OUTER_BOUND('',#132,.T.);
#85=FACE_BOUND('',#133,.T.);
#86=PLANE('',#134);
#87=FACE_OUTER_BOUND('',#135,.T.);
#88=CYLINDRICAL_SURFACE('',#136,14.5625);
#89=FACE_OUTER_BOUND('',#137,.T.);
#90=CYLINDRICAL_SURFACE('',#138,14.5625);
#91=FACE_OUTER_BOUND('',#139,.T.);
#92=FACE_BOUND('',#140,.T.);
#93=PLANE('',#141);
#94=FACE_OUTER_BOUND('',#142,.T.);
#95=CYLINDRICAL_SURFACE('',#143,14.0);
#96=FACE_OUTER_BOUND('',#144,.T.);
#97=TOROIDAL_SURFACE('',#145,13.0,1.0);
#98=FACE_OUTER_BOUND('',#146,.T.);
#99=FACE_BOUND('',#147,.T.);
#100=PLANE('',#148);
#101=FACE_OUTER_BOUND('',#149,.T.);
#102=TOROIDAL_SURFACE('',#150,13.0,1.0);
#103=FACE_OUTER_BOUND('',#151,.T.);
#104=CYLINDRICAL_SURFACE('',#152,14.0);
#105=FACE_OUTER_BOUND('',#153,.T.);
#106=CYLINDRICAL_SURFACE('',#154,2.1);
#107=FACE_OUTER_BOUND('',#155,.T.);
#108=CYLINDRICAL_SURFACE('',#156,2.1);
#109=FACE_OUTER_BOUND('',#157,.T.);
#110=PLANE('',#158);
#111=FACE_OUTER_BOUND('',#159,.T.);
#112=TOROIDAL_SURFACE('',#160,13.2,0.8);
#113=FACE_OUTER_BOUND('',#161,.T.);
#114=PLANE('',#162);
#115=FACE_OUTER_BOUND('',#163,.T.);
#116=TOROIDAL_SURFACE('',#164,13.2,0.8);
#117=EDGE_LOOP('',(#165,#166,#167,#168));
#118=AXIS2_PLACEMENT_3D('',#169,#170,#171);
#119=EDGE_LOOP('',(#172,#173,#174,#175));
#120=AXIS2_PLACEMENT_3D('',#176,#177,#178);
#121=EDGE_LOOP('',(#179,#180,#181,#182));
#122=AXIS2_PLACEMENT_3D('',#183,#184,#185);
#123=EDGE_LOOP('',(#186,#187,#188,#189));
#124=AXIS2_PLACEMENT_3D('',#190,#191,#192);
#125=EDGE_LOOP('',(#193,#194));
#126=EDGE_LOOP('',(#195,#196,#197,#198));
#127=AXIS2_PLACEMENT_3D('',#199,#200,#201);
#128=EDGE_LOOP('',(#202,#203,#204,#205));
#129=AXIS2_PLACEMENT_3D('',#206,#207,#208);
#130=EDGE_LOOP('',(#209,#210,#211,#212));
#131=AXIS2_PLACEMENT_3D('',#213,#214,#215);
#132=EDGE_LOOP('',(#216,#217));
#133=EDGE_LOOP('',(#218,#219));
#134=AXIS2_PLACEMENT_3D('',#220,#221,#222);
#135=EDGE_LOOP('',(#223,#224,#225,#226));
#136=AXIS2_PLACEMENT_3D('',#227,#228,#229);
#137=EDGE_LOOP('',(#230,#231,#232,#233));
#138=AXIS2_PLACEMENT_3D('',#234,#235,#236);
#139=EDGE_LOOP('',(#237,#238));
#140=EDGE_LOOP('',(#239,#240));
#141=AXIS2_PLACEMENT_3D('',#241,#242,#243);
#142=EDGE_LOOP('',(#244,#245,#246,#247,#248));
#143=AXIS2_PLACEMENT_3D('',#249,#250,#251);
#144=EDGE_LOOP('',(#252,#253,#254,#255));
#145=AXIS2_PLACEMENT_3D('',#256,#257,#258);
#146=EDGE_LOOP('',(#259,#260,#261,#262));
#147=EDGE_LOOP('',(#263,#264));
#148=AXIS2_PLACEMENT_3D('',#265,#266,#267);
#149=EDGE_LOOP('',(#268,#269,#270,#271));
#150=AXIS2_PLACEMENT_3D('',#272,#273,#274);
#151=EDGE_LOOP('',(#275,#276,#277,#278,#279));
#152=AXIS2_PLACEMENT_3D('',#280,#281,#282);
#153=EDGE_LOOP('',(#283,#284,#285,#286));
#154=AXIS2_PLACEMENT_3D('',#287,#288,#289);
#155=EDGE_LOOP('',(#290,#291,#292,#293));
#156=AXIS2_PLACEMENT_3D('',#294,#295,#296);
#157=EDGE_LOOP('',(#297,#298));
#158=AXIS2_PLACEMENT_3D('',#299,#300,#301);
#159=EDGE_LOOP('',(#302,#303,#304,#305));
#160=AXIS2_PLACEMENT_3D('',#306,#307,#308);
#161=EDGE_LOOP('',(#309,#310,#311,#312));
#162=AXIS2_PLACEMENT_3D('',#313,#314,#315);
#163=EDGE_LOOP('',(#316,#317,#318,#319));
#164=AXIS2_PLACEMENT_3D('',#320,#321,#322);
#165=ORIENTED_EDGE('',*,*,#323,.F.);
#166=ORIENTED_EDGE('',*,*,#324,.F.);
#167=ORIENTED_EDGE('',*,*,#325,.T.);
#168=ORIENTED_EDGE('',*,*,#326,.T.);
#169=CARTESIAN_POINT('',(0.0,0.0,0.0));
#170=DIRECTION('',(0.0,-1.0,0.0));
#171=DIRECTION('',(-0.999957179021973,0.0,0.00925419485517075));
#172=ORIENTED_EDGE('',*,*,#327,.F.);
#173=ORIENTED_EDGE('',*,*,#328,.F.);
#174=ORIENTED_EDGE('',*,*,#329,.T.);
#175=ORIENTED_EDGE('',*,*,#330,.T.);
#176=CARTESIAN_POINT('',(0.0,0.0,0.0));
#177=DIRECTION('',(0.0,-1.0,0.0));
#178=DIRECTION('',(0.999957179021973,0.0,-0.00925419485517075));
#179=ORIENTED_EDGE('',*,*,#331,.F.);
#180=ORIENTED_EDGE('',*,*,#332,.F.);
#181=ORIENTED_EDGE('',*,*,#333,.T.);
#182=ORIENTED_EDGE('',*,*,#334,.T.);
#183=CARTESIAN_POINT('',(0.0,75.9,0.0));
#184=DIRECTION('',(0.0,1.0,0.0));
#185=DIRECTION('',(-0.00972291912957834,0.0,0.999952731304635));
#186=ORIENTED_EDGE('',*,*,#335,.F.);
#187=ORIENTED_EDGE('',*,*,#336,.F.);
#188=ORIENTED_EDGE('',*,*,#337,.T.);
#189=ORIENTED_EDGE('',*,*,#338,.T.);
#190=CARTESIAN_POINT('',(0.0,75.9,0.0));
#191=DIRECTION('',(0.0,1.0,0.0));
#192=DIRECTION('',(0.00972291912957834,0.0,-0.999952731304635));
#193=ORIENTED_EDGE('',*,*,#339,.F.);
#194=ORIENTED_EDGE('',*,*,#340,.T.);
#195=ORIENTED_EDGE('',*,*,#326,.F.);
#196=ORIENTED_EDGE('',*,*,#341,.F.);
#197=ORIENTED_EDGE('',*,*,#330,.F.);
#198=ORIENTED_EDGE('',*,*,#342,.F.);
#199=CARTESIAN_POINT('',(0.0,0.0,0.0));
#200=DIRECTION('',(0.0,1.0,0.0));
#201=DIRECTION('',(1.0,0.0,-0.0));
#202=ORIENTED_EDGE('',*,*,#343,.T.);
#203=ORIENTED_EDGE('',*,*,#344,.F.);
#204=ORIENTED_EDGE('',*,*,#340,.F.);
#205=ORIENTED_EDGE('',*,*,#345,.T.);
#206=CARTESIAN_POINT('',(0.0,-3.6,0.0));
#207=DIRECTION('',(0.0,-1.0,0.0));
#208=DIRECTION('',(1.0,0.0,0.0));
#209=ORIENTED_EDGE('',*,*,#339,.T.);
#210=ORIENTED_EDGE('',*,*,#344,.T.);
#211=ORIENTED_EDGE('',*,*,#346,.F.);
#212=ORIENTED_EDGE('',*,*,#345,.F.);
#213=CARTESIAN_POINT('',(0.0,-3.6,0.0));
#214=DIRECTION('',(0.0,-1.0,0.0));
#215=DIRECTION('',(1.0,0.0,0.0));
#216=ORIENTED_EDGE('',*,*,#346,.T.);
#217=ORIENTED_EDGE('',*,*,#343,.F.);
#218=ORIENTED_EDGE('',*,*,#347,.T.);
#219=ORIENTED_EDGE('',*,*,#348,.F.);
#220=CARTESIAN_POINT('',(0.0,66.0,0.0));
#221=DIRECTION('',(0.0,1.0,0.0));
#222=DIRECTION('',(1.0,0.0,-0.0));
#223=ORIENTED_EDGE('',*,*,#348,.T.);
#224=ORIENTED_EDGE('',*,*,#349,.T.);
#225=ORIENTED_EDGE('',*,*,#350,.F.);
#226=ORIENTED_EDGE('',*,*,#351,.F.);
#227=CARTESIAN_POINT('',(0.0,-3.6,0.0));
#228=DIRECTION('',(0.0,-1.0,0.0));
#229=DIRECTION('',(1.0,0.0,0.0));
#230=ORIENTED_EDGE('',*,*,#352,.T.);
#231=ORIENTED_EDGE('',*,*,#349,.F.);
#232=ORIENTED_EDGE('',*,*,#347,.F.);
#233=ORIENTED_EDGE('',*,*,#351,.T.);
#234=CARTESIAN_POINT('',(0.0,-3.6,0.0));
#235=DIRECTION('',(0.0,-1.0,0.0));
#236=DIRECTION('',(1.0,0.0,0.0));
#237=ORIENTED_EDGE('',*,*,#350,.T.);
#238=ORIENTED_EDGE('',*,*,#352,.F.);
#239=ORIENTED_EDGE('',*,*,#353,.F.);
#240=ORIENTED_EDGE('',*,*,#354,.F.);
#241=CARTESIAN_POINT('',(0.0,72.0,0.0));
#242=DIRECTION('',(0.0,1.0,0.0));
#243=DIRECTION('',(1.0,0.0,-0.0));
#244=ORIENTED_EDGE('',*,*,#355,.F.);
#245=ORIENTED_EDGE('',*,*,#354,.T.);
#246=ORIENTED_EDGE('',*,*,#356,.T.);
#247=ORIENTED_EDGE('',*,*,#357,.F.);
#248=ORIENTED_EDGE('',*,*,#338,.F.);
#249=CARTESIAN_POINT('',(0.0,72.0,0.0));
#250=DIRECTION('',(0.0,-1.0,-0.0));
#251=DIRECTION('',(0.0,0.0,-1.0));
#252=ORIENTED_EDGE('',*,*,#335,.T.);
#253=ORIENTED_EDGE('',*,*,#357,.T.);
#254=ORIENTED_EDGE('',*,*,#333,.F.);
#255=ORIENTED_EDGE('',*,*,#358,.F.);
#256=CARTESIAN_POINT('',(0.0,75.9,0.0));
#257=DIRECTION('',(0.0,1.0,0.0));
#258=DIRECTION('',(0.00972291912957834,0.0,-0.999952731304635));
#259=ORIENTED_EDGE('',*,*,#336,.T.);
#260=ORIENTED_EDGE('',*,*,#358,.T.);
#261=ORIENTED_EDGE('',*,*,#332,.T.);
#262=ORIENTED_EDGE('',*,*,#359,.T.);
#263=ORIENTED_EDGE('',*,*,#360,.F.);
#264=ORIENTED_EDGE('',*,*,#361,.F.);
#265=CARTESIAN_POINT('',(0.0,76.9,0.0));
#266=DIRECTION('',(0.0,1.0,0.0));
#267=DIRECTION('',(1.0,0.0,-0.0));
#268=ORIENTED_EDGE('',*,*,#331,.T.);
#269=ORIENTED_EDGE('',*,*,#362,.T.);
#270=ORIENTED_EDGE('',*,*,#337,.F.);
#271=ORIENTED_EDGE('',*,*,#359,.F.);
#272=CARTESIAN_POINT('',(0.0,75.9,0.0));
#273=DIRECTION('',(0.0,1.0,0.0));
#274=DIRECTION('',(-0.00972291912957834,0.0,0.999952731304635));
#275=ORIENTED_EDGE('',*,*,#356,.F.);
#276=ORIENTED_EDGE('',*,*,#353,.T.);
#277=ORIENTED_EDGE('',*,*,#355,.T.);
#278=ORIENTED_EDGE('',*,*,#362,.F.);
#279=ORIENTED_EDGE('',*,*,#334,.F.);
#280=CARTESIAN_POINT('',(0.0,72.0,0.0));
#281=DIRECTION('',(0.0,-1.0,-0.0));
#282=DIRECTION('',(0.0,0.0,-1.0));
#283=ORIENTED_EDGE('',*,*,#363,.T.);
#284=ORIENTED_EDGE('',*,*,#364,.F.);
#285=ORIENTED_EDGE('',*,*,#365,.F.);
#286=ORIENTED_EDGE('',*,*,#361,.T.);
#287=CARTESIAN_POINT('',(-5.5,76.9,0.0));
#288=DIRECTION('',(0.0,-1.0,0.0));
#289=DIRECTION('',(1.0,0.0,0.0));
#290=ORIENTED_EDGE('',*,*,#365,.T.);
#291=ORIENTED_EDGE('',*,*,#366,.F.);
#292=ORIENTED_EDGE('',*,*,#363,.F.);
#293=ORIENTED_EDGE('',*,*,#360,.T.);
#294=CARTESIAN_POINT('',(-5.5,76.9,0.0));
#295=DIRECTION('',(0.0,-1.0,0.0));
#296=DIRECTION('',(1.0,0.0,0.0));
#297=ORIENTED_EDGE('',*,*,#366,.T.);
#298=ORIENTED_EDGE('',*,*,#364,.T.);
#299=CARTESIAN_POINT('',(0.0,106.9,0.0));
#300=DIRECTION('',(0.0,1.0,0.0));
#301=DIRECTION('',(1.0,0.0,-0.0));
#302=ORIENTED_EDGE('',*,*,#327,.T.);
#303=ORIENTED_EDGE('',*,*,#341,.T.);
#304=ORIENTED_EDGE('',*,*,#325,.F.);
#305=ORIENTED_EDGE('',*,*,#367,.F.);
#306=CARTESIAN_POINT('',(0.0,0.0,0.0));
#307=DIRECTION('',(0.0,-1.0,0.0));
#308=DIRECTION('',(0.999957179021973,0.0,-0.00925419485517075));
#309=ORIENTED_EDGE('',*,*,#324,.T.);
#310=ORIENTED_EDGE('',*,*,#368,.T.);
#311=ORIENTED_EDGE('',*,*,#328,.T.);
#312=ORIENTED_EDGE('',*,*,#367,.T.);
#313=CARTESIAN_POINT('',(0.0,-0.8,0.0));
#314=DIRECTION('',(0.0,-1.0,0.0));
#315=DIRECTION('',(0.0,0.0,-1.0));
#316=ORIENTED_EDGE('',*,*,#323,.T.);
#317=ORIENTED_EDGE('',*,*,#342,.T.);
#318=ORIENTED_EDGE('',*,*,#329,.F.);
#319=ORIENTED_EDGE('',*,*,#368,.F.);
#320=CARTESIAN_POINT('',(0.0,0.0,0.0));
#321=DIRECTION('',(0.0,-1.0,0.0));
#322=DIRECTION('',(-0.999957179021973,0.0,0.00925419485517075));
#323=EDGE_CURVE('',#369,#370,#371,.T.);
#324=EDGE_CURVE('',#372,#369,#373,.T.);
#325=EDGE_CURVE('',#372,#374,#375,.T.);
#326=EDGE_CURVE('',#374,#370,#376,.T.);
#327=EDGE_CURVE('',#377,#378,#379,.T.);
#328=EDGE_CURVE('',#380,#377,#381,.T.);
#329=EDGE_CURVE('',#380,#382,#383,.T.);
#330=EDGE_CURVE('',#382,#378,#384,.T.);
#331=EDGE_CURVE('',#385,#386,#387,.T.);
#332=EDGE_CURVE('',#388,#385,#389,.T.);
#333=EDGE_CURVE('',#388,#390,#391,.T.);
#334=EDGE_CURVE('',#390,#386,#392,.T.);
#335=EDGE_CURVE('',#393,#394,#395,.T.);
#336=EDGE_CURVE('',#396,#393,#397,.T.);
#337=EDGE_CURVE('',#396,#398,#399,.T.);
#338=EDGE_CURVE('',#398,#394,#400,.T.);
#339=EDGE_CURVE('',#401,#402,#403,.T.);
#340=EDGE_CURVE('',#401,#402,#404,.T.);
#341=EDGE_CURVE('',#378,#374,#405,.T.);
#342=EDGE_CURVE('',#370,#382,#406,.T.);
#343=EDGE_CURVE('',#407,#408,#409,.T.);
#344=EDGE_CURVE('',#402,#408,#410,.T.);
#345=EDGE_CURVE('',#401,#407,#411,.T.);
#346=EDGE_CURVE('',#407,#408,#412,.T.);
#347=EDGE_CURVE('',#413,#414,#415,.T.);
#348=EDGE_CURVE('',#413,#414,#416,.T.);
#349=EDGE_CURVE('',#414,#417,#418,.T.);
#350=EDGE_CURVE('',#419,#417,#420,.T.);
#351=EDGE_CURVE('',#413,#419,#421,.T.);
#352=EDGE_CURVE('',#419,#417,#422,.T.);
#353=EDGE_CURVE('',#423,#424,#425,.T.);
#354=EDGE_CURVE('',#424,#423,#426,.T.);
#355=EDGE_CURVE('',#424,#398,#427,.T.);
#356=EDGE_CURVE('',#423,#390,#428,.T.);
#357=EDGE_CURVE('',#394,#390,#429,.T.);
#358=EDGE_CURVE('',#393,#388,#430,.T.);
#359=EDGE_CURVE('',#385,#396,#431,.T.);
#360=EDGE_CURVE('',#432,#433,#434,.T.);
#361=EDGE_CURVE('',#433,#432,#435,.T.);
#362=EDGE_CURVE('',#386,#398,#436,.T.);
#363=EDGE_CURVE('',#432,#437,#438,.T.);
#364=EDGE_CURVE('',#439,#437,#440,.T.);
#365=EDGE_CURVE('',#433,#439,#441,.T.);
#366=EDGE_CURVE('',#437,#439,#442,.T.);
#367=EDGE_CURVE('',#377,#372,#443,.T.);
#368=EDGE_CURVE('',#369,#380,#444,.T.);
#369=VERTEX_POINT('',#445);
#370=VERTEX_POINT('',#446);
#371=CIRCLE('',#447,0.8);
#372=VERTEX_POINT('',#448);
#373=CIRCLE('',#449,13.2);
#374=VERTEX_POINT('',#450);
#375=CIRCLE('',#451,0.8);
#376=CIRCLE('',#452,14.0);
#377=VERTEX_POINT('',#453);
#378=VERTEX_POINT('',#454);
#379=CIRCLE('',#455,0.8);
#380=VERTEX_POINT('',#456);
#381=CIRCLE('',#457,13.2);
#382=VERTEX_POINT('',#458);
#383=CIRCLE('',#459,0.8);
#384=CIRCLE('',#460,14.0);
#385=VERTEX_POINT('',#461);
#386=VERTEX_POINT('',#462);
#387=CIRCLE('',#463,1.0);
#388=VERTEX_POINT('',#464);
#389=CIRCLE('',#465,13.0);
#390=VERTEX_POINT('',#466);
#391=CIRCLE('',#467,1.0);
#392=CIRCLE('',#468,14.0);
#393=VERTEX_POINT('',#469);
#394=VERTEX_POINT('',#470);
#395=CIRCLE('',#471,1.0);
#396=VERTEX_POINT('',#472);
#397=CIRCLE('',#473,13.0);
#398=VERTEX_POINT('',#474);
#399=CIRCLE('',#475,1.0);
#400=CIRCLE('',#476,14.0);
#401=VERTEX_POINT('',#477);
#402=VERTEX_POINT('',#478);
#403=CIRCLE('',#479,15.0);
#404=CIRCLE('',#480,15.0);
#405=CIRCLE('',#481,14.0);
#406=CIRCLE('',#482,14.0);
#407=VERTEX_POINT('',#483);
#408=VERTEX_POINT('',#484);
#409=CIRCLE('',#485,15.0);
#410=LINE('',#486,#487);
#411=LINE('',#488,#489);
#412=CIRCLE('',#490,15.0);
#413=VERTEX_POINT('',#491);
#414=VERTEX_POINT('',#492);
#415=CIRCLE('',#493,14.5625);
#416=CIRCLE('',#494,14.5625);
#417=VERTEX_POINT('',#495);
#418=LINE('',#496,#497);
#419=VERTEX_POINT('',#498);
#420=CIRCLE('',#499,14.5625);
#421=LINE('',#500,#501);
#422=CIRCLE('',#502,14.5625);
#423=VERTEX_POINT('',#503);
#424=VERTEX_POINT('',#504);
#425=CIRCLE('',#505,14.0);
#426=CIRCLE('',#506,14.0);
#427=LINE('',#507,#508);
#428=LINE('',#509,#510);
#429=CIRCLE('',#511,14.0);
#430=CIRCLE('',#512,13.0);
#431=CIRCLE('',#513,13.0);
#432=VERTEX_POINT('',#514);
#433=VERTEX_POINT('',#515);
#434=CIRCLE('',#516,2.1);
#435=CIRCLE('',#517,2.1);
#436=CIRCLE('',#518,14.0);
#437=VERTEX_POINT('',#519);
#438=LINE('',#520,#521);
#439=VERTEX_POINT('',#522);
#440=CIRCLE('',#523,2.1);
#441=LINE('',#524,#525);
#442=CIRCLE('',#526,2.1);
#443=CIRCLE('',#527,13.2);
#444=CIRCLE('',#528,13.2);
#445=CARTESIAN_POINT('',(13.19943476309,-0.8,-0.122155372088255));
#446=CARTESIAN_POINT('',(13.9994005063076,0.0,-0.129558727972392));
#447=AXIS2_PLACEMENT_3D('',#529,#530,#531);
#448=CARTESIAN_POINT('',(-13.2,-0.8,0.0));
#449=AXIS2_PLACEMENT_3D('',#532,#533,#534);
#450=CARTESIAN_POINT('',(-14.0,0.0,0.0));
#451=AXIS2_PLACEMENT_3D('',#535,#536,#537);
#452=AXIS2_PLACEMENT_3D('',#538,#539,#540);
#453=CARTESIAN_POINT('',(-13.19943476309,-0.8,0.122155372088255));
#454=CARTESIAN_POINT('',(-13.9994005063076,0.0,0.129558727972392));
#455=AXIS2_PLACEMENT_3D('',#541,#542,#543);
#456=CARTESIAN_POINT('',(13.2,-0.8,0.0));
#457=AXIS2_PLACEMENT_3D('',#544,#545,#546);
#458=CARTESIAN_POINT('',(14.0,0.0,0.0));
#459=AXIS2_PLACEMENT_3D('',#547,#548,#549);
#460=AXIS2_PLACEMENT_3D('',#550,#551,#552);
#461=CARTESIAN_POINT('',(0.126397948684521,76.9,-12.9993855069603));
#462=CARTESIAN_POINT('',(0.1361208678141,75.9,-13.9993382382649));
#463=AXIS2_PLACEMENT_3D('',#553,#554,#555);
#464=CARTESIAN_POINT('',(0.0,76.9,13.0));
#465=AXIS2_PLACEMENT_3D('',#556,#557,#558);
#466=CARTESIAN_POINT('',(0.0,75.9,14.0));
#467=AXIS2_PLACEMENT_3D('',#559,#560,#561);
#468=AXIS2_PLACEMENT_3D('',#562,#563,#564);
#469=CARTESIAN_POINT('',(-0.126397948684521,76.9,12.9993855069603));
#470=CARTESIAN_POINT('',(-0.1361208678141,75.9,13.9993382382649));
#471=AXIS2_PLACEMENT_3D('',#565,#566,#567);
#472=CARTESIAN_POINT('',(0.0,76.9,-13.0));
#473=AXIS2_PLACEMENT_3D('',#568,#569,#570);
#474=CARTESIAN_POINT('',(0.0,75.9,-14.0));
#475=AXIS2_PLACEMENT_3D('',#571,#572,#573);
#476=AXIS2_PLACEMENT_3D('',#574,#575,#576);
#477=CARTESIAN_POINT('',(15.0,0.0,0.0));
#478=CARTESIAN_POINT('',(-15.0,0.0,0.0));
#479=AXIS2_PLACEMENT_3D('',#577,#578,#579);
#480=AXIS2_PLACEMENT_3D('',#580,#581,#582);
#481=AXIS2_PLACEMENT_3D('',#583,#584,#585);
#482=AXIS2_PLACEMENT_3D('',#586,#587,#588);
#483=CARTESIAN_POINT('',(15.0,66.0,0.0));
#484=CARTESIAN_POINT('',(-15.0,66.0,0.0));
#485=AXIS2_PLACEMENT_3D('',#589,#590,#591);
#486=CARTESIAN_POINT('',(-15.0,0.0,0.0));
#487=VECTOR('',#592,66.0);
#488=CARTESIAN_POINT('',(15.0,0.0,0.0));
#489=VECTOR('',#593,66.0);
#490=AXIS2_PLACEMENT_3D('',#594,#595,#596);
#491=CARTESIAN_POINT('',(14.5625,66.0,0.0));
#492=CARTESIAN_POINT('',(-14.5625,66.0,0.0));
#493=AXIS2_PLACEMENT_3D('',#597,#598,#599);
#494=AXIS2_PLACEMENT_3D('',#600,#601,#602);
#495=CARTESIAN_POINT('',(-14.5625,72.0,0.0));
#496=CARTESIAN_POINT('',(-14.5625,66.0,0.0));
#497=VECTOR('',#603,6.0);
#498=CARTESIAN_POINT('',(14.5625,72.0,0.0));
#499=AXIS2_PLACEMENT_3D('',#604,#605,#606);
#500=CARTESIAN_POINT('',(14.5625,66.0,0.0));
#501=VECTOR('',#607,6.0);
#502=AXIS2_PLACEMENT_3D('',#608,#609,#610);
#503=CARTESIAN_POINT('',(0.0,72.0,14.0));
#504=CARTESIAN_POINT('',(0.0,72.0,-14.0));
#505=AXIS2_PLACEMENT_3D('',#611,#612,#613);
#506=AXIS2_PLACEMENT_3D('',#614,#615,#616);
#507=CARTESIAN_POINT('',(0.0,72.0,-14.0));
#508=VECTOR('',#617,3.9);
#509=CARTESIAN_POINT('',(0.0,72.0,14.0));
#510=VECTOR('',#618,3.9);
#511=AXIS2_PLACEMENT_3D('',#619,#620,#621);
#512=AXIS2_PLACEMENT_3D('',#622,#623,#624);
#513=AXIS2_PLACEMENT_3D('',#625,#626,#627);
#514=CARTESIAN_POINT('',(-7.6,76.9,0.0));
#515=CARTESIAN_POINT('',(-3.4,76.9,0.0));
#516=AXIS2_PLACEMENT_3D('',#628,#629,#630);
#517=AXIS2_PLACEMENT_3D('',#631,#632,#633);
#518=AXIS2_PLACEMENT_3D('',#634,#635,#636);
#519=CARTESIAN_POINT('',(-7.6,106.9,0.0));
#520=CARTESIAN_POINT('',(-7.6,76.9,0.0));
#521=VECTOR('',#637,30.0);
#522=CARTESIAN_POINT('',(-3.4,106.9,0.0));
#523=AXIS2_PLACEMENT_3D('',#638,#639,#640);
#524=CARTESIAN_POINT('',(-3.4,76.9,0.0));
#525=VECTOR('',#641,30.0);
#526=AXIS2_PLACEMENT_3D('',#642,#643,#644);
#527=AXIS2_PLACEMENT_3D('',#645,#646,#647);
#528=AXIS2_PLACEMENT_3D('',#648,#649,#650);
#529=CARTESIAN_POINT('',(13.19943476309,0.0,-0.122155372088256));
#530=DIRECTION('',(0.00925419485517087,0.0,0.999957179021973));
#531=DIRECTION('',(0.999957179021973,0.0,-0.00925419485517087));
#532=CARTESIAN_POINT('',(0.0,-0.8,0.0));
#533=DIRECTION('',(0.0,-1.0,0.0));
#534=DIRECTION('',(-1.0,0.0,0.0));
#535=CARTESIAN_POINT('',(-13.2,0.0,4.36942149129E-12));
#536=DIRECTION('',(-3.310164642389E-13,-0.0,-1.0));
#537=DIRECTION('',(0.0,-1.0,0.0));
#538=CARTESIAN_POINT('',(0.0,0.0,0.0));
#539=DIRECTION('',(0.0,-1.0,0.0));
#540=DIRECTION('',(-1.0,0.0,0.0));
#541=CARTESIAN_POINT('',(-13.19943476309,0.0,0.122155372088256));
#542=DIRECTION('',(-0.00925419485517087,0.0,-0.999957179021973));
#543=DIRECTION('',(-0.999957179021973,0.0,0.00925419485517087));
#544=CARTESIAN_POINT('',(0.0,-0.8,0.0));
#545=DIRECTION('',(0.0,-1.0,0.0));
#546=DIRECTION('',(1.0,0.0,0.0));
#547=CARTESIAN_POINT('',(13.2,0.0,-4.371378259371E-12));
#548=DIRECTION('',(3.311656504579E-13,-3.67667730103275E-27,1.0));
#549=DIRECTION('',(-1.110223024625E-14,-1.0,0.0));
#550=CARTESIAN_POINT('',(0.0,0.0,0.0));
#551=DIRECTION('',(0.0,-1.0,0.0));
#552=DIRECTION('',(1.0,0.0,0.0));
#553=CARTESIAN_POINT('',(0.12639794868452,75.9,-12.9993855069603));
#554=DIRECTION('',(-0.999952731304635,0.0,-0.00972291912957846));
#555=DIRECTION('',(0.00972291912957846,0.0,-0.999952731304635));
#556=CARTESIAN_POINT('',(0.0,76.9,0.0));
#557=DIRECTION('',(0.0,1.0,0.0));
#558=DIRECTION('',(0.0,0.0,1.0));
#559=CARTESIAN_POINT('',(-9.944310789244E-12,75.9,13.0));
#560=DIRECTION('',(1.0,-0.0,7.653062211732E-13));
#561=DIRECTION('',(0.0,1.0,0.0));
#562=CARTESIAN_POINT('',(0.0,75.9,0.0));
#563=DIRECTION('',(0.0,1.0,0.0));
#564=DIRECTION('',(0.0,0.0,1.0));
#565=CARTESIAN_POINT('',(-0.12639794868452,75.9,12.9993855069603));
#566=DIRECTION('',(0.999952731304635,0.0,0.00972291912957846));
#567=DIRECTION('',(-0.00972291912957846,0.0,0.999952731304635));
#568=CARTESIAN_POINT('',(0.0,76.9,0.0));
#569=DIRECTION('',(0.0,1.0,0.0));
#570=DIRECTION('',(0.0,0.0,-1.0));
#571=CARTESIAN_POINT('',(9.951329901249E-12,75.9,-13.0));
#572=DIRECTION('',(-1.0,0.0,-7.651327488256E-13));
#573=DIRECTION('',(0.0,1.0,0.0));
#574=CARTESIAN_POINT('',(0.0,75.9,0.0));
#575=DIRECTION('',(0.0,1.0,0.0));
#576=DIRECTION('',(0.0,0.0,-1.0));
#577=CARTESIAN_POINT('',(0.0,0.0,0.0));
#578=DIRECTION('',(-0.0,1.0,0.0));
#579=DIRECTION('',(1.0,0.0,0.0));
#580=CARTESIAN_POINT('',(0.0,0.0,0.0));
#581=DIRECTION('',(0.0,-1.0,0.0));
#582=DIRECTION('',(1.0,0.0,0.0));
#583=CARTESIAN_POINT('',(0.0,0.0,0.0));
#584=DIRECTION('',(0.0,-1.0,0.0));
#585=DIRECTION('',(1.0,0.0,0.0));
#586=CARTESIAN_POINT('',(0.0,0.0,0.0));
#587=DIRECTION('',(0.0,-1.0,0.0));
#588=DIRECTION('',(-1.0,0.0,0.0));
#589=CARTESIAN_POINT('',(0.0,66.0,0.0));
#590=DIRECTION('',(0.0,-1.0,0.0));
#591=DIRECTION('',(1.0,0.0,0.0));
#592=DIRECTION('',(0.0,1.0,0.0));
#593=DIRECTION('',(0.0,1.0,0.0));
#594=CARTESIAN_POINT('',(0.0,66.0,0.0));
#595=DIRECTION('',(-0.0,1.0,0.0));
#596=DIRECTION('',(1.0,0.0,0.0));
#597=CARTESIAN_POINT('',(0.0,66.0,0.0));
#598=DIRECTION('',(0.0,-1.0,0.0));
#599=DIRECTION('',(1.0,0.0,0.0));
#600=CARTESIAN_POINT('',(0.0,66.0,0.0));
#601=DIRECTION('',(-0.0,1.0,0.0));
#602=DIRECTION('',(1.0,0.0,0.0));
#603=DIRECTION('',(0.0,1.0,0.0));
#604=CARTESIAN_POINT('',(0.0,72.0,0.0));
#605=DIRECTION('',(-0.0,1.0,0.0));
#606=DIRECTION('',(1.0,0.0,0.0));
#607=DIRECTION('',(0.0,1.0,0.0));
#608=CARTESIAN_POINT('',(0.0,72.0,0.0));
#609=DIRECTION('',(0.0,-1.0,0.0));
#610=DIRECTION('',(1.0,0.0,0.0));
#611=CARTESIAN_POINT('',(0.0,72.0,0.0));
#612=DIRECTION('',(0.0,1.0,0.0));
#613=DIRECTION('',(0.0,0.0,1.0));
#614=CARTESIAN_POINT('',(0.0,72.0,0.0));
#615=DIRECTION('',(0.0,1.0,0.0));
#616=DIRECTION('',(0.0,0.0,-1.0));
#617=DIRECTION('',(-5.406774671526E-13,1.0,0.0));
#618=DIRECTION('',(5.409756665643E-13,1.0,0.0));
#619=CARTESIAN_POINT('',(0.0,75.9,0.0));
#620=DIRECTION('',(0.0,1.0,0.0));
#621=DIRECTION('',(0.0,0.0,-1.0));
#622=CARTESIAN_POINT('',(0.0,76.9,0.0));
#623=DIRECTION('',(0.0,1.0,0.0));
#624=DIRECTION('',(0.0,0.0,-1.0));
#625=CARTESIAN_POINT('',(0.0,76.9,0.0));
#626=DIRECTION('',(0.0,1.0,0.0));
#627=DIRECTION('',(0.0,0.0,1.0));
#628=CARTESIAN_POINT('',(-5.5,76.9,0.0));
#629=DIRECTION('',(0.0,1.0,0.0));
#630=DIRECTION('',(-1.0,0.0,0.0));
#631=CARTESIAN_POINT('',(-5.5,76.9,0.0));
#632=DIRECTION('',(-0.0,1.0,0.0));
#633=DIRECTION('',(1.0,0.0,0.0));
#634=CARTESIAN_POINT('',(0.0,75.9,0.0));
#635=DIRECTION('',(0.0,1.0,0.0));
#636=DIRECTION('',(0.0,0.0,1.0));
#637=DIRECTION('',(0.0,1.0,0.0));
#638=CARTESIAN_POINT('',(-5.5,106.9,0.0));
#639=DIRECTION('',(-0.0,1.0,0.0));
#640=DIRECTION('',(1.0,0.0,0.0));
#641=DIRECTION('',(0.0,1.0,0.0));
#642=CARTESIAN_POINT('',(-5.5,106.9,0.0));
#643=DIRECTION('',(0.0,1.0,0.0));
#644=DIRECTION('',(-1.0,0.0,0.0));
#645=CARTESIAN_POINT('',(0.0,-0.8,0.0));
#646=DIRECTION('',(0.0,-1.0,0.0));
#647=DIRECTION('',(1.0,0.0,0.0));
#648=CARTESIAN_POINT('',(0.0,-0.8,0.0));
#649=DIRECTION('',(0.0,-1.0,0.0));
#650=DIRECTION('',(-1.0,0.0,0.0));
ENDSEC;
END-ISO-10303-21;
