999
DXF file: C:\Users\sesa63760\Dev\_Creo\CAD\MCADPD0004381_3D-CAD\drw0001_1.dxf
999
Pro/ENGINEER 2019471 by Parametric Technology Corporation
  0
SECTION
  2
HEADER
  9
$ACADVER
  1
AC1024
  9
$DWGCODEPAGE
  3
ANSI_1252
  9
$EXTMAX
 10
86.9094281603
 20
122.9147626838
 30
0.0
  9
$EXTMIN
 10
0.0
 20
0.0
 30
0.0
  9
$LIMMIN
 10
0.0
 20
0.0
  9
$LIMMAX
 10
86.9094281603
 20
122.9147626838
  9
$VIEWCTR
 10
43.4547140801
 20
61.4573813419
  9
$VIEWSIZE
 40
122.9147626838
  9
$CLAYER
  8
0
  9
$LTSCALE
 40
8.0122215675
  9
$CELTYPE
  6
BYLAYER
  9
$DIMSCALE
 40
1.0
  9
$DIMASZ
 40
1.0346360495
  9
$DIMEXO
 40
1.0
  9
$DIMDLI
 40
5.5357167194
  9
$DIMEXE
 40
1.0
  9
$DIMCEN
 40
1.311090802
  9
$DIMLFAC
 40
1.0
  9
$DIMBLK
  1
_FILLED
  9
$DIMALT
 70
0
  9
$DIMALTF
 40
0.0393700787
  9
$DIMTXT
 40
1.4484904693
  9
$DIMTOL
 70
1
  9
$DIMLIM
 70
0
  9
$DIMTFAC
 40
1.0
  9
$DIMTP
 40
0.01
  9
$DIMTM
 40
0.01
  9
$DIMGAP
 40
0.625
  9
$DIMDSEP
 70
46
  9
$AUNITS
 70
0
  9
$PDMODE
 70
3
  9
$PDSIZE
 40
0.3125
  9
$HANDSEED
  5
374
  9
$TILEMODE
 70
1
  9
$MEASUREMENT
 70
1
  9
$INSUNITS
 70
4
  0
ENDSEC
  0
SECTION
  2
CLASSES
  0
CLASS
  1
ACDBDICTIONARYWDFLT
  2
AcDbDictionaryWithDefault
  3
AutoCAD 2000
 90
0
 91
1
280
0
281
0
  0
CLASS
  1
ACDBPLACEHOLDER
  2
AcDbPlaceHolder
  3
AutoCAD 2000
 90
0
 91
1
280
0
281
0
  0
CLASS
  1
LAYOUT
  2
AcDbLayout
  3
AutoCAD 2000
 90
0
 91
0
280
0
281
0
  0
ENDSEC
  0
SECTION
  2
TABLES
  0
TABLE
  2
VPORT
  5
8
100
AcDbSymbolTable
 70
2
  0
VPORT
  5
1F4
100
AcDbSymbolTableRecord
100
AcDbViewportTableRecord
  2
*ACTIVE
 70
0
 10
0.0
 20
0.0
 11
1.0
 21
1.0
 12
43.4547140801
 22
61.4573813419
 13
0.0
 23
0.0
 14
1.0
 24
1.0
 15
0.0
 25
0.0
 16
0.0
 26
0.0
 36
1.0
 17
0.0
 27
0.0
 37
0.0
 40
122.9147626838
 41
0.7070707071
 42
50.0
 43
0.0
 44
0.0
 50
0.0
 51
0.0
 71
0
 72
100
 73
1
 74
1
 75
0
 76
0
 77
0
 78
0
  0
ENDTAB
  0
TABLE
  2
LTYPE
  5
5
100
AcDbSymbolTable
 70
6
  0
LTYPE
  5
14
100
AcDbSymbolTableRecord
100
AcDbLinetypeTableRecord
  2
BYBLOCK
 70
0
  3

 72
65
 73
0
 40
0.0
  0
LTYPE
  5
15
100
AcDbSymbolTableRecord
100
AcDbLinetypeTableRecord
  2
BYLAYER
 70
0
  3

 72
65
 73
0
 40
0.0
  0
LTYPE
  5
16
100
AcDbSymbolTableRecord
100
AcDbLinetypeTableRecord
  2
CONTINUOUS
 70
64
  3
Solid line
 72
65
 73
0
 40
0.0
  0
LTYPE
  5
1F5
100
AcDbSymbolTableRecord
100
AcDbLinetypeTableRecord
  2
CENTER
 70
64
  3
____ _ ____ _ ____ _ ____ _ ____ _ ____ _ ____
 72
65
 73
4
 40
0.6
 49
0.375
 74
0
 49
-0.075
 74
0
 49
0.075
 74
0
 49
-0.075
 74
0
  0
LTYPE
  5
1F6
100
AcDbSymbolTableRecord
100
AcDbLinetypeTableRecord
  2
HIDDEN
 70
64
  3
- - - - - - - - - - - - - - - - - - - -
 72
65
 73
2
 40
0.2
 49
0.1
 74
0
 49
-0.1
 74
0
  0
LTYPE
  5
1F7
100
AcDbSymbolTableRecord
100
AcDbLinetypeTableRecord
  2
PHANTOM
 70
64
  3
_____ _ _ _____ _ _ _____ _ _ _____
 72
65
 73
6
 40
0.8
 49
0.45
 74
0
 49
-0.05
 74
0
 49
0.1
 74
0
 49
-0.05
 74
0
 49
0.1
 74
0
 49
-0.05
 74
0
  0
LTYPE
  5
1F8
100
AcDbSymbolTableRecord
100
AcDbLinetypeTableRecord
  2
DOT
 70
64
  3
. . . . . . . . . . . . . . . . . . . .
 72
65
 73
2
 40
0.2
 49
0.1
 74
0
 49
-0.1
 74
0
  0
LTYPE
  5
1F9
100
AcDbSymbolTableRecord
100
AcDbLinetypeTableRecord
  2
DASHED
 70
64
  3
- - - - - - - - - - - - - - - - - - - -
 72
65
 73
2
 40
0.2
 49
0.1
 74
0
 49
-0.1
 74
0
  0
ENDTAB
  0
TABLE
  2
LAYER
  5
2
100
AcDbSymbolTable
 70
36
  0
LAYER
  5
10
100
AcDbSymbolTableRecord
100
AcDbLayerTableRecord
  2
0
 70
0
 62
7
  6
CONTINUOUS
370
-3
390
F
  0
LAYER
  5
1FA
100
AcDbSymbolTableRecord
100
AcDbLayerTableRecord
  2
DEFAULT_1
 70
0
 62
7
  6
CENTER
370
-3
390
F
  0
LAYER
  5
1FB
100
AcDbSymbolTableRecord
100
AcDbLayerTableRecord
  2
DEFAULT_2
 70
0
 62
7
  6
HIDDEN
370
-3
390
F
  0
LAYER
  5
1FC
100
AcDbSymbolTableRecord
100
AcDbLayerTableRecord
  2
DEFAULT_3
 70
0
 62
7
  6
PHANTOM
370
-3
390
F
  0
LAYER
  5
1FD
100
AcDbSymbolTableRecord
100
AcDbLayerTableRecord
  2
00_COMPONENTS
 70
0
 62
7
  6
CONTINUOUS
370
-3
390
F
  0
LAYER
  5
1FE
100
AcDbSymbolTableRecord
100
AcDbLayerTableRecord
  2
00_COMPONENTS_1
 70
0
 62
7
  6
CONTINUOUS
370
-3
390
F
  0
LAYER
  5
1FF
100
AcDbSymbolTableRecord
100
AcDbLayerTableRecord
  2
01_1_DEFAULT_DATUMS
 70
0
 62
7
  6
CONTINUOUS
370
-3
390
F
  0
LAYER
  5
200
100
AcDbSymbolTableRecord
100
AcDbLayerTableRecord
  2
01_PLANES
 70
0
 62
7
  6
CONTINUOUS
370
-3
390
F
  0
LAYER
  5
201
100
AcDbSymbolTableRecord
100
AcDbLayerTableRecord
  2
02_COORD_SYS
 70
0
 62
7
  6
CONTINUOUS
370
-3
390
F
  0
LAYER
  5
202
100
AcDbSymbolTableRecord
100
AcDbLayerTableRecord
  2
03_AXES
 70
0
 62
7
  6
CONTINUOUS
370
-3
390
F
  0
LAYER
  5
203
100
AcDbSymbolTableRecord
100
AcDbLayerTableRecord
  2
03_AXES_1
 70
0
 62
7
  6
CONTINUOUS
370
-3
390
F
  0
LAYER
  5
204
100
AcDbSymbolTableRecord
100
AcDbLayerTableRecord
  2
04_POINTS
 70
0
 62
7
  6
CONTINUOUS
370
-3
390
F
  0
LAYER
  5
205
100
AcDbSymbolTableRecord
100
AcDbLayerTableRecord
  2
05_CURVES
 70
0
 62
7
  6
CONTINUOUS
370
-3
390
F
  0
LAYER
  5
206
100
AcDbSymbolTableRecord
100
AcDbLayerTableRecord
  2
06_SURFS
 70
0
 62
7
  6
CONTINUOUS
370
-3
390
F
  0
LAYER
  5
207
100
AcDbSymbolTableRecord
100
AcDbLayerTableRecord
  2
07_COSMETICS
 70
0
 62
7
  6
CONTINUOUS
370
-3
390
F
  0
LAYER
  5
208
100
AcDbSymbolTableRecord
100
AcDbLayerTableRecord
  2
10_NOTES
 70
0
 62
7
  6
CONTINUOUS
370
-3
390
F
  0
LAYER
  5
209
100
AcDbSymbolTableRecord
100
AcDbLayerTableRecord
  2
11_NOTES_PUB
 70
0
 62
7
  6
CONTINUOUS
370
-3
390
F
  0
LAYER
  5
20A
100
AcDbSymbolTableRecord
100
AcDbLayerTableRecord
  2
13_REF_GTOL
 70
0
 62
7
  6
CONTINUOUS
370
-3
390
F
  0
LAYER
  5
20B
100
AcDbSymbolTableRecord
100
AcDbLayerTableRecord
  2
16_MISC
 70
0
 62
7
  6
CONTINUOUS
370
-3
390
F
  0
LAYER
  5
20C
100
AcDbSymbolTableRecord
100
AcDbLayerTableRecord
  2
17_NO_PRINT
 70
0
 62
7
  6
CONTINUOUS
370
-3
390
F
  0
LAYER
  5
20D
100
AcDbSymbolTableRecord
100
AcDbLayerTableRecord
  2
18_DATUM_CAMS_JOINTS
 70
0
 62
7
  6
CONTINUOUS
370
-3
390
F
  0
LAYER
  5
20E
100
AcDbSymbolTableRecord
100
AcDbLayerTableRecord
  2
19_DATUM_FUNCTIONAL
 70
0
 62
7
  6
CONTINUOUS
370
-3
390
F
  0
LAYER
  5
20F
100
AcDbSymbolTableRecord
100
AcDbLayerTableRecord
  2
20_DATUM_KINEMATIC_SCHEME
 70
0
 62
7
  6
CONTINUOUS
370
-3
390
F
  0
LAYER
  5
210
100
AcDbSymbolTableRecord
100
AcDbLayerTableRecord
  2
INTFCLR_11
 70
0
 62
7
  6
CONTINUOUS
370
-3
390
F
  0
LAYER
  5
211
100
AcDbSymbolTableRecord
100
AcDbLayerTableRecord
  2
INTF_BLANK
 70
0
 62
7
  6
CONTINUOUS
370
-3
390
F
  0
LAYER
  5
212
100
AcDbSymbolTableRecord
100
AcDbLayerTableRecord
  2
INTF_YELLOW
 70
0
 62
7
  6
CONTINUOUS
370
-3
390
F
  0
LAYER
  5
213
100
AcDbSymbolTableRecord
100
AcDbLayerTableRecord
  2
_BLACK_HOLE
 70
0
 62
7
  6
CONTINUOUS
370
-3
390
F
  0
ENDTAB
  0
TABLE
  2
STYLE
  5
3
100
AcDbSymbolTable
 70
1
  0
STYLE
  5
11
100
AcDbSymbolTableRecord
100
AcDbTextStyleTableRecord
  2
STANDARD
 70
0
 40
0.0
 41
1.0
 50
0.0
 71
0
 42
0.2
  3
ARIAL.TTF
  4

  0
STYLE
  5
214
100
AcDbSymbolTableRecord
100
AcDbTextStyleTableRecord
  2
TEXTSTYLE_1
 70
0
 40
0.0
 41
0.8
 50
0.0
 71
0
 42
0.2
  3
gdt
  4

  0
ENDTAB
  0
TABLE
  2
VIEW
  5
6
100
AcDbSymbolTable
 70
0
  0
ENDTAB
  0
TABLE
  2
UCS
  5
7
100
AcDbSymbolTable
 70
0
  0
ENDTAB
  0
TABLE
  2
APPID
  5
9
100
AcDbSymbolTable
 70
1
  0
APPID
  5
215
100
AcDbSymbolTableRecord
100
AcDbRegAppTableRecord
  2
ACAD
 70
0
  0
ENDTAB
  0
TABLE
  2
BLOCK_RECORD
  5
1
100
AcDbSymbolTable
 70
0
  0
BLOCK_RECORD
  5
216
100
AcDbSymbolTableRecord
100
AcDbBlockTableRecord
  2
*Model_Space
  0
BLOCK_RECORD
  5
217
100
AcDbSymbolTableRecord
100
AcDbBlockTableRecord
  2
*Paper_Space
  0
BLOCK_RECORD
  5
218
100
AcDbSymbolTableRecord
100
AcDbBlockTableRecord
  2
_FILLED
  0
ENDTAB
  0
TABLE
  2
DIMSTYLE
  5
A
100
AcDbSymbolTable
 70
1
100
AcDbDimStyleTable
 71
0
  0
DIMSTYLE
105
219
100
AcDbSymbolTableRecord
100
AcDbDimStyleTableRecord
  2
STANDARD
 70
0
  3

  4

 40
1.0
 41
1.0346360495
 42
1.0
 43
0.38
 44
1.0
 45
0.0
 46
0.0
 47
0.01
 48
0.01
140
1.4484904693
141
0.09
142
0.0
143
25.4
144
1.0
145
0.0
146
1.0
147
0.625
 71
1
 72
0
 73
0
 74
0
 75
0
 76
0
 77
1
 78
8
 79
2
170
0
171
1
172
0
173
0
174
0
175
0
176
0
177
0
178
0
270
2
179
2
271
2
272
2
273
2
274
2
275
0
280
0
281
0
282
0
283
1
284
8
285
0
286
0
287
3
288
0
340
11
278
46
341
218
342
218
343
218
344
218
  0
ENDTAB
  0
ENDSEC
  0
SECTION
  2
BLOCKS
  0
BLOCK
  5
20
100
AcDbEntity
  8
0
100
AcDbBlockBegin
  2
*Model_Space
 70
0
 10
0.0
 20
0.0
 30
0.0
  3
*Model_Space
  1

  0
ENDBLK
  5
21
100
AcDbEntity
  8
0
100
AcDbBlockEnd
  0
BLOCK
  5
1C
100
AcDbEntity
  8
0
100
AcDbBlockBegin
  2
*Paper_Space
 70
0
 10
0.0
 20
0.0
 30
0.0
  3
*Paper_Space
  1

  0
ENDBLK
  5
1D
100
AcDbEntity
  8
0
100
AcDbBlockEnd
  0
BLOCK
  5
21A
100
AcDbEntity
  8
0
100
AcDbBlockBegin
  2
_FILLED
 70
64
 10
0.0
 20
0.0
  3
_FILLED
  1

  0
SOLID
  5
21B
100
AcDbEntity
  8
0
  6
BYBLOCK
 62
0
100
AcDbTrace
 10
0.0
 20
0.0
 11
-1.0
 21
0.25
 12
-1.0
 22
-0.25
 13
-1.0
 23
-0.25
  0
ENDBLK
  5
21C
100
AcDbEntity
  8
0
  6
BYBLOCK
 62
0
100
AcDbBlockEnd
  0
ENDSEC
  0
SECTION
  2
ENTITIES
  0
LINE
  5
21D
100
AcDbEntity
  8
00_COMPONENTS_1
100
AcDbLine
 62
7
  6
BYLAYER
 10
17.0120811595
 20
83.3466656291
 11
31.861261741
 21
91.9197928604
  0
LINE
  5
21E
100
AcDbEntity
  8
00_COMPONENTS_1
100
AcDbLine
 62
7
  6
BYLAYER
 10
18.6914667568
 20
82.3770938371
 11
33.5406473383
 21
90.9502210684
  0
LINE
  5
21F
100
AcDbEntity
  8
00_COMPONENTS_1
100
AcDbLine
 62
7
  6
BYLAYER
 10
17.0120811595
 20
80.243956444
 11
16.1635565549
 21
79.7540634593
  0
LINE
  5
220
100
AcDbEntity
  8
00_COMPONENTS_1
100
AcDbLine
 62
7
  6
BYLAYER
 10
48.0539478563
 20
94.0833872255
 11
40.4345960968
 21
91.2357332872
  0
LINE
  5
221
100
AcDbEntity
  8
00_COMPONENTS_1
100
AcDbLine
 62
7
  6
BYLAYER
 10
16.1635565549
 20
65.2206330484
 11
16.1635565549
 21
79.7540634593
  0
LINE
  5
222
100
AcDbEntity
  8
00_COMPONENTS_1
100
AcDbLine
 62
7
  6
BYLAYER
 10
17.0120811595
 20
80.243956444
 11
17.0120811595
 21
83.3466656291
  0
LINE
  5
223
100
AcDbEntity
  8
00_COMPONENTS_1
100
AcDbLine
 62
7
  6
BYLAYER
 10
34.6897223578
 20
89.0620323169
 11
47.0639942411
 21
96.2062788744
  0
LINE
  5
224
100
AcDbEntity
  8
00_COMPONENTS_1
100
AcDbLine
 62
7
  6
BYLAYER
 10
18.6914667568
 20
79.274384652
 11
26.3635433905
 21
83.7038337215
  0
LINE
  5
225
100
AcDbEntity
  8
00_COMPONENTS_1
100
AcDbLine
 62
7
  6
BYLAYER
 10
27.6009751057
 20
84.4182609908
 11
33.5406473383
 21
87.8475118833
  0
LINE
  5
226
100
AcDbEntity
  8
00_COMPONENTS_1
100
AcDbLine
 62
7
  6
BYLAYER
 10
35.3260905624
 20
88.6946332744
 11
34.2654348065
 21
88.0822670436
  0
LINE
  5
227
100
AcDbEntity
  8
00_COMPONENTS_1
100
AcDbLine
 62
7
  6
BYLAYER
 10
40.4345960968
 20
91.2357332872
 11
48.0539478563
 21
95.6347418181
  0
LINE
  5
228
100
AcDbEntity
  8
00_COMPONENTS_1
100
AcDbLine
 62
7
  6
BYLAYER
 10
24.083141317
 20
81.3054038216
 11
18.7798625379
 21
78.2435726676
  0
LINE
  5
229
100
AcDbEntity
  8
00_COMPONENTS_1
100
AcDbLine
 62
7
  6
BYLAYER
 10
35.3260905624
 20
87.308546641
 11
34.9001406482
 21
87.0626258113
  0
LINE
  5
22A
100
AcDbEntity
  8
00_COMPONENTS_1
100
AcDbLine
 62
7
  6
BYLAYER
 10
24.083141317
 20
80.7338521297
 11
18.7798625379
 21
77.6720209756
  0
LINE
  5
22B
100
AcDbEntity
  8
00_COMPONENTS_1
100
AcDbLine
 62
7
  6
BYLAYER
 10
39.6395923642
 20
33.7756695583
 11
38.7557125677
 21
34.12920951
  0
LINE
  5
22C
100
AcDbEntity
  8
00_COMPONENTS_1
100
AcDbLine
 62
7
  6
BYLAYER
 10
38.0486028426
 20
34.5374502645
 11
36.7985623784
 21
35.0374495258
  0
LINE
  5
22D
100
AcDbEntity
  8
00_COMPONENTS_1
100
AcDbLine
 62
7
  6
BYLAYER
 10
37.2553835935
 20
35.9244292366
 11
38.763977691
 21
35.3210120225
  0
LINE
  5
22E
100
AcDbEntity
  8
00_COMPONENTS_1
100
AcDbLine
 62
7
  6
BYLAYER
 10
48.124909066
 20
27.0084588251
 11
46.4455234688
 21
27.9780306171
  0
LINE
  5
22F
100
AcDbEntity
  8
00_COMPONENTS_1
100
AcDbLine
 62
7
  6
BYLAYER
 10
40.7532901814
 20
31.264368691
 11
39.6219146211
 21
31.9175538982
  0
LINE
  5
230
100
AcDbEntity
  8
00_COMPONENTS_1
100
AcDbLine
 62
7
  6
BYLAYER
 10
36.7985623784
 20
35.0374495258
 11
34.1416289334
 21
36.5713960629
  0
LINE
  5
231
100
AcDbEntity
  8
00_COMPONENTS_1
100
AcDbLine
 62
7
  6
BYLAYER
 10
38.7557125677
 20
34.12920951
 11
38.0486028426
 21
34.5374502645
  0
LINE
  5
232
100
AcDbEntity
  8
00_COMPONENTS_1
100
AcDbLine
 62
7
  6
BYLAYER
 10
38.7557125677
 20
34.4997518721
 11
38.0486028426
 21
34.9079926266
  0
LINE
  5
233
100
AcDbEntity
  8
00_COMPONENTS_1
100
AcDbLine
 62
7
  6
BYLAYER
 10
47.2763844614
 20
29.6212750255
 11
44.6600784783
 21
31.1317658173
  0
LINE
  5
234
100
AcDbEntity
  8
00_COMPONENTS_1
100
AcDbLine
 62
7
  6
BYLAYER
 10
40.8416859625
 20
33.3362658917
 11
38.7733900165
 21
34.5303700986
  0
LINE
  5
235
100
AcDbEntity
  8
00_COMPONENTS_1
100
AcDbLine
 62
7
  6
BYLAYER
 10
37.2553835935
 20
35.9244292366
 11
35.1381955827
 21
37.1467606517
  0
LINE
  5
236
100
AcDbEntity
  8
00_COMPONENTS_1
100
AcDbLine
 62
7
  6
BYLAYER
 10
40.8416859625
 20
33.9078175837
 11
44.6600784783
 21
31.7033175093
  0
LINE
  5
237
100
AcDbEntity
  8
00_COMPONENTS_1
100
AcDbLine
 62
7
  6
BYLAYER
 10
18.6914667568
 20
82.3770938371
 11
18.6914667568
 21
79.274384652
  0
LINE
  5
238
100
AcDbEntity
  8
00_COMPONENTS_1
100
AcDbLine
 62
7
  6
BYLAYER
 10
18.7798625379
 20
77.6720209756
 11
18.7798625379
 21
78.2435726676
  0
LINE
  5
239
100
AcDbEntity
  8
00_COMPONENTS_1
100
AcDbLine
 62
7
  6
BYLAYER
 10
21.7639470082
 20
60.9812379971
 11
21.7639470082
 21
61.7978539672
  0
LINE
  5
23A
100
AcDbEntity
  8
00_COMPONENTS_1
100
AcDbLine
 62
7
  6
BYLAYER
 10
24.3837000442
 20
79.0907557632
 11
39.2328806257
 21
87.6638829945
  0
LINE
  5
23B
100
AcDbEntity
  8
00_COMPONENTS_1
100
AcDbLine
 62
7
  6
BYLAYER
 10
25.5150756044
 20
78.437570556
 11
40.3642561859
 21
87.0106977873
  0
LINE
  5
23C
100
AcDbEntity
  8
00_COMPONENTS_1
100
AcDbLine
 62
7
  6
BYLAYER
 10
24.3837000442
 20
77.0698935859
 11
22.5982550537
 21
76.0390725932
  0
LINE
  5
23D
100
AcDbEntity
  8
00_COMPONENTS_1
100
AcDbLine
 62
7
  6
BYLAYER
 10
38.763977691
 20
35.3210120225
 11
35.3699042434
 21
37.2805369108
  0
LINE
  5
23E
100
AcDbEntity
  8
00_COMPONENTS_1
100
AcDbLine
 62
7
  6
BYLAYER
 10
38.7733900165
 20
35.5101479095
 11
35.5384091915
 21
37.3778227072
  0
LINE
  5
23F
100
AcDbEntity
  8
00_COMPONENTS_1
100
AcDbLine
 62
7
  6
BYLAYER
 10
35.8919918923
 20
37.5819625561
 11
38.7733900165
 21
35.9184242078
  0
LINE
  5
240
100
AcDbEntity
  8
00_COMPONENTS_1
100
AcDbLine
 62
7
  6
BYLAYER
 10
22.1175018707
 20
61.59373359
 11
22.1175018707
 21
59.5521609008
  0
LINE
  5
241
100
AcDbEntity
  8
00_COMPONENTS_1
100
AcDbLine
 62
7
  6
BYLAYER
 10
22.2094253696
 20
61.64680533
 11
22.2094253696
 21
59.6052326408
  0
LINE
  5
242
100
AcDbEntity
  8
00_COMPONENTS_1
100
AcDbLine
 62
7
  6
BYLAYER
 10
22.5982550537
 20
76.0390725932
 11
22.5982550537
 21
75.4675209012
  0
LINE
  5
243
100
AcDbEntity
  8
00_COMPONENTS_1
100
AcDbLine
 62
7
  6
BYLAYER
 10
24.083141317
 20
80.7338521297
 11
24.083141317
 21
81.3054038216
  0
LINE
  5
244
100
AcDbEntity
  8
00_COMPONENTS_1
100
AcDbLine
 62
7
  6
BYLAYER
 10
24.3837000442
 20
79.0907557632
 11
24.3837000442
 21
75.9880465781
  0
LINE
  5
245
100
AcDbEntity
  8
00_COMPONENTS_1
100
AcDbLine
 62
7
  6
BYLAYER
 10
25.5150756044
 20
75.3348613709
 11
40.3642561859
 21
83.9079886022
  0
LINE
  5
246
100
AcDbEntity
  8
00_COMPONENTS_1
100
AcDbLine
 62
7
  6
BYLAYER
 10
52.6501896263
 20
88.1681318343
 11
54.7361459461
 21
88.9477364407
  0
LINE
  5
247
100
AcDbEntity
  8
00_COMPONENTS_1
100
AcDbLine
 62
7
  6
BYLAYER
 10
56.3271428276
 20
88.029194743
 11
57.6706401183
 21
88.5313129641
  0
LINE
  5
248
100
AcDbEntity
  8
00_COMPONENTS_1
100
AcDbLine
 62
7
  6
BYLAYER
 10
41.7188733754
 20
39.8927043163
 11
39.738966145
 21
41.035778429
  0
LINE
  5
249
100
AcDbEntity
  8
00_COMPONENTS_1
100
AcDbLine
 62
7
  6
BYLAYER
 10
25.5150756044
 20
78.437570556
 11
25.5150756044
 21
75.3348613709
  0
LINE
  5
24A
100
AcDbEntity
  8
00_COMPONENTS_1
100
AcDbLine
 62
7
  6
BYLAYER
 10
27.6009751057
 20
82.9894183499
 11
27.6009751057
 21
84.4182609908
  0
LINE
  5
24B
100
AcDbEntity
  8
00_COMPONENTS_1
100
AcDbLine
 62
7
  6
BYLAYER
 10
34.477661931
 20
77.3455435344
 11
30.0936181403
 21
74.8144297804
  0
LINE
  5
24C
100
AcDbEntity
  8
00_COMPONENTS_1
100
AcDbLine
 62
7
  6
BYLAYER
 10
23.2700083378
 20
69.3235204073
 11
13.5826857679
 21
63.7305754992
  0
LINE
  5
24D
100
AcDbEntity
  8
00_COMPONENTS_1
100
AcDbLine
 62
7
  6
BYLAYER
 10
58.9081056891
 20
89.694917238
 11
60.1101822123
 21
90.3889322996
  0
LINE
  5
24E
100
AcDbEntity
  8
00_COMPONENTS_1
100
AcDbLine
 62
7
  6
BYLAYER
 10
58.9081056891
 20
87.3125136686
 11
56.0089608207
 21
86.2289882503
  0
LINE
  5
24F
100
AcDbEntity
  8
00_COMPONENTS_1
100
AcDbLine
 62
7
  6
BYLAYER
 10
56.368967321
 20
85.4892665436
 11
57.9515321326
 21
86.0807337787
  0
LINE
  5
250
100
AcDbEntity
  8
00_COMPONENTS_1
100
AcDbLine
 62
7
  6
BYLAYER
 10
32.3471329937
 20
47.0056698836
 11
31.6828905893
 21
47.1078710375
  0
LINE
  5
251
100
AcDbEntity
  8
00_COMPONENTS_1
100
AcDbLine
 62
7
  6
BYLAYER
 10
30.5710717118
 20
47.7137767413
 11
32.2307538796
 21
47.4584160004
  0
LINE
  5
252
100
AcDbEntity
  8
00_COMPONENTS_1
100
AcDbLine
 62
7
  6
BYLAYER
 10
46.2157198736
 20
41.9504458431
 11
45.7493598154
 21
42.2196928571
  0
LINE
  5
253
100
AcDbEntity
  8
00_COMPONENTS_1
100
AcDbLine
 62
7
  6
BYLAYER
 10
30.0936181403
 20
71.7117205953
 11
30.0936181403
 21
74.8144297804
  0
LINE
  5
254
100
AcDbEntity
  8
00_COMPONENTS_1
100
AcDbLine
 62
7
  6
BYLAYER
 10
15.839384112
 20
63.4168947771
 11
14.2826826341
 21
62.5181381246
  0
LINE
  5
255
100
AcDbEntity
  8
00_COMPONENTS_1
100
AcDbLine
 62
7
  6
BYLAYER
 10
37.7303666667
 20
75.4676360636
 11
33.346322876
 21
72.9365223096
  0
LINE
  5
256
100
AcDbEntity
  8
00_COMPONENTS_1
100
AcDbLine
 62
7
  6
BYLAYER
 10
60.6758800019
 20
88.6743153517
 11
61.8779565252
 21
89.3683304133
  0
LINE
  5
257
100
AcDbEntity
  8
00_COMPONENTS_1
100
AcDbLine
 62
7
  6
BYLAYER
 10
57.6706636701
 20
85.9185752642
 11
58.9081056891
 21
86.6330084824
  0
LINE
  5
258
100
AcDbEntity
  8
00_COMPONENTS_1
100
AcDbLine
 62
7
  6
BYLAYER
 10
58.2009959639
 20
85.6123946983
 11
58.9081117986
 21
86.0206457789
  0
LINE
  5
259
100
AcDbEntity
  8
00_COMPONENTS_1
100
AcDbLine
 62
7
  6
BYLAYER
 10
33.346322876
 20
69.8338131245
 11
37.7303666667
 21
72.3649268785
  0
LINE
  5
25A
100
AcDbEntity
  8
00_COMPONENTS_1
100
AcDbLine
 62
7
  6
BYLAYER
 10
64.5296044523
 20
84.5713776452
 11
63.5189166165
 21
84.1936435168
  0
LINE
  5
25B
100
AcDbEntity
  8
00_COMPONENTS_1
100
AcDbLine
 62
7
  6
BYLAYER
 10
63.8724714791
 20
83.9895231395
 11
60.8944695619
 21
82.8765257146
  0
LINE
  5
25C
100
AcDbEntity
  8
00_COMPONENTS_1
100
AcDbLine
 62
7
  6
BYLAYER
 10
62.372948347
 20
82.5548214597
 11
65.8024019575
 21
83.8365442871
  0
LINE
  5
25D
100
AcDbEntity
  8
00_COMPONENTS_1
100
AcDbLine
 62
7
  6
BYLAYER
 10
31.295421902
 20
48.4872268344
 11
30.342609803
 21
48.497377728
  0
LINE
  5
25E
100
AcDbEntity
  8
00_COMPONENTS_1
100
AcDbLine
 62
7
  6
BYLAYER
 10
30.1929515272
 20
48.9537365416
 11
31.1451315758
 21
48.9435923816
  0
LINE
  5
25F
100
AcDbEntity
  8
00_COMPONENTS_1
100
AcDbLine
 62
7
  6
BYLAYER
 10
31.2370550746
 20
48.9966641216
 11
30.284875026
 21
49.0068082816
  0
LINE
  5
260
100
AcDbEntity
  8
00_COMPONENTS_1
100
AcDbLine
 62
7
  6
BYLAYER
 10
32.3226773784
 20
47.5114877404
 11
30.6629952106
 21
47.7668484813
  0
LINE
  5
261
100
AcDbEntity
  8
00_COMPONENTS_1
100
AcDbLine
 62
7
  6
BYLAYER
 10
46.2157198736
 20
43.5834088613
 11
45.9614963987
 21
43.7301815325
  0
LINE
  5
262
100
AcDbEntity
  8
00_COMPONENTS_1
100
AcDbLine
 62
7
  6
BYLAYER
 10
39.738966145
 20
49.282452842
 11
41.7188733754
 21
48.1393787293
  0
LINE
  5
263
100
AcDbEntity
  8
00_COMPONENTS_1
100
AcDbLine
 62
7
  6
BYLAYER
 10
33.346322876
 20
69.8338131245
 11
33.346322876
 21
72.9365223096
  0
LINE
  5
264
100
AcDbEntity
  8
00_COMPONENTS_1
100
AcDbLine
 62
7
  6
BYLAYER
 10
33.5406473383
 20
90.9502210684
 11
33.5406473383
 21
87.8475118833
  0
LINE
  5
265
100
AcDbEntity
  8
00_COMPONENTS_1
100
AcDbLine
 62
7
  6
BYLAYER
 10
34.2654348065
 20
87.4290651099
 11
34.2654348065
 21
88.0822670436
  0
LINE
  5
266
100
AcDbEntity
  8
00_COMPONENTS_1
100
AcDbLine
 62
7
  6
BYLAYER
 10
60.6758800019
 20
85.0000544746
 11
63.3628745834
 21
86.5513822593
  0
LINE
  5
267
100
AcDbEntity
  8
00_COMPONENTS_1
100
AcDbLine
 62
7
  6
BYLAYER
 10
21.7639470082
 20
61.7978539672
 11
21.855870507
 21
61.8509257072
  0
LINE
  5
268
100
AcDbEntity
  8
00_COMPONENTS_1
100
AcDbLine
 62
7
  6
BYLAYER
 10
22.2094253696
 20
61.64680533
 11
22.1175018707
 21
61.59373359
  0
LINE
  5
269
100
AcDbEntity
  8
00_COMPONENTS_1
100
AcDbLine
 62
7
  6
BYLAYER
 10
64.0699843085
 20
85.3266390877
 11
61.3829897271
 21
83.775311303
  0
LINE
  5
26A
100
AcDbEntity
  8
00_COMPONENTS_1
100
AcDbLine
 62
7
  6
BYLAYER
 10
64.2467617398
 20
85.224578899
 11
62.9739748328
 21
84.4897394221
  0
LINE
  5
26B
100
AcDbEntity
  8
00_COMPONENTS_1
100
AcDbLine
 62
7
  6
BYLAYER
 10
63.3275296954
 20
84.2856190448
 11
61.913322021
 21
83.4691307371
  0
LINE
  5
26C
100
AcDbEntity
  8
00_COMPONENTS_1
100
AcDbLine
 62
7
  6
BYLAYER
 10
39.6219146211
 20
70.2931675033
 11
54.4710952026
 21
78.8662947346
  0
LINE
  5
26D
100
AcDbEntity
  8
00_COMPONENTS_1
100
AcDbLine
 62
7
  6
BYLAYER
 10
67.5701762704
 20
82.8159424008
 11
66.2266789797
 21
82.3138241797
  0
LINE
  5
26E
100
AcDbEntity
  8
00_COMPONENTS_1
100
AcDbLine
 62
7
  6
BYLAYER
 10
67.8176758613
 20
81.3952824821
 11
65.7317195415
 21
80.6156778757
  0
LINE
  5
26F
100
AcDbEntity
  8
00_COMPONENTS_1
100
AcDbLine
 62
7
  6
BYLAYER
 10
30.8961071929
 20
49.6364607721
 11
29.9696882873
 21
49.5749288917
  0
LINE
  5
270
100
AcDbEntity
  8
00_COMPONENTS_1
100
AcDbLine
 62
7
  6
BYLAYER
 10
29.7915856388
 20
50.0305096299
 11
30.7186194946
 21
50.0920823548
  0
LINE
  5
271
100
AcDbEntity
  8
00_COMPONENTS_1
100
AcDbLine
 62
7
  6
BYLAYER
 10
30.8105429935
 20
50.1451540948
 11
29.8835091376
 21
50.0835813699
  0
LINE
  5
272
100
AcDbEntity
  8
00_COMPONENTS_1
100
AcDbLine
 62
7
  6
BYLAYER
 10
35.3260905624
 20
87.308546641
 11
35.3260905624
 21
88.6946332744
  0
LINE
  5
273
100
AcDbEntity
  8
00_COMPONENTS_1
100
AcDbLine
 62
7
  6
BYLAYER
 10
37.7303666667
 20
72.3649268785
 11
37.7303666667
 21
75.4676360636
  0
LINE
  5
274
100
AcDbEntity
  8
00_COMPONENTS_1
100
AcDbLine
 62
7
  6
BYLAYER
 10
38.0486028426
 20
34.5374502645
 11
38.0486028426
 21
34.9079926266
  0
LINE
  5
275
100
AcDbEntity
  8
00_COMPONENTS_1
100
AcDbLine
 62
7
  6
BYLAYER
 10
22.1175018707
 20
59.5521609008
 11
22.2094253696
 21
59.6052326408
  0
LINE
  5
276
100
AcDbEntity
  8
00_COMPONENTS_1
100
AcDbLine
 62
7
  6
BYLAYER
 10
40.7532901814
 20
69.6399822961
 11
55.6024707628
 21
78.2131095274
  0
LINE
  5
277
100
AcDbEntity
  8
00_COMPONENTS_1
100
AcDbLine
 62
7
  6
BYLAYER
 10
30.4268872889
 20
50.7866825089
 11
29.5490083735
 21
50.6061621729
  0
LINE
  5
278
100
AcDbEntity
  8
00_COMPONENTS_1
100
AcDbLine
 62
7
  6
BYLAYER
 10
29.3449578791
 20
51.0574571397
 11
30.2234195244
 21
51.2380973038
  0
LINE
  5
279
100
AcDbEntity
  8
00_COMPONENTS_1
100
AcDbLine
 62
7
  6
BYLAYER
 10
30.3153430232
 20
51.2911690438
 11
29.436881378
 21
51.1105288797
  0
LINE
  5
27A
100
AcDbEntity
  8
00_COMPONENTS_1
100
AcDbLine
 62
7
  6
BYLAYER
 10
43.9815891683
 20
51.7319177652
 11
45.9614963987
 21
50.5888436525
  0
LINE
  5
27B
100
AcDbEntity
  8
00_COMPONENTS_1
100
AcDbLine
 62
7
  6
BYLAYER
 10
43.9529687532
 20
51.9933921209
 11
46.2157198736
 21
50.6870217064
  0
LINE
  5
27C
100
AcDbEntity
  8
00_COMPONENTS_1
100
AcDbLine
 62
7
  6
BYLAYER
 10
38.7557125677
 20
34.12920951
 11
38.7557125677
 21
34.4997518721
  0
LINE
  5
27D
100
AcDbEntity
  8
00_COMPONENTS_1
100
AcDbLine
 62
7
  6
BYLAYER
 10
38.7733900165
 20
35.9184242078
 11
38.7733900165
 21
34.5303700986
  0
LINE
  5
27E
100
AcDbEntity
  8
00_COMPONENTS_1
100
AcDbLine
 62
7
  6
BYLAYER
 10
39.6219146211
 20
70.2931675033
 11
39.6219146211
 21
67.1904583182
  0
LINE
  5
27F
100
AcDbEntity
  8
00_COMPONENTS_1
100
AcDbLine
 62
7
  6
BYLAYER
 10
39.6219146211
 20
31.9175538982
 11
39.6219146211
 21
33.7756695583
  0
LINE
  5
280
100
AcDbEntity
  8
00_COMPONENTS_1
100
AcDbLine
 62
7
  6
BYLAYER
 10
39.6395923642
 20
34.0302792535
 11
39.6395923642
 21
33.7756695583
  0
LINE
  5
281
100
AcDbEntity
  8
00_COMPONENTS_1
100
AcDbLine
 62
7
  6
BYLAYER
 10
39.738966145
 20
41.035778429
 11
39.738966145
 21
42.0972315712
  0
LINE
  5
282
100
AcDbEntity
  8
00_COMPONENTS_1
100
AcDbLine
 62
7
  6
BYLAYER
 10
39.738966145
 20
48.2209996997
 11
39.738966145
 21
49.282452842
  0
LINE
  5
283
100
AcDbEntity
  8
00_COMPONENTS_1
100
AcDbLine
 62
7
  6
BYLAYER
 10
40.0925210076
 20
42.3013624025
 11
40.0925210076
 21
47.6086281139
  0
LINE
  5
284
100
AcDbEntity
  8
00_COMPONENTS_1
100
AcDbLine
 62
7
  6
BYLAYER
 10
40.3642561859
 20
87.0106977873
 11
40.3642561859
 21
83.9079886022
  0
LINE
  5
285
100
AcDbEntity
  8
00_COMPONENTS_1
100
AcDbLine
 62
7
  6
BYLAYER
 10
40.4507285454
 20
84.3499024555
 11
40.4507285454
 21
85.9594179235
  0
LINE
  5
286
100
AcDbEntity
  8
00_COMPONENTS_1
100
AcDbLine
 62
7
  6
BYLAYER
 10
40.7532901814
 20
69.6399822961
 11
40.7532901814
 21
66.537273111
  0
LINE
  5
287
100
AcDbEntity
  8
00_COMPONENTS_1
100
AcDbLine
 62
7
  6
BYLAYER
 10
40.7532901814
 20
31.264368691
 11
40.7532901814
 21
33.3873000652
  0
LINE
  5
288
100
AcDbEntity
  8
00_COMPONENTS_1
100
AcDbLine
 62
7
  6
BYLAYER
 10
40.8416859625
 20
33.3362658917
 11
40.8416859625
 21
33.9078175837
  0
LINE
  5
289
100
AcDbEntity
  8
00_COMPONENTS_1
100
AcDbLine
 62
7
  6
BYLAYER
 10
40.8416859625
 20
64.9349094346
 11
40.8416859625
 21
65.5064611266
  0
LINE
  5
28A
100
AcDbEntity
  8
00_COMPONENTS_1
100
AcDbLine
 62
7
  6
BYLAYER
 10
40.7532901814
 20
66.537273111
 11
48.4253668151
 21
70.9667221805
  0
LINE
  5
28B
100
AcDbEntity
  8
00_COMPONENTS_1
100
AcDbLine
 62
7
  6
BYLAYER
 10
49.6627985302
 20
71.6811494497
 11
55.6024707628
 21
75.1104003423
  0
LINE
  5
28C
100
AcDbEntity
  8
00_COMPONENTS_1
100
AcDbLine
 62
7
  6
BYLAYER
 10
46.1449647416
 20
68.5682922806
 11
40.8416859625
 21
65.5064611266
  0
LINE
  5
28D
100
AcDbEntity
  8
00_COMPONENTS_1
100
AcDbLine
 62
7
  6
BYLAYER
 10
46.1449647416
 20
67.9967405886
 11
40.8416859625
 21
64.9349094346
  0
LINE
  5
28E
100
AcDbEntity
  8
00_COMPONENTS_1
100
AcDbLine
 62
7
  6
BYLAYER
 10
46.4455234688
 20
66.3536442222
 11
61.2947040503
 21
74.9267714535
  0
LINE
  5
28F
100
AcDbEntity
  8
00_COMPONENTS_1
100
AcDbLine
 62
7
  6
BYLAYER
 10
41.7188733754
 20
48.1393787293
 11
41.7188733754
 21
39.8927043163
  0
LINE
  5
290
100
AcDbEntity
  8
00_COMPONENTS_1
100
AcDbLine
 62
7
  6
BYLAYER
 10
43.9529687532
 20
51.7153938595
 11
43.9529687532
 21
51.9933921209
  0
LINE
  5
291
100
AcDbEntity
  8
00_COMPONENTS_1
100
AcDbLine
 62
7
  6
BYLAYER
 10
48.124909066
 20
65.3840724302
 11
62.9740896475
 21
73.9571996615
  0
LINE
  5
292
100
AcDbEntity
  8
00_COMPONENTS_1
100
AcDbLine
 62
7
  6
BYLAYER
 10
46.4455234688
 20
64.3327820449
 11
44.6600784783
 21
63.3019610522
  0
LWPOLYLINE
  5
293
100
AcDbEntity
  8
00_COMPONENTS_1
100
AcDbPolyline
 62
7
  6
BYLAYER
 90
9
 70
0
 10
43.2248157549
 20
51.2949970393
 10
43.0862866588
 20
52.3858475095
 10
41.394618598
 20
57.2021416352
 10
38.7330836502
 20
61.8114918583
 10
35.3859565266
 20
65.7046930797
 10
31.6920277433
 20
68.5026437064
 10
28.0099128112
 20
69.9466469516
 10
24.6900068153
 20
69.9049547647
 10
23.2700117339
 20
69.3235145255
  0
LINE
  5
294
100
AcDbEntity
  8
00_COMPONENTS_1
100
AcDbLine
 62
7
  6
BYLAYER
 10
44.6600784783
 20
63.3019610522
 11
44.6600784783
 21
62.7304093602
  0
LINE
  5
295
100
AcDbEntity
  8
00_COMPONENTS_1
100
AcDbLine
 62
7
  6
BYLAYER
 10
44.6600784783
 20
31.7033175093
 11
44.6600784783
 21
31.1317658173
  0
LINE
  5
296
100
AcDbEntity
  8
00_COMPONENTS_1
100
AcDbLine
 62
7
  6
BYLAYER
 10
45.0507285454
 20
84.3264130893
 11
45.0507285454
 21
85.9594179235
  0
LINE
  5
297
100
AcDbEntity
  8
00_COMPONENTS_1
100
AcDbLine
 62
7
  6
BYLAYER
 10
45.7207312902
 20
50.7278463081
 11
45.7207312902
 21
50.9727970332
  0
LINE
  5
298
100
AcDbEntity
  8
00_COMPONENTS_1
100
AcDbLine
 62
7
  6
BYLAYER
 10
45.9614963987
 20
50.5888436525
 11
45.9614963987
 21
42.3421692395
  0
LINE
  5
299
100
AcDbEntity
  8
00_COMPONENTS_1
100
AcDbLine
 62
7
  6
BYLAYER
 10
46.1449647416
 20
67.9967405886
 11
46.1449647416
 21
68.5682922806
  0
LINE
  5
29A
100
AcDbEntity
  8
00_COMPONENTS_1
100
AcDbLine
 62
7
  6
BYLAYER
 10
46.2157198736
 20
50.6870217064
 11
46.2157198736
 21
41.9504458431
  0
LINE
  5
29B
100
AcDbEntity
  8
00_COMPONENTS_1
100
AcDbLine
 62
7
  6
BYLAYER
 10
46.4455234688
 20
66.3536442222
 11
46.4455234688
 21
63.2509350371
  0
LINE
  5
29C
100
AcDbEntity
  8
00_COMPONENTS_1
100
AcDbLine
 62
7
  6
BYLAYER
 10
46.4455234688
 20
27.9780306171
 11
46.4455234688
 21
30.1009619913
  0
LINE
  5
29D
100
AcDbEntity
  8
00_COMPONENTS_1
100
AcDbLine
 62
7
  6
BYLAYER
 10
47.2763844614
 20
61.7914702604
 11
47.2763844614
 21
29.6212750255
  0
LINE
  5
29E
100
AcDbEntity
  8
00_COMPONENTS_1
100
AcDbLine
 62
7
  6
BYLAYER
 10
64.0347454033
 20
72.1200586409
 11
62.9740896475
 21
71.5076924101
  0
LINE
  5
29F
100
AcDbEntity
  8
00_COMPONENTS_1
100
AcDbLine
 62
7
  6
BYLAYER
 10
48.124909066
 20
62.2813632451
 11
47.2763844614
 21
61.7914702604
  0
LINE
  5
2A0
100
AcDbEntity
  8
00_COMPONENTS_1
100
AcDbLine
 62
7
  6
BYLAYER
 10
69.5675167729
 20
74.416214201
 11
77.1868685324
 21
78.8152227318
  0
LINE
  5
2A1
100
AcDbEntity
  8
00_COMPONENTS_1
100
AcDbLine
 62
7
  6
BYLAYER
 10
29.4368813779
 20
51.1105288797
 11
29.3449578791
 21
51.0574571397
  0
LINE
  5
2A2
100
AcDbEntity
  8
00_COMPONENTS_1
100
AcDbLine
 62
7
  6
BYLAYER
 10
30.2234195244
 20
51.2380973038
 11
30.3153430233
 21
51.2911690438
  0
LINE
  5
2A3
100
AcDbEntity
  8
00_COMPONENTS_1
100
AcDbLine
 62
7
  6
BYLAYER
 10
30.5188107878
 20
50.8397542489
 11
30.4268872889
 21
50.7866825089
  0
LINE
  5
2A4
100
AcDbEntity
  8
00_COMPONENTS_1
100
AcDbLine
 62
7
  6
BYLAYER
 10
64.0347454033
 20
70.0788025981
 11
78.1768221476
 21
78.2436856755
  0
LINE
  5
2A5
100
AcDbEntity
  8
00_COMPONENTS_1
100
AcDbLine
 62
7
  6
BYLAYER
 10
29.8835091376
 20
50.0835813699
 11
29.7915856388
 21
50.0305096299
  0
LINE
  5
2A6
100
AcDbEntity
  8
00_COMPONENTS_1
100
AcDbLine
 62
7
  6
BYLAYER
 10
30.7186194946
 20
50.0920823548
 11
30.8105429935
 21
50.1451540948
  0
LINE
  5
2A7
100
AcDbEntity
  8
00_COMPONENTS_1
100
AcDbLine
 62
7
  6
BYLAYER
 10
44.6600784783
 20
62.7304093602
 11
40.8416859625
 21
64.9349094346
  0
LINE
  5
2A8
100
AcDbEntity
  8
00_COMPONENTS_1
100
AcDbLine
 62
7
  6
BYLAYER
 10
22.5982550537
 20
75.4675209012
 11
18.7798625379
 21
77.6720209756
  0
LINE
  5
2A9
100
AcDbEntity
  8
00_COMPONENTS_1
100
AcDbLine
 62
7
  6
BYLAYER
 10
16.1635565549
 20
79.7540634593
 11
18.7798625379
 21
78.2435726676
  0
LINE
  5
2AA
100
AcDbEntity
  8
00_COMPONENTS_1
100
AcDbLine
 62
7
  6
BYLAYER
 10
22.5982550537
 20
76.0390725932
 11
30.0936181403
 21
71.7117205953
  0
LINE
  5
2AB
100
AcDbEntity
  8
00_COMPONENTS_1
100
AcDbLine
 62
7
  6
BYLAYER
 10
33.346322876
 20
69.8338131245
 11
40.8416859625
 21
65.5064611266
  0
LINE
  5
2AC
100
AcDbEntity
  8
00_COMPONENTS_1
100
AcDbLine
 62
7
  6
BYLAYER
 10
44.6600784783
 20
63.3019610522
 11
47.2763844614
 21
61.7914702604
  0
LINE
  5
2AD
100
AcDbEntity
  8
00_COMPONENTS_1
100
AcDbLine
 62
7
  6
BYLAYER
 10
48.124909066
 20
62.2813632451
 11
46.4455234688
 21
63.2509350371
  0
LINE
  5
2AE
100
AcDbEntity
  8
00_COMPONENTS_1
100
AcDbLine
 62
7
  6
BYLAYER
 10
40.7532901814
 20
66.537273111
 11
39.6219146211
 21
67.1904583182
  0
LINE
  5
2AF
100
AcDbEntity
  8
00_COMPONENTS_1
100
AcDbLine
 62
7
  6
BYLAYER
 10
25.5150756044
 20
75.3348613709
 11
24.3837000442
 21
75.9880465781
  0
LINE
  5
2B0
100
AcDbEntity
  8
00_COMPONENTS_1
100
AcDbLine
 62
7
  6
BYLAYER
 10
18.6914667568
 20
79.274384652
 11
17.0120811595
 21
80.243956444
  0
LINE
  5
2B1
100
AcDbEntity
  8
00_COMPONENTS_1
100
AcDbLine
 62
7
  6
BYLAYER
 10
48.0539478563
 20
95.6347418181
 11
48.0539478563
 21
94.0833872255
  0
LINE
  5
2B2
100
AcDbEntity
  8
00_COMPONENTS_1
100
AcDbLine
 62
7
  6
BYLAYER
 10
48.124909066
 20
30.1111680102
 11
48.124909066
 21
27.0084588251
  0
LINE
  5
2B3
100
AcDbEntity
  8
00_COMPONENTS_1
100
AcDbLine
 62
7
  6
BYLAYER
 10
48.124909066
 20
62.2813632451
 11
48.124909066
 21
65.3840724302
  0
LINE
  5
2B4
100
AcDbEntity
  8
00_COMPONENTS_1
100
AcDbLine
 62
7
  6
BYLAYER
 10
49.6627985302
 20
70.2523068089
 11
49.6627985302
 21
71.6811494497
  0
LINE
  5
2B5
100
AcDbEntity
  8
00_COMPONENTS_1
100
AcDbLine
 62
7
  6
BYLAYER
 10
36.7985623784
 20
35.0374495258
 11
37.2553835935
 21
35.9244292366
  0
LINE
  5
2B6
100
AcDbEntity
  8
00_COMPONENTS_1
100
AcDbLine
 62
7
  6
BYLAYER
 10
30.9880306917
 20
49.6895325121
 11
30.8961071929
 21
49.6364607721
  0
LINE
  5
2B7
100
AcDbEntity
  8
00_COMPONENTS_1
100
AcDbLine
 62
7
  6
BYLAYER
 10
30.284875026
 20
49.0068082816
 11
30.1929515272
 21
48.9537365416
  0
LINE
  5
2B8
100
AcDbEntity
  8
00_COMPONENTS_1
100
AcDbLine
 62
7
  6
BYLAYER
 10
31.1451315758
 20
48.9435923816
 11
31.2370550746
 21
48.9966641216
  0
LINE
  5
2B9
100
AcDbEntity
  8
00_COMPONENTS_1
100
AcDbLine
 62
7
  6
BYLAYER
 10
31.3873454008
 20
48.5402985744
 11
31.295421902
 21
48.4872268344
  0
LINE
  5
2BA
100
AcDbEntity
  8
00_COMPONENTS_1
100
AcDbLine
 62
7
  6
BYLAYER
 10
30.6629952106
 20
47.7668484814
 11
30.5710717118
 21
47.7137767413
  0
LINE
  5
2BB
100
AcDbEntity
  8
00_COMPONENTS_1
100
AcDbLine
 62
7
  6
BYLAYER
 10
32.2307538796
 20
47.4584160004
 11
32.3226773784
 21
47.5114877404
  0
LINE
  5
2BC
100
AcDbEntity
  8
00_COMPONENTS_1
100
AcDbLine
 62
7
  6
BYLAYER
 10
32.4390564925
 20
47.0587416236
 11
32.3471329937
 21
47.0056698836
  0
LINE
  5
2BD
100
AcDbEntity
  8
00_COMPONENTS_1
100
AcDbLine
 62
7
  6
BYLAYER
 10
30.0936181403
 20
74.8144297804
 11
33.346322876
 21
72.9365223096
  0
LINE
  5
2BE
100
AcDbEntity
  8
00_COMPONENTS_1
100
AcDbLine
 62
7
  6
BYLAYER
 10
17.0120811595
 20
83.3466656291
 11
18.6914667568
 21
82.3770938371
  0
LINE
  5
2BF
100
AcDbEntity
  8
00_COMPONENTS_1
100
AcDbLine
 62
7
  6
BYLAYER
 10
24.3837000442
 20
79.0907557632
 11
25.5150756044
 21
78.437570556
  0
LINE
  5
2C0
100
AcDbEntity
  8
00_COMPONENTS_1
100
AcDbLine
 62
7
  6
BYLAYER
 10
39.6219146211
 20
70.2931675033
 11
40.7532901814
 21
69.6399822961
  0
LINE
  5
2C1
100
AcDbEntity
  8
00_COMPONENTS_1
100
AcDbLine
 62
7
  6
BYLAYER
 10
46.4455234688
 20
66.3536442222
 11
48.124909066
 21
65.3840724302
  0
LINE
  5
2C2
100
AcDbEntity
  8
00_COMPONENTS_1
100
AcDbLine
 62
7
  6
BYLAYER
 10
47.7182288935
 20
67.0884366556
 11
46.1449647416
 21
67.9967405886
  0
LINE
  5
2C3
100
AcDbEntity
  8
00_COMPONENTS_1
100
AcDbLine
 62
7
  6
BYLAYER
 10
25.6564054689
 20
79.8255481966
 11
24.083141317
 21
80.7338521297
  0
LINE
  5
2C4
100
AcDbEntity
  8
00_COMPONENTS_1
100
AcDbLine
 62
7
  6
BYLAYER
 10
39.738966145
 20
49.282452842
 11
43.9815891683
 21
51.7319177652
  0
LINE
  5
2C5
100
AcDbEntity
  8
00_COMPONENTS_1
100
AcDbLine
 62
7
  6
BYLAYER
 10
45.2611443503
 20
51.238133674
 11
45.049007767
 21
51.1156572916
  0
LINE
  5
2C6
100
AcDbEntity
  8
00_COMPONENTS_1
100
AcDbLine
 62
7
  6
BYLAYER
 10
45.6146992128
 20
51.0340132967
 11
45.4025626295
 21
50.9115369143
  0
LINE
  5
2C7
100
AcDbEntity
  8
00_COMPONENTS_1
100
AcDbLine
 62
7
  6
BYLAYER
 10
48.2132142546
 20
67.3742148812
 11
46.1449647416
 21
68.5682922806
  0
LINE
  5
2C8
100
AcDbEntity
  8
00_COMPONENTS_1
100
AcDbLine
 62
7
  6
BYLAYER
 10
26.15139083
 20
80.1113264222
 11
24.083141317
 21
81.3054038216
  0
LINE
  5
2C9
100
AcDbEntity
  8
00_COMPONENTS_1
100
AcDbLine
 62
7
  6
BYLAYER
 10
37.7303666667
 20
75.4676360636
 11
34.477661931
 21
77.3455435344
  0
LINE
  5
2CA
100
AcDbEntity
  8
00_COMPONENTS_1
100
AcDbLine
 62
7
  6
BYLAYER
 10
54.7361459461
 20
88.9477364407
 11
54.7361459461
 21
86.9638316365
  0
LINE
  5
2CB
100
AcDbEntity
  8
00_COMPONENTS_1
100
AcDbLine
 62
7
  6
BYLAYER
 10
55.6024707628
 20
78.2131095274
 11
55.6024707628
 21
75.1104003423
  0
LINE
  5
2CC
100
AcDbEntity
  8
00_COMPONENTS_1
100
AcDbLine
 62
7
  6
BYLAYER
 10
56.3271428276
 20
88.029194743
 11
56.3271428276
 21
86.3479054855
  0
LINE
  5
2CD
100
AcDbEntity
  8
00_COMPONENTS_1
100
AcDbLine
 62
7
  6
BYLAYER
 10
41.7188733754
 20
48.1393787293
 11
45.9614963987
 21
50.5888436525
  0
LINE
  5
2CE
100
AcDbEntity
  8
00_COMPONENTS_1
100
AcDbLine
 62
7
  6
BYLAYER
 10
51.4305367139
 20
69.2317257813
 11
48.4253668151
 21
70.9667221805
  0
LINE
  5
2CF
100
AcDbEntity
  8
00_COMPONENTS_1
100
AcDbLine
 62
7
  6
BYLAYER
 10
29.3687132893
 20
81.9688373223
 11
26.3635433905
 21
83.7038337215
  0
LINE
  5
2D0
100
AcDbEntity
  8
00_COMPONENTS_1
100
AcDbLine
 62
7
  6
BYLAYER
 10
27.6009751057
 20
84.4182609908
 11
30.6061450044
 21
82.6832645916
  0
LINE
  5
2D1
100
AcDbEntity
  8
00_COMPONENTS_1
100
AcDbLine
 62
7
  6
BYLAYER
 10
49.6627985302
 20
71.6811494497
 11
52.667968429
 21
69.9461530506
  0
LINE
  5
2D2
100
AcDbEntity
  8
00_COMPONENTS_1
100
AcDbLine
 62
7
  6
BYLAYER
 10
57.6706401183
 20
88.5313129641
 11
57.6706401183
 21
86.8500237066
  0
LINE
  5
2D3
100
AcDbEntity
  8
00_COMPONENTS_1
100
AcDbLine
 62
7
  6
BYLAYER
 10
57.6706636701
 20
85.9185752642
 11
57.6706636701
 21
84.7377488076
  0
LINE
  5
2D4
100
AcDbEntity
  8
00_COMPONENTS_1
100
AcDbLine
 62
7
  6
BYLAYER
 10
58.9081056891
 20
86.0206563609
 11
58.9081056891
 21
89.694917238
  0
LINE
  5
2D5
100
AcDbEntity
  8
00_COMPONENTS_1
100
AcDbLine
 62
7
  6
BYLAYER
 10
59.9000327734
 20
75.7533572443
 11
59.9000327734
 21
77.3863620786
  0
LINE
  5
2D6
100
AcDbEntity
  8
00_COMPONENTS_1
100
AcDbLine
 62
7
  6
BYLAYER
 10
60.6758800019
 20
85.0000544746
 11
60.6758800019
 21
88.6743153517
  0
LINE
  5
2D7
100
AcDbEntity
  8
00_COMPONENTS_1
100
AcDbLine
 62
7
  6
BYLAYER
 10
39.738966145
 20
42.0972315712
 11
40.0925240623
 21
42.3013571115
  0
LINE
  5
2D8
100
AcDbEntity
  8
00_COMPONENTS_1
100
AcDbLine
 62
7
  6
BYLAYER
 10
31.342548881
 20
36.571934429
 11
29.7826132425
 21
35.6713105442
  0
LINE
  5
2D9
100
AcDbEntity
  8
00_COMPONENTS_1
100
AcDbLine
 62
7
  6
BYLAYER
 10
61.913322021
 20
83.2573112866
 11
61.913322021
 21
83.4691307371
  0
LINE
  5
2DA
100
AcDbEntity
  8
00_COMPONENTS_1
100
AcDbLine
 62
7
  6
BYLAYER
 10
62.9740896475
 20
38.0310933078
 11
62.9740896475
 21
35.5815860564
  0
LINE
  5
2DB
100
AcDbEntity
  8
00_COMPONENTS_1
100
AcDbLine
 62
7
  6
BYLAYER
 10
62.9740896475
 20
71.5076924101
 11
62.9740896475
 21
73.9571996615
  0
LINE
  5
2DC
100
AcDbEntity
  8
00_COMPONENTS_1
100
AcDbLine
 62
7
  6
BYLAYER
 10
63.3275296954
 20
84.2856190448
 11
63.3275296954
 21
83.7858567824
  0
LINE
  5
2DD
100
AcDbEntity
  8
00_COMPONENTS_1
100
AcDbLine
 62
7
  6
BYLAYER
 10
63.3628745834
 20
89.2356865667
 11
63.3628745834
 21
86.5513822593
  0
LINE
  5
2DE
100
AcDbEntity
  8
00_COMPONENTS_1
100
AcDbLine
 62
7
  6
BYLAYER
 10
63.5189166165
 20
83.8573856653
 11
63.5189166165
 21
84.1936435168
  0
LINE
  5
2DF
100
AcDbEntity
  8
00_COMPONENTS_1
100
AcDbLine
 62
7
  6
BYLAYER
 10
40.1699326785
 20
40.0518180776
 11
30.4826101087
 21
34.4588731696
  0
LINE
  5
2E0
100
AcDbEntity
  8
00_COMPONENTS_1
100
AcDbLine
 62
7
  6
BYLAYER
 10
41.7188733754
 20
39.8927043163
 11
45.9614963987
 21
42.3421692395
  0
LINE
  5
2E1
100
AcDbEntity
  8
00_COMPONENTS_1
100
AcDbLine
 62
7
  6
BYLAYER
 10
58.6076406616
 20
73.3754039431
 11
55.6024707628
 21
75.1104003423
  0
LINE
  5
2E2
100
AcDbEntity
  8
00_COMPONENTS_1
100
AcDbLine
 62
7
  6
BYLAYER
 10
51.784031814
 20
77.3149272242
 11
40.3642561859
 21
83.9079886022
  0
LINE
  5
2E3
100
AcDbEntity
  8
00_COMPONENTS_1
100
AcDbLine
 62
7
  6
BYLAYER
 10
36.545817237
 20
86.1125154841
 11
33.5406473383
 21
87.8475118833
  0
LINE
  5
2E4
100
AcDbEntity
  8
00_COMPONENTS_1
100
AcDbLine
 62
7
  6
BYLAYER
 10
59.0335905758
 20
73.6213247728
 11
55.6024707628
 21
75.6022379061
  0
LINE
  5
2E5
100
AcDbEntity
  8
00_COMPONENTS_1
100
AcDbLine
 62
7
  6
BYLAYER
 10
52.2099817281
 20
77.5608480539
 11
40.3642561859
 21
84.3998261661
  0
LINE
  5
2E6
100
AcDbEntity
  8
00_COMPONENTS_1
100
AcDbLine
 62
7
  6
BYLAYER
 10
36.9717671512
 20
86.3584363138
 11
35.3260905624
 21
87.308546641
  0
LINE
  5
2E7
100
AcDbEntity
  8
00_COMPONENTS_1
100
AcDbLine
 62
7
  6
BYLAYER
 10
34.2654348065
 20
88.0822670436
 11
33.5406473383
 21
88.500713817
  0
LINE
  5
2E8
100
AcDbEntity
  8
00_COMPONENTS_1
100
AcDbLine
 62
7
  6
BYLAYER
 10
64.0347454033
 20
72.1200586409
 11
62.9740896475
 21
72.7324146737
  0
LINE
  5
2E9
100
AcDbEntity
  8
00_COMPONENTS_1
100
AcDbLine
 62
7
  6
BYLAYER
 10
35.3260905624
 20
88.6946332744
 11
33.5406473383
 21
89.7254360806
  0
LINE
  5
2EA
100
AcDbEntity
  8
00_COMPONENTS_1
100
AcDbLine
 62
7
  6
BYLAYER
 10
64.0347454033
 20
40.6847155814
 11
64.0347454033
 21
38.6434595386
  0
LINE
  5
2EB
100
AcDbEntity
  8
00_COMPONENTS_1
100
AcDbLine
 62
7
  6
BYLAYER
 10
64.0347454033
 20
70.0788025981
 11
64.0347454033
 21
72.1200586409
  0
LINE
  5
2EC
100
AcDbEntity
  8
00_COMPONENTS_1
100
AcDbLine
 62
7
  6
BYLAYER
 10
64.2467617398
 20
84.4656681059
 11
64.2467617398
 21
85.224578899
  0
LINE
  5
2ED
100
AcDbEntity
  8
00_COMPONENTS_1
100
AcDbLine
 62
7
  6
BYLAYER
 10
65.8024019575
 20
83.8365442871
 11
65.8024019575
 21
80.6420946979
  0
LINE
  5
2EE
100
AcDbEntity
  8
00_COMPONENTS_1
100
AcDbLine
 62
7
  6
BYLAYER
 10
66.2266789797
 20
80.800663848
 11
66.2266789797
 21
82.3138241797
  0
LINE
  5
2EF
100
AcDbEntity
  8
00_COMPONENTS_1
100
AcDbLine
 62
7
  6
BYLAYER
 10
38.0486028426
 20
34.9079926266
 11
38.763977691
 21
35.3210120225
  0
LINE
  5
2F0
100
AcDbEntity
  8
00_COMPONENTS_1
100
AcDbLine
 62
7
  6
BYLAYER
 10
38.7557125677
 20
34.4997518721
 11
38.7910677596
 21
34.5201640798
  0
LINE
  5
2F1
100
AcDbEntity
  8
00_COMPONENTS_1
100
AcDbLine
 62
7
  6
BYLAYER
 10
41.3366713236
 20
33.6220441173
 11
40.8416859625
 21
33.3362658917
  0
LINE
  5
2F2
100
AcDbEntity
  8
00_COMPONENTS_1
100
AcDbLine
 62
7
  6
BYLAYER
 10
31.861261741
 20
91.9197928604
 11
33.5406473383
 21
90.9502210684
  0
LINE
  5
2F3
100
AcDbEntity
  8
00_COMPONENTS_1
100
AcDbLine
 62
7
  6
BYLAYER
 10
39.2328806257
 20
87.6638829945
 11
40.3642561859
 21
87.0106977873
  0
LINE
  5
2F4
100
AcDbEntity
  8
00_COMPONENTS_1
100
AcDbLine
 62
7
  6
BYLAYER
 10
54.4710952026
 20
78.8662947346
 11
55.6024707628
 21
78.2131095274
  0
LINE
  5
2F5
100
AcDbEntity
  8
00_COMPONENTS_1
100
AcDbLine
 62
7
  6
BYLAYER
 10
61.2947040503
 20
74.9267714535
 11
62.9740896475
 21
73.9571996615
  0
LINE
  5
2F6
100
AcDbEntity
  8
00_COMPONENTS_1
100
AcDbLine
 62
7
  6
BYLAYER
 10
40.7532901814
 20
31.264368691
 11
43.0868143264
 21
32.6116214423
  0
LINE
  5
2F7
100
AcDbEntity
  8
00_COMPONENTS_1
100
AcDbLine
 62
7
  6
BYLAYER
 10
40.4345960968
 20
91.2357332872
 11
69.5675167729
 21
74.416214201
  0
LINE
  5
2F8
100
AcDbEntity
  8
00_COMPONENTS_1
100
AcDbLine
 62
7
  6
BYLAYER
 10
64.0347454033
 20
40.6847155814
 11
78.1768221476
 21
48.8495986588
  0
LINE
  5
2F9
100
AcDbEntity
  8
00_COMPONENTS_1
100
AcDbLine
 62
7
  6
BYLAYER
 10
48.124909066
 20
30.1111680102
 11
47.2763844614
 21
29.6212750255
  0
LINE
  5
2FA
100
AcDbEntity
  8
00_COMPONENTS_1
100
AcDbLine
 62
7
  6
BYLAYER
 10
61.8779565252
 20
89.3683304133
 11
63.3628745834
 21
89.2356865667
  0
LINE
  5
2FB
100
AcDbEntity
  8
00_COMPONENTS_1
100
AcDbLine
 62
7
  6
BYLAYER
 10
60.8944695619
 20
82.8765257146
 11
56.368967321
 21
85.4892665436
  0
LINE
  5
2FC
100
AcDbEntity
  8
00_COMPONENTS_1
100
AcDbLine
 62
7
  6
BYLAYER
 10
52.6501896263
 20
88.1681318343
 11
56.0089608207
 21
86.2289882503
  0
LINE
  5
2FD
100
AcDbEntity
  8
00_COMPONENTS_1
100
AcDbLine
 62
7
  6
BYLAYER
 10
62.372948347
 20
82.5548214597
 11
65.7317195415
 21
80.6156778757
  0
LINE
  5
2FE
100
AcDbEntity
  8
00_COMPONENTS_1
100
AcDbLine
 62
7
  6
BYLAYER
 10
58.2009959639
 20
85.6123946983
 11
57.6706636701
 21
85.9185752642
  0
LINE
  5
2FF
100
AcDbEntity
  8
00_COMPONENTS_1
100
AcDbLine
 62
7
  6
BYLAYER
 10
61.3829897271
 20
83.775311303
 11
61.913322021
 21
83.4691307371
  0
LINE
  5
300
100
AcDbEntity
  8
00_COMPONENTS_1
100
AcDbLine
 62
7
  6
BYLAYER
 10
54.7361459461
 20
88.9477364407
 11
56.3271428276
 21
88.029194743
  0
LINE
  5
301
100
AcDbEntity
  8
00_COMPONENTS_1
100
AcDbLine
 62
7
  6
BYLAYER
 10
66.2266789797
 20
82.3138241797
 11
67.8176758613
 21
81.3952824821
  0
LINE
  5
302
100
AcDbEntity
  8
00_COMPONENTS_1
100
AcDbLine
 62
7
  6
BYLAYER
 10
62.9739748328
 20
84.4897394221
 11
63.3275296954
 21
84.2856190448
  0
LINE
  5
303
100
AcDbEntity
  8
00_COMPONENTS_1
100
AcDbLine
 62
7
  6
BYLAYER
 10
63.5189166165
 20
84.1936435168
 11
63.8724714791
 21
83.9895231395
  0
LINE
  5
304
100
AcDbEntity
  8
00_COMPONENTS_1
100
AcDbLine
 62
7
  6
BYLAYER
 10
64.0347454033
 20
38.6434595386
 11
62.9740896475
 21
38.0310933078
  0
LINE
  5
305
100
AcDbEntity
  8
00_COMPONENTS_1
100
AcDbLine
 62
7
  6
BYLAYER
 10
48.124909066
 20
27.0084588251
 11
62.9740896475
 21
35.5815860564
  0
LINE
  5
306
100
AcDbEntity
  8
00_COMPONENTS_1
100
AcDbLine
 62
7
  6
BYLAYER
 10
61.5951002705
 20
90.256288453
 11
60.1101822123
 21
90.3889322996
  0
LINE
  5
307
100
AcDbEntity
  8
00_COMPONENTS_1
100
AcDbLine
 62
7
  6
BYLAYER
 10
48.0539478563
 20
94.0833872255
 11
49.0792569578
 21
93.4914381315
  0
LINE
  5
308
100
AcDbEntity
  8
00_COMPONENTS_1
100
AcDbLine
 62
7
  6
BYLAYER
 10
50.9884532157
 20
92.3891880943
 11
57.6706401183
 21
88.531312964
  0
LINE
  5
309
100
AcDbEntity
  8
00_COMPONENTS_1
100
AcDbLine
 62
7
  6
BYLAYER
 10
64.5296044523
 20
84.5713776452
 11
65.8024019575
 21
83.8365442871
  0
LINE
  5
30A
100
AcDbEntity
  8
00_COMPONENTS_1
100
AcDbLine
 62
7
  6
BYLAYER
 10
67.5701762704
 20
82.8159424008
 11
74.252363173
 21
78.9580672705
  0
LINE
  5
30B
100
AcDbEntity
  8
00_COMPONENTS_1
100
AcDbLine
 62
7
  6
BYLAYER
 10
64.2467617398
 20
85.224578899
 11
64.0699843085
 21
85.3266390877
  0
LINE
  5
30C
100
AcDbEntity
  8
00_COMPONENTS_1
100
AcDbLine
 62
7
  6
BYLAYER
 10
47.0639942411
 20
96.2062788744
 11
48.0539478563
 21
95.6347418181
  0
LINE
  5
30D
100
AcDbEntity
  8
00_COMPONENTS_1
100
AcDbLine
 62
7
  6
BYLAYER
 10
77.1868685324
 20
78.8152227318
 11
78.1768221476
 21
78.2436856755
  0
LINE
  5
30E
100
AcDbEntity
  8
00_COMPONENTS_1
100
AcDbLine
 62
7
  6
BYLAYER
 10
60.6758800019
 20
88.6743153517
 11
58.9081056891
 21
89.694917238
  0
LINE
  5
30F
100
AcDbEntity
  8
00_COMPONENTS_1
100
AcDbLine
 62
7
  6
BYLAYER
 10
78.1768221476
 20
78.2436856755
 11
78.1768221476
 21
48.8495986588
  0
LINE
  5
310
100
AcDbEntity
  8
00_COMPONENTS_1
100
AcDbLine
 62
7
  6
BYLAYER
 10
60.1101822123
 20
90.3889322996
 11
61.8779565252
 21
89.3683304133
  0
LINE
  5
311
100
AcDbEntity
  8
00_COMPONENTS_1
100
AcDbLine
 62
7
  6
BYLAYER
 10
63.3628745834
 20
89.2356865667
 11
61.5951002705
 21
90.256288453
  0
ARC
  5
312
100
AcDbEntity
  8
00_COMPONENTS_1
100
AcDbCircle
 62
7
  6
BYLAYER
 10
8.0791421227
 20
40.985367673
 40
24.402612289
100
AcDbArc
 50
23.681382926
 51
24.8439857312
  0
ARC
  5
313
100
AcDbEntity
  8
00_COMPONENTS_1
100
AcDbCircle
 62
7
  6
BYLAYER
 10
8.2150857711
 20
41.0582807685
 40
24.3543296575
100
AcDbArc
 50
23.6802304522
 51
24.845138205
  0
ARC
  5
314
100
AcDbEntity
  8
00_COMPONENTS_1
100
AcDbCircle
 62
7
  6
BYLAYER
 10
8.900072407
 20
41.3302714404
 40
23.5120889653
100
AcDbArc
 50
20.6876457528
 51
21.8792240684
  0
ARC
  5
315
100
AcDbEntity
  8
00_COMPONENTS_1
100
AcDbCircle
 62
7
  6
BYLAYER
 10
9.0572484239
 20
41.4087623433
 40
23.4420640189
100
AcDbArc
 50
20.6858659772
 51
21.881003844
  0
ARC
  5
316
100
AcDbEntity
  8
00_COMPONENTS_1
100
AcDbCircle
 62
7
  6
BYLAYER
 10
10.0226437575
 20
41.7346039902
 40
22.3188038493
100
AcDbArc
 50
17.611011737
 51
18.8444895456
  0
ARC
  5
317
100
AcDbEntity
  8
00_COMPONENTS_1
100
AcDbCircle
 62
7
  6
BYLAYER
 10
10.1987120479
 20
41.8153862975
 40
22.2302188135
100
AcDbArc
 50
17.6085540031
 51
18.8469472794
  0
ARC
  5
318
100
AcDbEntity
  8
00_COMPONENTS_1
100
AcDbCircle
 62
7
  6
BYLAYER
 10
10.9997390038
 20
41.7596188593
 40
21.982544928
100
AcDbArc
 50
13.8066523311
 51
15.0250850899
  0
ARC
  5
319
100
AcDbEntity
  8
00_COMPONENTS_1
100
AcDbCircle
 62
7
  6
BYLAYER
 10
9.5412764474
 20
41.8315557495
 40
21.8472665272
100
AcDbArc
 50
23.6803714702
 51
24.9793049799
  0
ARC
  5
31A
100
AcDbEntity
  8
00_COMPONENTS_1
100
AcDbCircle
 62
7
  6
BYLAYER
 10
10.2908236614
 20
42.1443673138
 40
21.0349936612
100
AcDbArc
 50
20.6860836021
 51
22.0184943181
  0
ARC
  5
31B
100
AcDbEntity
  8
00_COMPONENTS_1
100
AcDbCircle
 62
7
  6
BYLAYER
 10
11.3619675411
 20
42.5255861674
 40
19.8979163511
100
AcDbArc
 50
17.4648979966
 51
18.8478675781
  0
ARC
  5
31C
100
AcDbEntity
  8
00_COMPONENTS_1
100
AcDbCircle
 62
7
  6
BYLAYER
 10
14.6646012636
 20
49.0928936467
 40
14.5539247884
100
AcDbArc
 50
59.1969417443
 51
60.804180782
  0
ARC
  5
31D
100
AcDbEntity
  8
00_COMPONENTS_1
100
AcDbCircle
 62
7
  6
BYLAYER
 10
14.9559096688
 20
49.5012291407
 40
14.1465354365
100
AcDbArc
 50
60.8072522608
 51
61.1000084277
  0
ARC
  5
31E
100
AcDbEntity
  8
00_COMPONENTS_1
100
AcDbCircle
 62
7
  6
BYLAYER
 10
37.3446984647
 20
44.9445300755
 40
5.6498225818
100
AcDbArc
 50
300.0037380492
 51
306.9517232764
  0
SPLINE
  5
31F
100
AcDbEntity
  8
00_COMPONENTS_1
100
AcDbSpline
 62
7
  6
BYLAYER
 70
0
 71
3
 72
25
 73
21
 74
0
 42
0.0000001
 43
0.0000001
 44
0.0000000001
 40
0.0
 40
0.0
 40
0.0
 40
0.0
 40
0.0213325629
 40
0.0428933935
 40
0.0648992993
 40
0.0875443096
 40
0.1353201425
 40
0.1872214911
 40
0.2436592598
 40
0.3046069596
 40
0.3696943005
 40
0.4382910455
 40
0.5095769725
 40
0.582600805
 40
0.6563322235
 40
0.7297086198
 40
0.8016843127
 40
0.8712760139
 40
0.9376170335
 40
1.0
 40
1.0
 40
1.0
 40
1.0
 10
29.7826097767
 20
35.6713165482
 30
0.0
 10
29.5921771571
 20
35.5613708
 30
0.0
 10
29.1946219222
 20
35.3646708702
 30
0.0
 10
28.560823429
 20
35.1455141768
 30
0.0
 10
27.8916720966
 20
35.0028582964
 30
0.0
 10
26.9412862809
 20
34.9136201921
 30
0.0
 10
25.6741142828
 20
35.00668212
 30
0.0
 10
24.1117595539
 20
35.421948902
 30
0.0
 10
22.5101111048
 20
36.1297537368
 30
0.0
 10
20.9016465521
 20
37.1138377803
 30
0.0
 10
19.3188554453
 20
38.3529765545
 30
0.0
 10
17.7946533825
 20
39.8209216344
 30
0.0
 10
16.3610999977
 20
41.4865570677
 30
0.0
 10
15.0486080964
 20
43.314476872
 30
0.0
 10
13.8851471294
 20
45.2657241463
 30
0.0
 10
12.8955179525
 20
47.2986729773
 30
0.0
 10
12.1008632994
 20
49.369954676
 30
0.0
 10
11.5180319283
 20
51.4356821551
 30
0.0
 10
11.1595737151
 20
53.4516739521
 30
0.0
 10
11.0724471985
 20
54.7794232245
 30
0.0
 10
11.0724471985
 20
55.4224560295
 30
0.0
  0
SPLINE
  5
320
100
AcDbEntity
  8
00_COMPONENTS_1
100
AcDbSpline
 62
7
  6
BYLAYER
 70
0
 71
3
 72
15
 73
11
 74
0
 42
0.0000001
 43
0.0000001
 44
0.0000000001
 40
0.0
 40
0.0
 40
0.0
 40
0.0
 40
0.1485721306
 40
0.2895074657
 40
0.4227237796
 40
0.5486379409
 40
0.6679994355
 40
0.7819360617
 40
0.8919848772
 40
1.0
 40
1.0
 40
1.0
 40
1.0
 10
10.0824935833
 20
55.9939930858
 30
0.0
 10
10.0824935833
 20
56.4340858413
 30
0.0
 10
10.1180136209
 20
57.2922390353
 30
0.0
 10
10.2868809185
 20
58.5349581809
 30
0.0
 10
10.5690717276
 20
59.6884435037
 30
0.0
 10
10.9623507301
 20
60.7414245321
 30
0.0
 10
11.4635387729
 20
61.6838763971
 30
0.0
 10
12.0689522774
 20
62.5060822536
 30
0.0
 10
12.772883481
 20
63.1988156586
 30
0.0
 10
13.3055987693
 20
63.5705905299
 30
0.0
 10
13.5826896306
 20
63.7305688088
 30
0.0
  0
SPLINE
  5
321
100
AcDbEntity
  8
00_COMPONENTS_1
100
AcDbSpline
 62
7
  6
BYLAYER
 70
0
 71
3
 72
25
 73
21
 74
0
 42
0.0000001
 43
0.0000001
 44
0.0000000001
 40
0.0
 40
0.0
 40
0.0
 40
0.0
 40
0.0623822226
 40
0.1287225625
 40
0.1983143276
 40
0.270290416
 40
0.3436676765
 40
0.417400156
 40
0.4904250433
 40
0.5617118574
 40
0.6303091502
 40
0.6953966388
 40
0.7563441309
 40
0.8127814085
 40
0.8646820653
 40
0.9124571123
 40
0.935101727
 40
0.957107269
 40
0.9786677518
 40
1.0
 40
1.0
 40
1.0
 40
1.0
 10
33.2756925681
 20
42.6036963375
 30
0.0
 10
33.2756925681
 20
43.2633157072
 30
0.0
 10
33.1863213666
 20
44.6253146197
 30
0.0
 10
32.8186166521
 20
46.6933181992
 30
0.0
 10
32.2207508233
 20
48.8123542302
 30
0.0
 10
31.4055857466
 20
50.9371023998
 30
0.0
 10
30.3904076491
 20
53.0225370067
 30
0.0
 10
29.1969041713
 20
55.0241654672
 30
0.0
 10
27.850519234
 20
56.8992807826
 30
0.0
 10
26.3799484217
 20
58.6079160336
 30
0.0
 10
24.816393544
 20
60.1137487427
 30
0.0
 10
23.1927450435
 20
61.3848597373
 30
0.0
 10
21.5427698322
 20
62.3943255605
 30
0.0
 10
19.8997962385
 20
63.1203777924
 30
0.0
 10
18.2971392013
 20
63.5463421205
 30
0.0
 10
16.997285096
 20
63.6417940715
 30
0.0
 10
16.0223902204
 20
63.550246722
 30
0.0
 10
15.3359827065
 20
63.403908756
 30
0.0
 10
14.6858387028
 20
63.1790988358
 30
0.0
 10
14.2780311844
 20
62.9773241121
 30
0.0
 10
14.0826870215
 20
62.8645427547
 30
0.0
  0
SPLINE
  5
322
100
AcDbEntity
  8
00_COMPONENTS_1
100
AcDbSpline
 62
7
  6
BYLAYER
 70
0
 71
3
 72
20
 73
16
 74
0
 42
0.0000001
 43
0.0000001
 44
0.0000000001
 40
0.0
 40
0.0
 40
0.0
 40
0.0
 40
0.062391566
 40
0.1288092028
 40
0.270302454
 40
0.4173641359
 40
0.5616164248
 40
0.63025275
 40
0.6953793645
 40
0.756361699
 40
0.8128309702
 40
0.8647637112
 40
0.9125656354
 40
0.9571671258
 40
1.0
 40
1.0
 40
1.0
 40
1.0
 10
22.91645443
 20
71.201300476
 30
0.0
 10
22.91645443
 20
71.3319220605
 30
0.0
 10
22.8986897388
 20
71.6017839736
 30
0.0
 10
22.7995349715
 20
72.1597866662
 30
0.0
 10
22.5598513799
 20
72.8682397439
 30
0.0
 10
22.1268316031
 20
73.6684697304
 30
0.0
 10
21.6603621177
 20
74.2659063062
 30
0.0
 10
21.2405580379
 20
74.6702388529
 30
0.0
 10
20.9188968716
 20
74.9220937968
 30
0.0
 10
20.5920044929
 20
75.1220613758
 30
0.0
 10
20.2665322236
 20
75.2658921005
 30
0.0
 10
19.9489627538
 20
75.3503146201
 30
0.0
 10
19.6455113287
 20
75.3725878145
 30
0.0
 10
19.3629184906
 20
75.3312354205
 30
0.0
 10
19.1917432741
 20
75.2600495855
 30
0.0
 10
19.1140752912
 20
75.2152265899
 30
0.0
  0
SPLINE
  5
323
100
AcDbEntity
  8
00_COMPONENTS_1
100
AcDbSpline
 62
7
  6
BYLAYER
 70
0
 71
3
 72
20
 73
16
 74
0
 42
0.0000001
 43
0.0000001
 44
0.0000000001
 40
0.0
 40
0.0
 40
0.0
 40
0.0
 40
0.062391566
 40
0.1288092028
 40
0.270302454
 40
0.4173641359
 40
0.5616164248
 40
0.63025275
 40
0.6953793645
 40
0.756361699
 40
0.8128309702
 40
0.8647637112
 40
0.9125656354
 40
0.9571671258
 40
1.0
 40
1.0
 40
1.0
 40
1.0
 10
44.9782778546
 20
58.464188935
 30
0.0
 10
44.9782778546
 20
58.5948105194
 30
0.0
 10
44.9605131634
 20
58.8646724326
 30
0.0
 10
44.8613583961
 20
59.4226751252
 30
0.0
 10
44.6216748045
 20
60.1311282029
 30
0.0
 10
44.1886550277
 20
60.9313581894
 30
0.0
 10
43.7221855423
 20
61.5287947652
 30
0.0
 10
43.3023814624
 20
61.9331273118
 30
0.0
 10
42.9807202961
 20
62.1849822558
 30
0.0
 10
42.6538279175
 20
62.3849498348
 30
0.0
 10
42.3283556482
 20
62.5287805595
 30
0.0
 10
42.0107861784
 20
62.6132030791
 30
0.0
 10
41.7073347533
 20
62.6354762735
 30
0.0
 10
41.4247419152
 20
62.5941238795
 30
0.0
 10
41.2535666987
 20
62.5229380444
 30
0.0
 10
41.1758987158
 20
62.4781150489
 30
0.0
  0
SPLINE
  5
324
100
AcDbEntity
  8
00_COMPONENTS_1
100
AcDbSpline
 62
7
  6
BYLAYER
 70
0
 71
3
 72
20
 73
16
 74
0
 42
0.0000001
 43
0.0000001
 44
0.0000000001
 40
0.0
 40
0.0
 40
0.0
 40
0.0
 40
0.062391566
 40
0.1288092028
 40
0.270302454
 40
0.4173641359
 40
0.5616164248
 40
0.63025275
 40
0.6953793645
 40
0.756361699
 40
0.8128309702
 40
0.8647637112
 40
0.9125656354
 40
0.9571671258
 40
1.0
 40
1.0
 40
1.0
 40
1.0
 10
44.9782778546
 20
35.6021212554
 30
0.0
 10
44.9782778546
 20
35.7327428398
 30
0.0
 10
44.9605131634
 20
36.0026047529
 30
0.0
 10
44.8613583961
 20
36.5606074456
 30
0.0
 10
44.6216748045
 20
37.2690605232
 30
0.0
 10
44.1886550277
 20
38.0692905097
 30
0.0
 10
43.7221855423
 20
38.6667270856
 30
0.0
 10
43.3023814624
 20
39.0710596322
 30
0.0
 10
42.9807202961
 20
39.3229145762
 30
0.0
 10
42.6538279175
 20
39.5228821551
 30
0.0
 10
42.3283556482
 20
39.6667128799
 30
0.0
 10
42.0107861784
 20
39.7511353994
 30
0.0
 10
41.7073347533
 20
39.7734085939
 30
0.0
 10
41.4247419152
 20
39.7320561998
 30
0.0
 10
41.2535666987
 20
39.6608703648
 30
0.0
 10
41.1758987158
 20
39.6160473693
 30
0.0
  0
SPLINE
  5
325
100
AcDbEntity
  8
00_COMPONENTS_1
100
AcDbSpline
 62
7
  6
BYLAYER
 70
0
 71
3
 72
13
 73
9
 74
0
 42
0.0000001
 43
0.0000001
 44
0.0000000001
 40
0.0
 40
0.0
 40
0.0
 40
0.0
 40
0.1141767831
 40
0.2375713001
 40
0.500001251
 40
0.7624305195
 40
0.8858241805
 40
1.0
 40
1.0
 40
1.0
 40
1.0
 10
32.391724747
 20
71.0381400768
 30
0.0
 10
32.391724747
 20
71.0912032471
 30
0.0
 10
32.3819446759
 20
71.2017178538
 30
0.0
 10
32.3292385431
 20
71.4286071879
 30
0.0
 10
32.20643141
 20
71.7068349019
 30
0.0
 10
32.0268817358
 20
71.9523016783
 30
0.0
 10
31.8567427258
 20
72.1113893519
 30
0.0
 10
31.7659244336
 20
72.1751151788
 30
0.0
 10
31.7199705081
 20
72.2016460899
 30
0.0
  0
SPLINE
  5
326
100
AcDbEntity
  8
00_COMPONENTS_1
100
AcDbSpline
 62
7
  6
BYLAYER
 70
0
 71
3
 72
11
 73
7
 74
0
 42
0.0000001
 43
0.0000001
 44
0.0000000001
 40
0.0
 40
0.0
 40
0.0
 40
0.0
 40
0.2895391946
 40
0.5491157945
 40
0.7822541179
 40
1.0
 40
1.0
 40
1.0
 40
1.0
 10
31.7199705081
 20
72.2016460899
 30
0.0
 10
31.6783099132
 20
72.2256983014
 30
0.0
 10
31.5953644079
 20
72.2651043574
 30
0.0
 10
31.4679274317
 20
72.2959499714
 30
0.0
 10
31.348292591
 20
72.2929446893
 30
0.0
 10
31.2763296283
 20
72.2667366522
 30
0.0
 10
31.2449992125
 20
72.2486481212
 30
0.0
  0
SPLINE
  5
327
100
AcDbEntity
  8
00_COMPONENTS_1
100
AcDbSpline
 62
7
  6
BYLAYER
 70
0
 71
3
 72
25
 73
21
 74
0
 42
0.0000001
 43
0.0000001
 44
0.0000000001
 40
0.0
 40
0.0
 40
0.0
 40
0.0
 40
0.0213325607
 40
0.0428935953
 40
0.0648991814
 40
0.087544574
 40
0.1353202203
 40
0.1872213007
 40
0.2436587917
 40
0.3046062921
 40
0.3696935705
 40
0.4382903492
 40
0.5095763205
 40
0.582600099
 40
0.6563317061
 40
0.7297077172
 40
0.8016838744
 40
0.8712746652
 40
0.9376182397
 40
1.0
 40
1.0
 40
1.0
 40
1.0
 10
29.1906786722
 20
36.4842882426
 30
0.0
 10
29.012538812
 20
36.3814241841
 30
0.0
 10
28.640646042
 20
36.1973730392
 30
0.0
 10
28.0477102247
 20
35.9924465556
 30
0.0
 10
27.4217505859
 20
35.858890287
 30
0.0
 10
26.5326656301
 20
35.7755279785
 30
0.0
 10
25.3472560215
 20
35.8625169378
 30
0.0
 10
23.8857002302
 20
36.2510035765
 30
0.0
 10
22.3873875022
 20
36.913123839
 30
0.0
 10
20.8826947996
 20
37.8337103424
 30
0.0
 10
19.402019029
 20
38.9928995737
 30
0.0
 10
17.9761544394
 20
40.3661402802
 30
0.0
 10
16.6350925468
 20
41.9243182925
 30
0.0
 10
15.4072788368
 20
43.634310296
 30
0.0
 10
14.3188885039
 20
45.4596718024
 30
0.0
 10
13.3930969069
 20
47.3614606384
 30
0.0
 10
12.6497265936
 20
49.2991075873
 30
0.0
 10
12.10446418
 20
51.2315738066
 30
0.0
 10
11.7691523461
 20
53.1175093036
 30
0.0
 10
11.6876334248
 20
54.3596085271
 30
0.0
 10
11.6876334248
 20
54.9611435349
 30
0.0
  0
SPLINE
  5
328
100
AcDbEntity
  8
00_COMPONENTS_1
100
AcDbSpline
 62
7
  6
BYLAYER
 70
0
 71
3
 72
15
 73
11
 74
0
 42
0.0000001
 43
0.0000001
 44
0.0000000001
 40
0.0
 40
0.0
 40
0.0
 40
0.0
 40
0.1080130241
 40
0.2180601965
 40
0.3319962302
 40
0.4513582194
 40
0.577268948
 40
0.7104887529
 40
0.8514351199
 40
1.0
 40
1.0
 40
1.0
 40
1.0
 10
28.4406836421
 20
37.7833256343
 30
0.0
 10
28.6538185908
 20
37.9063966164
 30
0.0
 10
29.0636347324
 20
38.1923110636
 30
0.0
 10
29.6050685914
 20
38.7252270401
 30
0.0
 10
30.0707997974
 20
39.3576613873
 30
0.0
 10
30.4563160273
 20
40.0826250135
 30
0.0
 10
30.7588489559
 20
40.8926052188
 30
0.0
 10
30.9759374749
 20
41.7799244186
 30
0.0
 10
31.1058086111
 20
42.7358818367
 30
0.0
 10
31.1331508664
 20
43.3960065704
 30
0.0
 10
31.1331508664
 20
43.7345227856
 30
0.0
  0
SPLINE
  5
329
100
AcDbEntity
  8
00_COMPONENTS_1
100
AcDbSpline
 62
7
  6
BYLAYER
 70
0
 71
3
 72
11
 73
7
 74
0
 42
0.0000001
 43
0.0000001
 44
0.0000000001
 40
0.0
 40
0.0
 40
0.0
 40
0.0
 40
0.217745073
 40
0.4508830113
 40
0.7104597664
 40
1.0
 40
1.0
 40
1.0
 40
1.0
 10
39.9889510374
 20
42.07249366
 30
0.0
 10
40.0054411097
 20
42.0820141587
 30
0.0
 10
40.036325242
 20
42.1079188296
 30
0.0
 10
40.0691784473
 20
42.1616594384
 30
0.0
 10
40.0886550128
 20
42.2278648366
 30
0.0
 10
40.0925210076
 20
42.2760430874
 30
0.0
 10
40.0925210076
 20
42.3013624025
 30
0.0
  0
SPLINE
  5
32A
100
AcDbEntity
  8
00_COMPONENTS_1
100
AcDbSpline
 62
7
  6
BYLAYER
 70
0
 71
3
 72
25
 73
21
 74
0
 42
0.0000001
 43
0.0000001
 44
0.0000000001
 40
0.0
 40
0.0
 40
0.0
 40
0.0
 40
0.0213325874
 40
0.0428934176
 40
0.0648993216
 40
0.0875443369
 40
0.1353201649
 40
0.1872215055
 40
0.2436592668
 40
0.3046069571
 40
0.3696942837
 40
0.4382910032
 40
0.5095769056
 40
0.5826006919
 40
0.6563321677
 40
0.7297087171
 40
0.8016843394
 40
0.8712759803
 40
0.9376170101
 40
1.0
 40
1.0
 40
1.0
 40
1.0
 10
30.482606246
 20
34.45887986
 30
0.0
 10
30.2749732288
 20
34.3390030349
 30
0.0
 10
29.8415094001
 20
34.1245366828
 30
0.0
 10
29.150464218
 20
33.8855856296
 30
0.0
 10
28.4208734309
 20
33.730044451
 30
0.0
 10
27.384646272
 20
33.6327467027
 30
0.0
 10
26.0030201598
 20
33.7342140135
 30
0.0
 10
24.299549761
 20
34.1869888851
 30
0.0
 10
22.5532365578
 20
34.9587243247
 30
0.0
 10
20.799491623
 20
36.0316931761
 30
0.0
 10
19.0737391715
 20
37.3827537895
 30
0.0
 10
17.411867627
 20
38.9832868067
 30
0.0
 10
15.8488327622
 20
40.7993659282
 30
0.0
 10
14.4177927652
 20
42.792387668
 30
0.0
 10
13.1492444569
 20
44.9198784441
 30
0.0
 10
12.0702280894
 20
47.1364495597
 30
0.0
 10
11.2037985923
 20
49.3948152022
 30
0.0
 10
10.5683247934
 20
51.6471231915
 30
0.0
 10
10.1774896608
 20
53.8452042519
 30
0.0
 10
10.0824935833
 20
55.2928796374
 30
0.0
 10
10.0824935833
 20
55.9939930858
 30
0.0
  0
SPLINE
  5
32B
100
AcDbEntity
  8
00_COMPONENTS_1
100
AcDbSpline
 62
7
  6
BYLAYER
 70
0
 71
3
 72
11
 73
7
 74
0
 42
0.0000001
 43
0.0000001
 44
0.0000000001
 40
0.0
 40
0.0
 40
0.0
 40
0.0
 40
0.2824164227
 40
0.5419938916
 40
0.7797319694
 40
1.0
 40
1.0
 40
1.0
 40
1.0
 10
48.4428582052
 20
92.3891504597
 30
0.0
 10
48.4428582052
 20
92.4788737985
 30
0.0
 10
48.4537530908
 20
92.6513839644
 30
0.0
 10
48.5073303997
 20
92.8944243539
 30
0.0
 10
48.5969229099
 20
93.1056298797
 30
0.0
 10
48.682582364
 20
93.2252398367
 30
0.0
 10
48.7302889535
 20
93.2764367512
 30
0.0
  0
SPLINE
  5
32C
100
AcDbEntity
  8
00_COMPONENTS_1
100
AcDbSpline
 62
7
  6
BYLAYER
 70
0
 71
3
 72
11
 73
7
 74
0
 42
0.0000001
 43
0.0000001
 44
0.0000000001
 40
0.0
 40
0.0
 40
0.0
 40
0.0
 40
0.2824164227
 40
0.5419938916
 40
0.7797319694
 40
1.0
 40
1.0
 40
1.0
 40
1.0
 10
73.6159644204
 20
77.8557795988
 30
0.0
 10
73.6159644204
 20
77.9455029375
 30
0.0
 10
73.626859306
 20
78.1180131035
 30
0.0
 10
73.6804366149
 20
78.3610534929
 30
0.0
 10
73.7700291251
 20
78.5722590188
 30
0.0
 10
73.8556885792
 20
78.6918689758
 30
0.0
 10
73.9033951688
 20
78.7430658903
 30
0.0
  0
SPLINE
  5
32D
100
AcDbEntity
  8
00_COMPONENTS_1
100
AcDbSpline
 62
7
  6
BYLAYER
 70
0
 71
3
 72
12
 73
8
 74
0
 42
0.0000001
 43
0.0000001
 44
0.0000000001
 40
0.0
 40
0.0
 40
0.0
 40
0.0
 40
0.1081631901
 40
0.2183736225
 40
0.4513417426
 40
0.7104802902
 40
1.0
 40
1.0
 40
1.0
 40
1.0
 10
44.3258657251
 20
34.1601118949
 30
0.0
 10
44.3775166574
 20
34.1899201817
 30
0.0
 10
44.476810705
 20
34.2592391203
 30
0.0
 10
44.6548934538
 20
34.434461626
 30
0.0
 10
44.8313830959
 20
34.7220457013
 30
0.0
 10
44.9540365108
 20
35.1389255819
 30
0.0
 10
44.9782778546
 20
35.4424961988
 30
0.0
 10
44.9782778546
 20
35.6021212554
 30
0.0
  0
SPLINE
  5
32E
100
AcDbEntity
  8
00_COMPONENTS_1
100
AcDbSpline
 62
7
  6
BYLAYER
 70
0
 71
3
 72
12
 73
8
 74
0
 42
0.0000001
 43
0.0000001
 44
0.0000000001
 40
0.0
 40
0.0
 40
0.0
 40
0.0
 40
0.1081631901
 40
0.2183736225
 40
0.4513417426
 40
0.7104802902
 40
1.0
 40
1.0
 40
1.0
 40
1.0
 10
44.3258657251
 20
57.0221795746
 30
0.0
 10
44.3775166574
 20
57.0519878613
 30
0.0
 10
44.476810705
 20
57.1213068
 30
0.0
 10
44.6548934538
 20
57.2965293057
 30
0.0
 10
44.8313830959
 20
57.5841133809
 30
0.0
 10
44.9540365108
 20
58.0009932616
 30
0.0
 10
44.9782778546
 20
58.3045638784
 30
0.0
 10
44.9782778546
 20
58.464188935
 30
0.0
  0
SPLINE
  5
32F
100
AcDbEntity
  8
00_COMPONENTS_1
100
AcDbSpline
 62
7
  6
BYLAYER
 70
0
 71
3
 72
12
 73
8
 74
0
 42
0.0000001
 43
0.0000001
 44
0.0000000001
 40
0.0
 40
0.0
 40
0.0
 40
0.0
 40
0.1081631901
 40
0.2183736225
 40
0.4513417426
 40
0.7104802902
 40
1.0
 40
1.0
 40
1.0
 40
1.0
 10
22.2640423005
 20
69.7592911156
 30
0.0
 10
22.3156932328
 20
69.7890994024
 30
0.0
 10
22.4149872804
 20
69.858418341
 30
0.0
 10
22.5930700292
 20
70.0336408467
 30
0.0
 10
22.7695596713
 20
70.321224922
 30
0.0
 10
22.8922130863
 20
70.7381048026
 30
0.0
 10
22.91645443
 20
71.0416754195
 30
0.0
 10
22.91645443
 20
71.201300476
 30
0.0
  0
SPLINE
  5
330
100
AcDbEntity
  8
00_COMPONENTS_1
100
AcDbSpline
 62
7
  6
BYLAYER
 70
0
 71
3
 72
11
 73
7
 74
0
 42
0.0000001
 43
0.0000001
 44
0.0000000001
 40
0.0
 40
0.0
 40
0.0
 40
0.0
 40
0.217745073
 40
0.4508830113
 40
0.7104597664
 40
1.0
 40
1.0
 40
1.0
 40
1.0
 10
32.1949418037
 20
70.603289466
 30
0.0
 10
32.2262729411
 20
70.6213784136
 30
0.0
 10
32.2849527924
 20
70.6705972882
 30
0.0
 10
32.3473738826
 20
70.772704445
 30
0.0
 10
32.384379357
 20
70.8984947016
 30
0.0
 10
32.391724747
 20
70.9900333781
 30
0.0
 10
32.391724747
 20
71.0381400768
 30
0.0
  0
SPLINE
  5
331
100
AcDbEntity
  8
00_COMPONENTS_1
100
AcDbSpline
 62
7
  6
BYLAYER
 70
0
 71
3
 72
11
 73
7
 74
0
 42
0.0000001
 43
0.0000001
 44
0.0000000001
 40
0.0
 40
0.0
 40
0.0
 40
0.0
 40
0.2177817009
 40
0.4509079353
 40
0.7102947134
 40
1.0
 40
1.0
 40
1.0
 40
1.0
 10
56.3500390108
 20
77.3863620786
 30
0.0
 10
56.3500390196
 20
77.3387515614
 30
0.0
 10
56.3676334637
 20
77.2395161732
 30
0.0
 10
56.4428641685
 20
77.1012495256
 30
0.0
 10
56.5617932161
 20
76.9762621496
 30
0.0
 10
56.6613036854
 20
76.9077234231
 30
0.0
 10
56.7161529769
 20
76.8760568863
 30
0.0
  0
SPLINE
  5
332
100
AcDbEntity
  8
00_COMPONENTS_1
100
AcDbSpline
 62
7
  6
BYLAYER
 70
0
 71
3
 72
9
 73
5
 74
0
 42
0.0000001
 43
0.0000001
 44
0.0000000001
 40
0.0
 40
0.0
 40
0.0
 40
0.0
 40
0.2436949586
 40
1.0
 40
1.0
 40
1.0
 40
1.0
 10
55.5363336728
 20
77.9726271699
 30
0.0
 10
55.5462822192
 20
77.9843018665
 30
0.0
 10
55.587981723
 20
78.0314593649
 30
0.0
 10
55.6330553997
 20
78.0756025092
 30
0.0
 10
55.6685723657
 20
78.107298012
 30
0.0
  0
SPLINE
  5
333
100
AcDbEntity
  8
00_COMPONENTS_1
100
AcDbSpline
 62
7
  6
BYLAYER
 70
0
 71
3
 72
9
 73
5
 74
0
 42
0.0000001
 43
0.0000001
 44
0.0000000001
 40
0.0
 40
0.0
 40
0.0
 40
0.0
 40
0.2396708531
 40
1.0
 40
1.0
 40
1.0
 40
1.0
 10
55.6685723657
 20
78.107298012
 30
0.0
 10
55.6909471202
 20
78.1272653451
 30
0.0
 10
55.7867328859
 20
78.2078423012
 30
0.0
 10
55.8912901603
 20
78.2777480676
 30
0.0
 10
55.9736804056
 20
78.325315814
 30
0.0
  0
SPLINE
  5
334
100
AcDbEntity
  8
00_COMPONENTS_1
100
AcDbSpline
 62
7
  6
BYLAYER
 70
0
 71
3
 72
11
 73
7
 74
0
 42
0.0000001
 43
0.0000001
 44
0.0000000001
 40
0.0
 40
0.0
 40
0.0
 40
0.0
 40
0.2177821605
 40
0.4509085882
 40
0.7102951949
 40
1.0
 40
1.0
 40
1.0
 40
1.0
 10
40.4507400221
 20
85.9594179235
 30
0.0
 10
40.4507400466
 20
86.0470203316
 30
0.0
 10
40.4831130632
 20
86.2296113408
 30
0.0
 10
40.6215345785
 20
86.4840195077
 30
0.0
 10
40.8403595804
 20
86.7139945751
 30
0.0
 10
41.023455369
 20
86.8401053508
 30
0.0
 10
41.1243761775
 20
86.8983716589
 30
0.0
  0
SPLINE
  5
335
100
AcDbEntity
  8
00_COMPONENTS_1
100
AcDbSpline
 62
7
  6
BYLAYER
 70
0
 71
3
 72
9
 73
5
 74
0
 42
0.0000001
 43
0.0000001
 44
0.0000000001
 40
0.0
 40
0.0
 40
0.0
 40
0.0
 40
0.2547597188
 40
1.0
 40
1.0
 40
1.0
 40
1.0
 10
73.6241568859
 20
77.6652973616
 30
0.0
 10
73.6228025873
 20
77.6814339359
 30
0.0
 10
73.6181122415
 20
77.7448243758
 30
0.0
 10
73.6159644204
 20
77.8084098501
 30
0.0
 10
73.6159644204
 20
77.8557795988
 30
0.0
  0
SPLINE
  5
336
100
AcDbEntity
  8
00_COMPONENTS_1
100
AcDbSpline
 62
7
  6
BYLAYER
 70
0
 71
3
 72
11
 73
7
 74
0
 42
0.0000001
 43
0.0000001
 44
0.0000000001
 40
0.0
 40
0.0
 40
0.0
 40
0.0
 40
0.217745073
 40
0.4508830113
 40
0.7104597664
 40
1.0
 40
1.0
 40
1.0
 40
1.0
 10
58.7009657488
 20
85.5629188758
 30
0.0
 10
58.7339458934
 20
85.5819598733
 30
0.0
 10
58.7957141579
 20
85.6337692151
 30
0.0
 10
58.8614205687
 20
85.7412504327
 30
0.0
 10
58.9003736996
 20
85.8736612291
 30
0.0
 10
58.9081056891
 20
85.9700177307
 30
0.0
 10
58.9081056891
 20
86.0206563609
 30
0.0
  0
SPLINE
  5
337
100
AcDbEntity
  8
00_COMPONENTS_1
100
AcDbSpline
 62
7
  6
BYLAYER
 70
0
 71
3
 72
9
 73
5
 74
0
 42
0.0000001
 43
0.0000001
 44
0.0000000001
 40
0.0
 40
0.0
 40
0.0
 40
0.0
 40
0.2547597188
 40
1.0
 40
1.0
 40
1.0
 40
1.0
 10
48.4510506707
 20
92.1986682225
 30
0.0
 10
48.4496963721
 20
92.2148047969
 30
0.0
 10
48.4450060263
 20
92.2781952367
 30
0.0
 10
48.4428582052
 20
92.341780711
 30
0.0
 10
48.4428582052
 20
92.3891504597
 30
0.0
  0
SPLINE
  5
338
100
AcDbEntity
  8
00_COMPONENTS_1
100
AcDbSpline
 62
7
  6
BYLAYER
 70
0
 71
3
 72
15
 73
11
 74
0
 42
0.0000001
 43
0.0000001
 44
0.0000000001
 40
0.0
 40
0.0
 40
0.0
 40
0.0
 40
0.1080135896
 40
0.2180611474
 40
0.3319969311
 40
0.451358023
 40
0.5772718589
 40
0.7104888138
 40
0.8514266078
 40
1.0
 40
1.0
 40
1.0
 40
1.0
 10
29.982608855
 20
35.3249059141
 30
0.0
 10
30.2433003933
 20
35.4754153797
 30
0.0
 10
30.744488436
 20
35.8251862567
 30
0.0
 10
31.406759817
 20
36.4769219895
 30
0.0
 10
31.9763505076
 20
37.2504674159
 30
0.0
 10
32.4478833424
 20
38.1371475765
 30
0.0
 10
32.8178956734
 20
39.1278200073
 30
0.0
 10
33.083395958
 20
40.2130581807
 30
0.0
 10
33.242270675
 20
41.382256001
 30
0.0
 10
33.2756925681
 20
42.1896410647
 30
0.0
 10
33.2756925681
 20
42.6036963375
 30
0.0
  0
SPLINE
  5
339
100
AcDbEntity
  8
00_COMPONENTS_1
100
AcDbSpline
 62
7
  6
BYLAYER
 70
0
 71
3
 72
15
 73
11
 74
0
 42
0.0000001
 43
0.0000001
 44
0.0000000001
 40
0.0
 40
0.0
 40
0.0
 40
0.0
 40
0.1485746582
 40
0.28950994
 40
0.4227259114
 40
0.5486401886
 40
0.6680015826
 40
0.7819390817
 40
0.8919871556
 40
1.0
 40
1.0
 40
1.0
 40
1.0
 10
11.6876334248
 20
54.9611435349
 30
0.0
 10
11.6876334248
 20
55.3387441909
 30
0.0
 10
11.7181085988
 20
56.0750355802
 30
0.0
 10
11.8629999215
 20
57.1412784781
 30
0.0
 10
12.1051201366
 20
58.1309527406
 30
0.0
 10
12.4425456082
 20
59.034398449
 30
0.0
 10
12.872570685
 20
59.8430066836
 30
0.0
 10
13.3920052067
 20
60.5484517159
 30
0.0
 10
13.9959701584
 20
61.1427992001
 30
0.0
 10
14.4530230937
 20
61.4617800956
 30
0.0
 10
14.6907624761
 20
61.5990300223
 30
0.0
  0
SPLINE
  5
33A
100
AcDbEntity
  8
00_COMPONENTS_1
100
AcDbSpline
 62
7
  6
BYLAYER
 70
0
 71
3
 72
9
 73
5
 74
0
 42
0.0000001
 43
0.0000001
 44
0.0000000001
 40
0.0
 40
0.0
 40
0.0
 40
0.0
 40
0.4824325947
 40
1.0
 40
1.0
 40
1.0
 40
1.0
 10
31.1331508664
 20
43.7345227856
 30
0.0
 10
31.1331508664
 20
44.3821518074
 30
0.0
 10
31.0276087197
 20
45.7255387213
 30
0.0
 10
30.7511747132
 20
47.0427307189
 30
0.0
 10
30.5710717118
 20
47.7137767413
 30
0.0
  0
SPLINE
  5
33B
100
AcDbEntity
  8
00_COMPONENTS_1
100
AcDbSpline
 62
7
  6
BYLAYER
 70
0
 71
3
 72
15
 73
11
 74
0
 42
0.0000001
 43
0.0000001
 44
0.0000000001
 40
0.0
 40
0.0
 40
0.0
 40
0.0
 40
0.1491697976
 40
0.2905808835
 40
0.4240993518
 40
0.5501127183
 40
0.6693580903
 40
0.7829779169
 40
0.8925502419
 40
1.0
 40
1.0
 40
1.0
 40
1.0
 10
22.1175018707
 20
59.5521609008
 30
0.0
 10
21.8172600645
 20
59.7321700234
 30
0.0
 10
21.2173911296
 20
60.0587252176
 30
0.0
 10
20.300898958
 20
60.4508505094
 30
0.0
 10
19.3997274935
 20
60.72825832
 30
0.0
 10
18.5228716324
 20
60.8877532605
 30
0.0
 10
17.6788236952
 20
60.9273165932
 30
0.0
 10
16.8760688924
 20
60.8454682453
 30
0.0
 10
16.1236082846
 20
60.6423280549
 30
0.0
 10
15.6591337984
 20
60.4260765148
 30
0.0
 10
15.4407591131
 20
60.2999899929
 30
0.0
  0
SPLINE
  5
33C
100
AcDbEntity
  8
00_COMPONENTS_1
100
AcDbSpline
 62
7
  6
BYLAYER
 70
0
 71
3
 72
15
 73
11
 74
0
 42
0.0000001
 43
0.0000001
 44
0.0000000001
 40
0.0
 40
0.0
 40
0.0
 40
0.0
 40
0.1485745559
 40
0.2895099512
 40
0.4227259459
 40
0.5486401763
 40
0.6680015876
 40
0.7819390821
 40
0.8919871531
 40
1.0
 40
1.0
 40
1.0
 40
1.0
 10
11.0724471985
 20
55.4224560295
 30
0.0
 10
11.0724471985
 20
55.8260978304
 30
0.0
 10
11.1050243434
 20
56.6131679463
 30
0.0
 10
11.2599078072
 20
57.7529449641
 30
0.0
 10
11.5187260667
 20
58.8108728822
 30
0.0
 10
11.879422584
 20
59.7766250014
 30
0.0
 10
12.3391039865
 20
60.6409995589
 30
0.0
 10
12.8943622084
 20
61.3950955073
 30
0.0
 10
13.5399794256
 20
62.0304329752
 30
0.0
 10
14.028553542
 20
62.3714120905
 30
0.0
 10
14.2826885523
 20
62.5181278716
 30
0.0
  0
SPLINE
  5
33D
100
AcDbEntity
  8
00_COMPONENTS_1
100
AcDbSpline
 62
7
  6
BYLAYER
 70
0
 71
3
 72
11
 73
7
 74
0
 42
0.0000001
 43
0.0000001
 44
0.0000000001
 40
0.0
 40
0.0
 40
0.0
 40
0.0
 40
0.2372539654
 40
0.5000012591
 40
0.7627478695
 40
1.0
 40
1.0
 40
1.0
 40
1.0
 10
40.0925210076
 20
47.6086281139
 30
0.0
 10
40.0925210076
 20
47.6665910554
 30
0.0
 10
40.0707888747
 20
47.7888275677
 30
0.0
 10
39.9949859971
 20
47.9605657169
 30
0.0
 10
39.8841573781
 20
48.1120811166
 30
0.0
 10
39.7891634205
 20
48.1920189448
 30
0.0
 10
39.738966145
 20
48.2209996997
 30
0.0
  0
SPLINE
  5
33E
100
AcDbEntity
  8
00_COMPONENTS_1
100
AcDbSpline
 62
7
  6
BYLAYER
 70
0
 71
3
 72
13
 73
9
 74
0
 42
0.0000001
 43
0.0000001
 44
0.0000000001
 40
0.0
 40
0.0
 40
0.0
 40
0.0
 40
0.1141759018
 40
0.2375697245
 40
0.4999990825
 40
0.762428944
 40
0.8858232992
 40
1.0
 40
1.0
 40
1.0
 40
1.0
 10
64.0699843085
 20
85.3266390877
 30
0.0
 10
64.0216117205
 20
85.3545663826
 30
0.0
 10
63.9260134513
 20
85.4216463138
 30
0.0
 10
63.7469196178
 20
85.58910711
 30
0.0
 10
63.5579199924
 20
85.8474933314
 30
0.0
 10
63.4286494641
 20
86.1403645662
 30
0.0
 10
63.3731693303
 20
86.3791952806
 30
0.0
 10
63.3628745834
 20
86.4955263309
 30
0.0
 10
63.3628745834
 20
86.5513822593
 30
0.0
  0
SPLINE
  5
33F
100
AcDbEntity
  8
00_COMPONENTS_1
100
AcDbSpline
 62
7
  6
BYLAYER
 70
0
 71
3
 72
11
 73
7
 74
0
 42
0.0000001
 43
0.0000001
 44
0.0000000001
 40
0.0
 40
0.0
 40
0.0
 40
0.0
 40
0.2897048043
 40
0.5490913404
 40
0.7822177947
 40
1.0
 40
1.0
 40
1.0
 40
1.0
 10
58.4839199299
 20
76.8760611355
 30
0.0
 10
58.5387681954
 20
76.9077276073
 30
0.0
 10
58.6382767752
 20
76.9762660469
 30
0.0
 10
58.7572033921
 20
77.1012525024
 30
0.0
 10
58.832432471
 20
77.2395178041
 30
0.0
 10
58.8500265449
 20
77.3387520642
 30
0.0
 10
58.8500265361
 20
77.3863620786
 30
0.0
  0
SPLINE
  5
340
100
AcDbEntity
  8
00_COMPONENTS_1
100
AcDbSpline
 62
7
  6
BYLAYER
 70
0
 71
3
 72
13
 73
9
 74
0
 42
0.0000001
 43
0.0000001
 44
0.0000000001
 40
0.0
 40
0.0
 40
0.0
 40
0.0
 40
0.1142253587
 40
0.237559206
 40
0.5000004539
 40
0.7624414493
 40
0.885775028
 40
1.0
 40
1.0
 40
1.0
 40
1.0
 10
56.7161529769
 20
76.8760568863
 30
0.0
 10
56.7766452974
 20
76.8411324189
 30
0.0
 10
56.9089862582
 20
76.7795243503
 30
0.0
 10
57.2022387724
 20
76.6904279513
 30
0.0
 10
57.6000377293
 20
76.6471768704
 30
0.0
 10
57.9978363548
 20
76.6904297451
 30
0.0
 10
58.2910878488
 20
76.7795276132
 30
0.0
 10
58.4234280661
 20
76.8411363501
 30
0.0
 10
58.4839199299
 20
76.8760611355
 30
0.0
  0
SPLINE
  5
341
100
AcDbEntity
  8
00_COMPONENTS_1
100
AcDbSpline
 62
7
  6
BYLAYER
 70
0
 71
3
 72
11
 73
7
 74
0
 42
0.0000001
 43
0.0000001
 44
0.0000000001
 40
0.0
 40
0.0
 40
0.0
 40
0.0
 40
0.2897052857
 40
0.5490919933
 40
0.7822182543
 40
1.0
 40
1.0
 40
1.0
 40
1.0
 10
59.226371599
 20
78.3253236325
 30
0.0
 10
59.3272942954
 20
78.2670572047
 30
0.0
 10
59.5103935573
 20
78.1409459948
 30
0.0
 10
59.7292229781
 20
77.9109692122
 30
0.0
 10
59.8676474648
 20
77.6565585925
 30
0.0
 10
59.9000213213
 20
77.4739654486
 30
0.0
 10
59.9000212967
 20
77.3863620786
 30
0.0
  0
SPLINE
  5
342
100
AcDbEntity
  8
00_COMPONENTS_1
100
AcDbSpline
 62
7
  6
BYLAYER
 70
0
 71
3
 72
15
 73
11
 74
0
 42
0.0000001
 43
0.0000001
 44
0.0000000001
 40
0.0
 40
0.0
 40
0.0
 40
0.0
 40
0.1141231812
 40
0.2373468278
 40
0.366971913
 40
0.4999994099
 40
0.6330269884
 40
0.76265231
 40
0.885876356
 40
1.0
 40
1.0
 40
1.0
 40
1.0
 10
55.9736804056
 20
78.325315814
 30
0.0
 10
56.0849853978
 20
78.3895773976
 30
0.0
 10
56.3284809649
 20
78.5029092558
 30
0.0
 10
56.7249082094
 20
78.623477228
 30
0.0
 10
57.154176058
 20
78.6976009284
 30
0.0
 10
57.6000230355
 20
78.7226699019
 30
0.0
 10
58.0458703996
 20
78.6976030954
 30
0.0
 10
58.4751394224
 20
78.623481464
 30
0.0
 10
58.8715685099
 20
78.5029153291
 30
0.0
 10
59.1150656921
 20
78.3895846741
 30
0.0
 10
59.226371599
 20
78.3253236325
 30
0.0
  0
SPLINE
  5
343
100
AcDbEntity
  8
00_COMPONENTS_1
100
AcDbSpline
 62
7
  6
BYLAYER
 70
0
 71
3
 72
15
 73
11
 74
0
 42
0.0000001
 43
0.0000001
 44
0.0000000001
 40
0.0
 40
0.0
 40
0.0
 40
0.0
 40
0.1141231812
 40
0.2373468278
 40
0.366971913
 40
0.4999994099
 40
0.6330269884
 40
0.76265231
 40
0.885876356
 40
1.0
 40
1.0
 40
1.0
 40
1.0
 10
41.1243761775
 20
86.8983716589
 30
0.0
 10
41.2356811697
 20
86.9626332425
 30
0.0
 10
41.4791767368
 20
87.0759651007
 30
0.0
 10
41.8756039813
 20
87.1965330729
 30
0.0
 10
42.3048718299
 20
87.2706567733
 30
0.0
 10
42.7507188074
 20
87.2957257468
 30
0.0
 10
43.1965661715
 20
87.2706589404
 30
0.0
 10
43.6258351943
 20
87.1965373089
 30
0.0
 10
44.0222642818
 20
87.075971174
 30
0.0
 10
44.265761464
 20
86.962640519
 30
0.0
 10
44.377067371
 20
86.8983794774
 30
0.0
  0
SPLINE
  5
344
100
AcDbEntity
  8
00_COMPONENTS_1
100
AcDbSpline
 62
7
  6
BYLAYER
 70
0
 71
3
 72
11
 73
7
 74
0
 42
0.0000001
 43
0.0000001
 44
0.0000000001
 40
0.0
 40
0.0
 40
0.0
 40
0.0
 40
0.2897052857
 40
0.5490919933
 40
0.7822182543
 40
1.0
 40
1.0
 40
1.0
 40
1.0
 10
44.377067371
 20
86.8983794774
 30
0.0
 10
44.4779900674
 20
86.8401130497
 30
0.0
 10
44.6610893292
 20
86.7140018398
 30
0.0
 10
44.87991875
 20
86.4840250572
 30
0.0
 10
45.0183432367
 20
86.2296144374
 30
0.0
 10
45.0507170932
 20
86.0470212935
 30
0.0
 10
45.0507170687
 20
85.9594179236
 30
0.0
  0
SPLINE
  5
345
100
AcDbEntity
  8
00_COMPONENTS_1
100
AcDbSpline
 62
7
  6
BYLAYER
 70
0
 71
3
 72
11
 73
7
 74
0
 42
0.0000001
 43
0.0000001
 44
0.0000000001
 40
0.0
 40
0.0
 40
0.0
 40
0.0
 40
0.2895391946
 40
0.5491157945
 40
0.7822541179
 40
1.0
 40
1.0
 40
1.0
 40
1.0
 10
39.738966145
 20
42.0972315712
 30
0.0
 10
39.7608927739
 20
42.0845725125
 30
0.0
 10
39.804548303
 20
42.063832483
 30
0.0
 10
39.8716203957
 20
42.0475979494
 30
0.0
 10
39.9345861014
 20
42.0491796768
 30
0.0
 10
39.9724613449
 20
42.0629733805
 30
0.0
 10
39.9889510374
 20
42.07249366
 30
0.0
  0
SPLINE
  5
346
100
AcDbEntity
  8
00_COMPONENTS_1
100
AcDbSpline
 62
7
  6
BYLAYER
 70
0
 71
3
 72
15
 73
11
 74
0
 42
0.0000001
 43
0.0000001
 44
0.0000000001
 40
0.0
 40
0.0
 40
0.0
 40
0.0
 40
0.1485721306
 40
0.2895074657
 40
0.4227237796
 40
0.5486379409
 40
0.6679994355
 40
0.7819360617
 40
0.8919848772
 40
1.0
 40
1.0
 40
1.0
 40
1.0
 10
33.9828022933
 20
42.195455583
 30
0.0
 10
33.9828022933
 20
41.7553628275
 30
0.0
 10
33.9472822556
 20
40.8972096335
 30
0.0
 10
33.7784149581
 20
39.6544904879
 30
0.0
 10
33.496224149
 20
38.5010051651
 30
0.0
 10
33.1029451464
 20
37.4480241367
 30
0.0
 10
32.6017571037
 20
36.5055722717
 30
0.0
 10
31.9963435992
 20
35.6833664152
 30
0.0
 10
31.2924123955
 20
34.9906330102
 30
0.0
 10
30.7596971073
 20
34.6188581389
 30
0.0
 10
30.482606246
 20
34.45887986
 30
0.0
  0
SPLINE
  5
347
100
AcDbEntity
  8
00_COMPONENTS_1
100
AcDbSpline
 62
7
  6
BYLAYER
 70
0
 71
3
 72
25
 73
21
 74
0
 42
0.0000001
 43
0.0000001
 44
0.0000000001
 40
0.0
 40
0.0
 40
0.0
 40
0.0
 40
0.0623822226
 40
0.1287225625
 40
0.1983143276
 40
0.270290416
 40
0.3436676765
 40
0.417400156
 40
0.4904250433
 40
0.5617118574
 40
0.6303091502
 40
0.6953966388
 40
0.7563441309
 40
0.8127814085
 40
0.8646820653
 40
0.9124571123
 40
0.935101727
 40
0.957107269
 40
0.9786677518
 40
1.0
 40
1.0
 40
1.0
 40
1.0
 10
10.7896033085
 20
55.5857523313
 30
0.0
 10
10.7896033085
 20
54.9261329616
 30
0.0
 10
10.87897451
 20
53.5641340491
 30
0.0
 10
11.2466792245
 20
51.4961304696
 30
0.0
 10
11.8445450533
 20
49.3770944386
 30
0.0
 10
12.65971013
 20
47.252346269
 30
0.0
 10
13.6748882275
 20
45.1669116621
 30
0.0
 10
14.8683917053
 20
43.1652832016
 30
0.0
 10
16.2147766425
 20
41.2901678862
 30
0.0
 10
17.6853474549
 20
39.5815326352
 30
0.0
 10
19.2489023326
 20
38.0756999261
 30
0.0
 10
20.8725508331
 20
36.8045889315
 30
0.0
 10
22.5225260444
 20
35.7951231082
 30
0.0
 10
24.1654996381
 20
35.0690708764
 30
0.0
 10
25.7681566753
 20
34.6431065483
 30
0.0
 10
27.0680107806
 20
34.5476545973
 30
0.0
 10
28.0429056562
 20
34.6392019468
 30
0.0
 10
28.7293131701
 20
34.7855399128
 30
0.0
 10
29.3794571738
 20
35.010349833
 30
0.0
 10
29.7872646922
 20
35.2121245566
 30
0.0
 10
29.982608855
 20
35.3249059141
 30
0.0
  0
SPLINE
  5
348
100
AcDbEntity
  8
00_COMPONENTS_1
100
AcDbSpline
 62
7
  6
BYLAYER
 70
0
 71
3
 72
20
 73
16
 74
0
 42
0.0000001
 43
0.0000001
 44
0.0000000001
 40
0.0
 40
0.0
 40
0.0
 40
0.0
 40
0.062391566
 40
0.1288092028
 40
0.270302454
 40
0.4173641359
 40
0.5616164248
 40
0.63025275
 40
0.6953793645
 40
0.756361699
 40
0.8128309702
 40
0.8647637112
 40
0.9125656354
 40
0.9571671258
 40
1.0
 40
1.0
 40
1.0
 40
1.0
 10
18.4616631616
 20
73.7732172295
 30
0.0
 10
18.4616631616
 20
73.6425956451
 30
0.0
 10
18.4794278529
 20
73.3727337319
 30
0.0
 10
18.5785826202
 20
72.8147310393
 30
0.0
 10
18.8182662117
 20
72.1062779616
 30
0.0
 10
19.2512859885
 20
71.3060479751
 30
0.0
 10
19.717755474
 20
70.7086113993
 30
0.0
 10
20.1375595538
 20
70.3042788526
 30
0.0
 10
20.4592207201
 20
70.0524239087
 30
0.0
 10
20.7861130988
 20
69.8524563297
 30
0.0
 10
21.1115853681
 20
69.708625605
 30
0.0
 10
21.4291548379
 20
69.6242030854
 30
0.0
 10
21.7326062629
 20
69.601929891
 30
0.0
 10
22.015199101
 20
69.643282285
 30
0.0
 10
22.1863743176
 20
69.7144681201
 30
0.0
 10
22.2640423005
 20
69.7592911156
 30
0.0
  0
SPLINE
  5
349
100
AcDbEntity
  8
00_COMPONENTS_1
100
AcDbSpline
 62
7
  6
BYLAYER
 70
0
 71
3
 72
25
 73
21
 74
0
 42
0.0000001
 43
0.0000001
 44
0.0000000001
 40
0.0
 40
0.0
 40
0.0
 40
0.0
 40
0.0213325874
 40
0.0428934176
 40
0.0648993216
 40
0.0875443369
 40
0.1353201649
 40
0.1872215055
 40
0.2436592668
 40
0.3046069571
 40
0.3696942837
 40
0.4382910032
 40
0.5095769056
 40
0.5826006919
 40
0.6563321677
 40
0.7297087171
 40
0.8016843394
 40
0.8712759803
 40
0.9376170101
 40
1.0
 40
1.0
 40
1.0
 40
1.0
 10
13.5826896306
 20
63.7305688088
 30
0.0
 10
13.7903226478
 20
63.8504456339
 30
0.0
 10
14.2237864765
 20
64.064911986
 30
0.0
 10
14.9148316586
 20
64.3038630392
 30
0.0
 10
15.6444224456
 20
64.4594042178
 30
0.0
 10
16.6806496046
 20
64.5567019661
 30
0.0
 10
18.0622757168
 20
64.4552346552
 30
0.0
 10
19.7657461155
 20
64.0024597836
 30
0.0
 10
21.5120593188
 20
63.2307243441
 30
0.0
 10
23.2658042535
 20
62.1577554927
 30
0.0
 10
24.9915567051
 20
60.8066948793
 30
0.0
 10
26.6534282496
 20
59.2061618621
 30
0.0
 10
28.2164631144
 20
57.3900827406
 30
0.0
 10
29.6475031114
 20
55.3970610008
 30
0.0
 10
30.9160514197
 20
53.2695702247
 30
0.0
 10
31.9950677872
 20
51.0529991091
 30
0.0
 10
32.8614972843
 20
48.7946334666
 30
0.0
 10
33.4969710832
 20
46.5423254773
 30
0.0
 10
33.8878062158
 20
44.3442444169
 30
0.0
 10
33.9828022933
 20
42.8965690314
 30
0.0
 10
33.9828022933
 20
42.195455583
 30
0.0
  0
SPLINE
  5
34A
100
AcDbEntity
  8
00_COMPONENTS_1
100
AcDbSpline
 62
7
  6
BYLAYER
 70
0
 71
3
 72
20
 73
16
 74
0
 42
0.0000001
 43
0.0000001
 44
0.0000000001
 40
0.0
 40
0.0
 40
0.0
 40
0.0
 40
0.062391566
 40
0.1288092028
 40
0.270302454
 40
0.4173641359
 40
0.5616164248
 40
0.63025275
 40
0.6953793645
 40
0.756361699
 40
0.8128309702
 40
0.8647637112
 40
0.9125656354
 40
0.9571671258
 40
1.0
 40
1.0
 40
1.0
 40
1.0
 10
40.5234865862
 20
61.0361056885
 30
0.0
 10
40.5234865862
 20
60.905484104
 30
0.0
 10
40.5412512774
 20
60.6356221909
 30
0.0
 10
40.6404060448
 20
60.0776194983
 30
0.0
 10
40.8800896363
 20
59.3691664206
 30
0.0
 10
41.3131094131
 20
58.5689364341
 30
0.0
 10
41.7795788986
 20
57.9714998583
 30
0.0
 10
42.1993829784
 20
57.5671673116
 30
0.0
 10
42.5210441447
 20
57.3153123677
 30
0.0
 10
42.8479365234
 20
57.1153447887
 30
0.0
 10
43.1734087926
 20
56.971514064
 30
0.0
 10
43.4909782625
 20
56.8870915444
 30
0.0
 10
43.7944296875
 20
56.86481835
 30
0.0
 10
44.0770225256
 20
56.906170744
 30
0.0
 10
44.2481977422
 20
56.977356579
 30
0.0
 10
44.3258657251
 20
57.0221795746
 30
0.0
  0
SPLINE
  5
34B
100
AcDbEntity
  8
00_COMPONENTS_1
100
AcDbSpline
 62
7
  6
BYLAYER
 70
0
 71
3
 72
15
 73
11
 74
0
 42
0.0000001
 43
0.0000001
 44
0.0000000001
 40
0.0
 40
0.0
 40
0.0
 40
0.0
 40
0.1080135896
 40
0.2180611474
 40
0.3319969311
 40
0.451358023
 40
0.5772718589
 40
0.7104888138
 40
0.8514266078
 40
1.0
 40
1.0
 40
1.0
 40
1.0
 10
14.0826870215
 20
62.8645427547
 30
0.0
 10
13.8219954833
 20
62.7140332891
 30
0.0
 10
13.3208074406
 20
62.3642624121
 30
0.0
 10
12.6585360596
 20
61.7125266793
 30
0.0
 10
12.088945369
 20
60.9389812529
 30
0.0
 10
11.6174125342
 20
60.0523010923
 30
0.0
 10
11.2474002032
 20
59.0616286615
 30
0.0
 10
10.9818999186
 20
57.9763904881
 30
0.0
 10
10.8230252015
 20
56.8071926678
 30
0.0
 10
10.7896033085
 20
55.9998076041
 30
0.0
 10
10.7896033085
 20
55.5857523313
 30
0.0
  0
SPLINE
  5
34C
100
AcDbEntity
  8
00_COMPONENTS_1
100
AcDbSpline
 62
7
  6
BYLAYER
 70
0
 71
3
 72
12
 73
8
 74
0
 42
0.0000001
 43
0.0000001
 44
0.0000000001
 40
0.0
 40
0.0
 40
0.0
 40
0.0
 40
0.1081631901
 40
0.2183736225
 40
0.4513417426
 40
0.7104802902
 40
1.0
 40
1.0
 40
1.0
 40
1.0
 10
41.1758987158
 20
62.4781150489
 30
0.0
 10
41.1242477835
 20
62.4483067621
 30
0.0
 10
41.0249537358
 20
62.3789878235
 30
0.0
 10
40.846870987
 20
62.2037653178
 30
0.0
 10
40.670381345
 20
61.9161812425
 30
0.0
 10
40.54772793
 20
61.4993013619
 30
0.0
 10
40.5234865862
 20
61.195730745
 30
0.0
 10
40.5234865862
 20
61.0361056885
 30
0.0
  0
SPLINE
  5
34D
100
AcDbEntity
  8
00_COMPONENTS_1
100
AcDbSpline
 62
7
  6
BYLAYER
 70
0
 71
3
 72
20
 73
16
 74
0
 42
0.0000001
 43
0.0000001
 44
0.0000000001
 40
0.0
 40
0.0
 40
0.0
 40
0.0
 40
0.062391566
 40
0.1288092028
 40
0.270302454
 40
0.4173641359
 40
0.5616164248
 40
0.63025275
 40
0.6953793645
 40
0.756361699
 40
0.8128309702
 40
0.8647637112
 40
0.9125656354
 40
0.9571671258
 40
1.0
 40
1.0
 40
1.0
 40
1.0
 10
40.5234865862
 20
38.1740380088
 30
0.0
 10
40.5234865862
 20
38.0434164244
 30
0.0
 10
40.5412512774
 20
37.7735545113
 30
0.0
 10
40.6404060448
 20
37.2155518186
 30
0.0
 10
40.8800896363
 20
36.507098741
 30
0.0
 10
41.3131094131
 20
35.7068687545
 30
0.0
 10
41.7795788986
 20
35.1094321786
 30
0.0
 10
42.1993829784
 20
34.705099632
 30
0.0
 10
42.5210441447
 20
34.453244688
 30
0.0
 10
42.8479365234
 20
34.2532771091
 30
0.0
 10
43.1734087926
 20
34.1094463844
 30
0.0
 10
43.4909782625
 20
34.0250238648
 30
0.0
 10
43.7944296875
 20
34.0027506703
 30
0.0
 10
44.0770225256
 20
34.0441030644
 30
0.0
 10
44.2481977422
 20
34.1152888994
 30
0.0
 10
44.3258657251
 20
34.1601118949
 30
0.0
  0
SPLINE
  5
34E
100
AcDbEntity
  8
00_COMPONENTS_1
100
AcDbSpline
 62
7
  6
BYLAYER
 70
0
 71
3
 72
15
 73
11
 74
0
 42
0.0000001
 43
0.0000001
 44
0.0000000001
 40
0.0
 40
0.0
 40
0.0
 40
0.0
 40
0.1085217579
 40
0.219001295
 40
0.3332294325
 40
0.4527011323
 40
0.5785290988
 40
0.7114741128
 40
0.8519787042
 40
1.0
 40
1.0
 40
1.0
 40
1.0
 10
14.6907624761
 20
61.5990300223
 30
0.0
 10
14.9232574053
 20
61.7332522604
 30
0.0
 10
15.4161229653
 20
61.965184292
 30
0.0
 10
16.2126548594
 20
62.1901889106
 30
0.0
 10
17.0612004684
 20
62.2922121582
 30
0.0
 10
17.9530866378
 20
62.2708194802
 30
0.0
 10
18.880075473
 20
62.1272643624
 30
0.0
 10
19.8339352216
 20
61.8632363399
 30
0.0
 10
20.8059258677
 20
61.4815658824
 30
0.0
 10
21.4441107927
 20
61.1595228783
 30
0.0
 10
21.7639470082
 20
60.9812379971
 30
0.0
  0
SPLINE
  5
34F
100
AcDbEntity
  8
00_COMPONENTS_1
100
AcDbSpline
 62
7
  6
BYLAYER
 70
0
 71
3
 72
11
 73
7
 74
0
 42
0.0000001
 43
0.0000001
 44
0.0000000001
 40
0.0
 40
0.0
 40
0.0
 40
0.0
 40
0.2895391946
 40
0.5491157945
 40
0.7822541179
 40
1.0
 40
1.0
 40
1.0
 40
1.0
 10
31.7199705081
 20
70.6502914973
 30
0.0
 10
31.761631103
 20
70.6262392858
 30
0.0
 10
31.8445766083
 20
70.5868332298
 30
0.0
 10
31.9720135846
 20
70.5559876158
 30
0.0
 10
32.0916484252
 20
70.5589928979
 30
0.0
 10
32.163611388
 20
70.585200935
 30
0.0
 10
32.1949418037
 20
70.603289466
 30
0.0
  0
SPLINE
  5
350
100
AcDbEntity
  8
00_COMPONENTS_1
100
AcDbSpline
 62
7
  6
BYLAYER
 70
0
 71
3
 72
13
 73
9
 74
0
 42
0.0000001
 43
0.0000001
 44
0.0000000001
 40
0.0
 40
0.0
 40
0.0
 40
0.0
 40
0.1141767831
 40
0.2375713001
 40
0.500001251
 40
0.7624305195
 40
0.8858241805
 40
1.0
 40
1.0
 40
1.0
 40
1.0
 10
31.0482162692
 20
71.8137975104
 30
0.0
 10
31.0482162692
 20
71.7607343401
 30
0.0
 10
31.0579963404
 20
71.6502197334
 30
0.0
 10
31.1107024732
 20
71.4233303993
 30
0.0
 10
31.2335096063
 20
71.1451026852
 30
0.0
 10
31.4130592805
 20
70.8996359089
 30
0.0
 10
31.5831982905
 20
70.7405482353
 30
0.0
 10
31.6740165826
 20
70.6768224084
 30
0.0
 10
31.7199705081
 20
70.6502914973
 30
0.0
  0
SPLINE
  5
351
100
AcDbEntity
  8
00_COMPONENTS_1
100
AcDbSpline
 62
7
  6
BYLAYER
 70
0
 71
3
 72
15
 73
11
 74
0
 42
0.0000001
 43
0.0000001
 44
0.0000000001
 40
0.0
 40
0.0
 40
0.0
 40
0.0
 40
0.1482648636
 40
0.2890573384
 40
0.4222752916
 40
0.5483060916
 40
0.6678546303
 40
0.7819723559
 40
0.8921026283
 40
1.0
 40
1.0
 40
1.0
 40
1.0
 10
12.8402215114
 20
54.4018541432
 30
0.0
 10
12.8402215114
 20
54.7345363281
 30
0.0
 10
12.866633358
 20
55.3835611391
 30
0.0
 10
12.992013928
 20
56.3241879452
 30
0.0
 10
13.2015624318
 20
57.198835585
 30
0.0
 10
13.4936364549
 20
57.9992448041
 30
0.0
 10
13.865925241
 20
58.7181050397
 30
0.0
 10
14.315838184
 20
59.3482845233
 30
0.0
 10
14.8392135473
 20
59.8831020976
 30
0.0
 10
15.236135547
 20
60.1736365139
 30
0.0
 10
15.4428181212
 20
60.2997186909
 30
0.0
  0
SPLINE
  5
352
100
AcDbEntity
  8
00_COMPONENTS_1
100
AcDbSpline
 62
7
  6
BYLAYER
 70
0
 71
3
 72
12
 73
8
 74
0
 42
0.0000001
 43
0.0000001
 44
0.0000000001
 40
0.0
 40
0.0
 40
0.0
 40
0.0
 40
0.1081631901
 40
0.2183736225
 40
0.4513417426
 40
0.7104802902
 40
1.0
 40
1.0
 40
1.0
 40
1.0
 10
19.1140752912
 20
75.2152265899
 30
0.0
 10
19.0624243589
 20
75.1854183032
 30
0.0
 10
18.9631303112
 20
75.1160993645
 30
0.0
 10
18.7850475624
 20
74.9408768588
 30
0.0
 10
18.6085579204
 20
74.6532927836
 30
0.0
 10
18.4859045054
 20
74.2364129029
 30
0.0
 10
18.4616631616
 20
73.9328422861
 30
0.0
 10
18.4616631616
 20
73.7732172295
 30
0.0
  0
SPLINE
  5
353
100
AcDbEntity
  8
00_COMPONENTS_1
100
AcDbSpline
 62
7
  6
BYLAYER
 70
0
 71
3
 72
15
 73
11
 74
0
 42
0.0000001
 43
0.0000001
 44
0.0000000001
 40
0.0
 40
0.0
 40
0.0
 40
0.0
 40
0.1117764948
 40
0.2305862204
 40
0.3550790301
 40
0.4836014352
 40
0.6143027687
 40
0.7452311255
 40
0.8744243268
 40
1.0
 40
1.0
 40
1.0
 40
1.0
 10
22.2094253696
 20
61.64680533
 30
0.0
 10
22.7781043034
 20
61.3078932211
 30
0.0
 10
23.9059064556
 20
60.530869904
 30
0.0
 10
25.4975210114
 20
59.1509079605
 30
0.0
 10
27.0119612968
 20
57.5474117991
 30
0.0
 10
28.4154450482
 20
55.7561072835
 30
0.0
 10
29.6769815919
 20
53.8166823055
 30
0.0
 10
30.7685242215
 20
51.7721848259
 30
0.0
 10
31.6657283401
 20
49.6683516499
 30
0.0
 10
32.1298876441
 20
48.2298032782
 30
0.0
 10
32.3226773784
 20
47.5114877404
 30
0.0
  0
SPLINE
  5
354
100
AcDbEntity
  8
00_COMPONENTS_1
100
AcDbSpline
 62
7
  6
BYLAYER
 70
0
 71
3
 72
11
 73
7
 74
0
 42
0.0000001
 43
0.0000001
 44
0.0000000001
 40
0.0
 40
0.0
 40
0.0
 40
0.0
 40
0.217745073
 40
0.4508830113
 40
0.7104597664
 40
1.0
 40
1.0
 40
1.0
 40
1.0
 10
31.2449992125
 20
72.2486481212
 30
0.0
 10
31.2136680751
 20
72.2305591736
 30
0.0
 10
31.1549882238
 20
72.1813402989
 30
0.0
 10
31.0925671336
 20
72.0792331421
 30
0.0
 10
31.0555616592
 20
71.9534428856
 30
0.0
 10
31.0482162692
 20
71.8619042091
 30
0.0
 10
31.0482162692
 20
71.8137975104
 30
0.0
  0
SPLINE
  5
355
100
AcDbEntity
  8
00_COMPONENTS_1
100
AcDbSpline
 62
7
  6
BYLAYER
 70
0
 71
3
 72
15
 73
11
 74
0
 42
0.0000001
 43
0.0000001
 44
0.0000000001
 40
0.0
 40
0.0
 40
0.0
 40
0.0
 40
0.1485639583
 40
0.2895079168
 40
0.4227268717
 40
0.5486378125
 40
0.6680001202
 40
0.78193677
 40
0.8919851716
 40
1.0
 40
1.0
 40
1.0
 40
1.0
 10
32.1938154541
 20
43.1221616539
 30
0.0
 10
32.1938154541
 20
42.7445881958
 30
0.0
 10
32.1633217943
 20
42.0083034407
 30
0.0
 10
32.0184645043
 20
40.942054112
 30
0.0
 10
31.7763342137
 20
39.9523582776
 30
0.0
 10
31.4388964268
 20
39.0489185903
 30
0.0
 10
31.0089014526
 20
38.2402999278
 30
0.0
 10
30.489431148
 20
37.5348859332
 30
0.0
 10
29.8855185703
 20
36.9404719009
 30
0.0
 10
29.4284098882
 20
36.6215623915
 30
0.0
 10
29.1906786722
 20
36.4842882426
 30
0.0
  0
SPLINE
  5
356
100
AcDbEntity
  8
00_COMPONENTS_1
100
AcDbSpline
 62
7
  6
BYLAYER
 70
0
 71
3
 72
9
 73
5
 74
0
 42
0.0000001
 43
0.0000001
 44
0.0000000001
 40
0.0
 40
0.0
 40
0.0
 40
0.0
 40
0.5162640388
 40
1.0
 40
1.0
 40
1.0
 40
1.0
 10
31.6828905893
 20
47.1078710375
 30
0.0
 10
31.8471558242
 20
46.4348988372
 30
0.0
 10
32.0988827341
 20
45.1139123463
 30
0.0
 10
32.1938154541
 20
43.7712449065
 30
0.0
 10
32.1938154541
 20
43.1221616539
 30
0.0
  0
SPLINE
  5
357
100
AcDbEntity
  8
00_COMPONENTS_1
100
AcDbSpline
 62
7
  6
BYLAYER
 70
0
 71
3
 72
25
 73
21
 74
0
 42
0.0000001
 43
0.0000001
 44
0.0000000001
 40
0.0
 40
0.0
 40
0.0
 40
0.0
 40
0.0623810176
 40
0.1287237782
 40
0.1983146998
 40
0.270291334
 40
0.3436680234
 40
0.4174005569
 40
0.4904255685
 40
0.5617125635
 40
0.6303099719
 40
0.6953973781
 40
0.7563446147
 40
0.8127815693
 40
0.8646819435
 40
0.9124568191
 40
0.9351018266
 40
0.9571070769
 40
0.9786677797
 40
1.0
 40
1.0
 40
1.0
 40
1.0
 10
12.7482980125
 20
54.3487824032
 30
0.0
 10
12.7482980125
 20
53.8094815673
 30
0.0
 10
12.8213802449
 20
52.6958886635
 30
0.0
 10
13.1220016006
 20
51.0050619263
 30
0.0
 10
13.6108519572
 20
49.2725062697
 30
0.0
 10
14.277325036
 20
47.5352947183
 30
0.0
 10
15.1073511826
 20
45.8302255404
 30
0.0
 10
16.083163306
 20
44.1936741105
 30
0.0
 10
17.1839795002
 20
42.6605565235
 30
0.0
 10
18.3863313273
 20
41.2635538072
 30
0.0
 10
19.6647096952
 20
40.0323677155
 30
0.0
 10
20.992222442
 20
38.9931006859
 30
0.0
 10
22.3412583152
 20
38.1677601102
 30
0.0
 10
23.6845657992
 20
37.5741503509
 30
0.0
 10
24.9949118467
 20
37.2258671224
 30
0.0
 10
26.0576773767
 20
37.1478838066
 30
0.0
 10
26.8547743006
 20
37.222629293
 30
0.0
 10
27.4159704365
 20
37.3423679238
 30
0.0
 10
27.9475587013
 20
37.5260956357
 30
0.0
 10
28.2809744463
 20
37.6911044022
 30
0.0
 10
28.4406836421
 20
37.7833256343
 30
0.0
  0
SPLINE
  5
358
100
AcDbEntity
  8
00_COMPONENTS_1
100
AcDbSpline
 62
7
  6
BYLAYER
 70
0
 71
3
 72
15
 73
11
 74
0
 42
0.0000001
 43
0.0000001
 44
0.0000000001
 40
0.0
 40
0.0
 40
0.0
 40
0.0
 40
0.1080128444
 40
0.2180609183
 40
0.3319984174
 40
0.4513598114
 40
0.5772740886
 40
0.71049006
 40
0.8514253418
 40
1.0
 40
1.0
 40
1.0
 40
1.0
 10
29.2826099016
 20
36.5373469065
 30
0.0
 10
29.5203492841
 20
36.6745968332
 30
0.0
 10
29.9774022193
 20
36.9935777287
 30
0.0
 10
30.581367171
 20
37.5879252129
 30
0.0
 10
31.1008016927
 20
38.2933702452
 30
0.0
 10
31.5308267696
 20
39.1019784797
 30
0.0
 10
31.8682522411
 20
40.0054241882
 30
0.0
 10
32.1103724562
 20
40.9950984507
 30
0.0
 10
32.2552637789
 20
42.0613413486
 30
0.0
 10
32.2857389529
 20
42.7976327379
 30
0.0
 10
32.2857389529
 20
43.1752333939
 30
0.0
  0
SPLINE
  5
359
100
AcDbEntity
  8
00_COMPONENTS_1
100
AcDbSpline
 62
7
  6
BYLAYER
 70
0
 71
3
 72
11
 73
7
 74
0
 42
0.0000001
 43
0.0000001
 44
0.0000000001
 40
0.0
 40
0.0
 40
0.0
 40
0.0
 40
0.2177817009
 40
0.4509079353
 40
0.7102947134
 40
1.0
 40
1.0
 40
1.0
 40
1.0
 10
58.8500265361
 20
77.3863620786
 30
0.0
 10
58.8500265273
 20
77.4339725958
 30
0.0
 10
58.8324320832
 20
77.5332079841
 30
0.0
 10
58.7572013784
 20
77.6714746317
 30
0.0
 10
58.6382723308
 20
77.7964620076
 30
0.0
 10
58.5387618615
 20
77.8650007341
 30
0.0
 10
58.48391257
 20
77.8966672709
 30
0.0
  0
SPLINE
  5
35A
100
AcDbEntity
  8
00_COMPONENTS_1
100
AcDbSpline
 62
7
  6
BYLAYER
 70
0
 71
3
 72
11
 73
7
 74
0
 42
0.0000001
 43
0.0000001
 44
0.0000000001
 40
0.0
 40
0.0
 40
0.0
 40
0.0
 40
0.2177821605
 40
0.4509085882
 40
0.7102951949
 40
1.0
 40
1.0
 40
1.0
 40
1.0
 10
59.9000212967
 20
77.3863620786
 30
0.0
 10
59.9000212722
 20
77.2987596705
 30
0.0
 10
59.8676482556
 20
77.1161686614
 30
0.0
 10
59.7292267403
 20
76.8617604945
 30
0.0
 10
59.5104017384
 20
76.631785427
 30
0.0
 10
59.3273059498
 20
76.5056746514
 30
0.0
 10
59.2263851413
 20
76.4474083432
 30
0.0
  0
SPLINE
  5
35B
100
AcDbEntity
  8
00_COMPONENTS_1
100
AcDbSpline
 62
7
  6
BYLAYER
 70
0
 71
3
 72
15
 73
11
 74
0
 42
0.0000001
 43
0.0000001
 44
0.0000000001
 40
0.0
 40
0.0
 40
0.0
 40
0.0
 40
0.1485722566
 40
0.2895076681
 40
0.4227240076
 40
0.5486382531
 40
0.6679998588
 40
0.7819365268
 40
0.8919851483
 40
1.0
 40
1.0
 40
1.0
 40
1.0
 10
32.9928486781
 20
42.7669926393
 30
0.0
 10
32.9928486781
 20
42.363356926
 30
0.0
 10
32.9602710266
 20
41.5762927916
 30
0.0
 10
32.8053926204
 20
40.4365201721
 30
0.0
 10
32.5465782212
 20
39.3785893912
 30
0.0
 10
32.1858780566
 20
38.4128370934
 30
0.0
 10
31.7262078849
 20
37.5484577453
 30
0.0
 10
31.1709463591
 20
36.7943642187
 30
0.0
 10
30.5253300143
 20
36.1590176897
 30
0.0
 10
30.0367459814
 20
35.8180413857
 30
0.0
 10
29.7826097767
 20
35.6713165482
 30
0.0
  0
SPLINE
  5
35C
100
AcDbEntity
  8
00_COMPONENTS_1
100
AcDbSpline
 62
7
  6
BYLAYER
 70
0
 71
3
 72
9
 73
5
 74
0
 42
0.0000001
 43
0.0000001
 44
0.0000000001
 40
0.0
 40
0.0
 40
0.0
 40
0.0
 40
0.5163510563
 40
1.0
 40
1.0
 40
1.0
 40
1.0
 10
32.4390564926
 20
47.0587416236
 30
0.0
 10
32.6170644125
 20
46.3341439266
 30
0.0
 10
32.8898802466
 20
44.9118370485
 30
0.0
 10
32.9928486781
 20
43.4658796297
 30
0.0
 10
32.9928486781
 20
42.7669926393
 30
0.0
  0
SPLINE
  5
35D
100
AcDbEntity
  8
00_COMPONENTS_1
100
AcDbSpline
 62
7
  6
BYLAYER
 70
0
 71
3
 72
9
 73
5
 74
0
 42
0.0000001
 43
0.0000001
 44
0.0000000001
 40
0.0
 40
0.0
 40
0.0
 40
0.0
 40
0.4839432433
 40
1.0
 40
1.0
 40
1.0
 40
1.0
 10
32.2857389529
 20
43.1752333939
 30
0.0
 10
32.2857389529
 20
43.8130016152
 30
0.0
 10
32.1941090888
 20
45.1316812983
 30
0.0
 10
31.9506565004
 20
46.4297201911
 30
0.0
 10
31.7917571488
 20
47.0909859402
 30
0.0
  0
SPLINE
  5
35E
100
AcDbEntity
  8
00_COMPONENTS_1
100
AcDbSpline
 62
7
  6
BYLAYER
 70
0
 71
3
 72
15
 73
11
 74
0
 42
0.0000001
 43
0.0000001
 44
0.0000000001
 40
0.0
 40
0.0
 40
0.0
 40
0.0
 40
0.1477425387
 40
0.2880142336
 40
0.420814118
 40
0.5465981864
 40
0.6661277918
 40
0.7805081539
 40
0.8912129189
 40
1.0
 40
1.0
 40
1.0
 40
1.0
 10
21.7635778594
 20
61.085274325
 30
0.0
 10
21.447479591
 20
61.2581763834
 30
0.0
 10
20.8170017083
 20
61.5701478865
 30
0.0
 10
19.8574702809
 20
61.93852023
 30
0.0
 10
18.9163085827
 20
62.1917647318
 30
0.0
 10
18.001901176
 20
62.3272077417
 30
0.0
 10
17.1221962431
 20
62.343285265
 30
0.0
 10
16.2851480865
 20
62.2388442262
 30
0.0
 10
15.4991158086
 20
62.0143520326
 30
0.0
 10
15.0124430975
 20
61.7847434303
 30
0.0
 10
14.7826859749
 20
61.6521017623
 30
0.0
  0
SPLINE
  5
35F
100
AcDbEntity
  8
00_COMPONENTS_1
100
AcDbSpline
 62
7
  6
BYLAYER
 70
0
 71
3
 72
11
 73
7
 74
0
 42
0.0000001
 43
0.0000001
 44
0.0000000001
 40
0.0
 40
0.0
 40
0.0
 40
0.0
 40
0.265900058
 40
0.5252935979
 40
0.7718709541
 40
1.0
 40
1.0
 40
1.0
 40
1.0
 10
42.7120914973
 20
82.9987215435
 30
0.0
 10
42.8652292144
 20
82.9972280347
 30
0.0
 10
43.1682158061
 20
83.0117031987
 30
0.0
 10
43.6078178724
 20
83.0847130493
 30
0.0
 10
44.0139671456
 20
83.2062918322
 30
0.0
 10
44.2632929684
 20
83.3217642455
 30
0.0
 10
44.3770809132
 20
83.3874593539
 30
0.0
  0
SPLINE
  5
360
100
AcDbEntity
  8
00_COMPONENTS_1
100
AcDbSpline
 62
7
  6
BYLAYER
 70
0
 71
3
 72
11
 73
7
 74
0
 42
0.0000001
 43
0.0000001
 44
0.0000000001
 40
0.0
 40
0.0
 40
0.0
 40
0.0
 40
0.2895391946
 40
0.5491157945
 40
0.7822541179
 40
1.0
 40
1.0
 40
1.0
 40
1.0
 10
58.2009959639
 20
85.6123946983
 30
0.0
 10
58.2448492217
 20
85.5870765809
 30
0.0
 10
58.3321602799
 20
85.5455965219
 30
0.0
 10
58.4663044654
 20
85.5131274546
 30
0.0
 10
58.5922358767
 20
85.5162909094
 30
0.0
 10
58.6679863638
 20
85.5438783169
 30
0.0
 10
58.7009657488
 20
85.5629188758
 30
0.0
  0
SPLINE
  5
361
100
AcDbEntity
  8
00_COMPONENTS_1
100
AcDbSpline
 62
7
  6
BYLAYER
 70
0
 71
3
 72
13
 73
9
 74
0
 42
0.0000001
 43
0.0000001
 44
0.0000000001
 40
0.0
 40
0.0
 40
0.0
 40
0.0
 40
0.1141767831
 40
0.2375713001
 40
0.500001251
 40
0.7624305195
 40
0.8858241805
 40
1.0
 40
1.0
 40
1.0
 40
1.0
 10
60.6758800019
 20
85.0000544746
 30
0.0
 10
60.6758800019
 20
84.9441985059
 30
0.0
 10
60.6861748137
 20
84.8278673409
 30
0.0
 10
60.7416549535
 20
84.5890364629
 30
0.0
 10
60.8709256199
 20
84.296165185
 30
0.0
 10
61.0599252769
 20
84.0377791046
 30
0.0
 10
61.2390189717
 20
83.8703183955
 30
0.0
 10
61.3346171739
 20
83.8032385778
 30
0.0
 10
61.3829897271
 20
83.775311303
 30
0.0
  0
SPLINE
  5
362
100
AcDbEntity
  8
00_COMPONENTS_1
100
AcDbSpline
 62
7
  6
BYLAYER
 70
0
 71
3
 72
11
 73
7
 74
0
 42
0.0000001
 43
0.0000001
 44
0.0000000001
 40
0.0
 40
0.0
 40
0.0
 40
0.0
 40
0.2897048043
 40
0.5490913404
 40
0.7822177947
 40
1.0
 40
1.0
 40
1.0
 40
1.0
 10
44.3770809132
 20
83.3874593539
 30
0.0
 10
44.4780017217
 20
83.445725662
 30
0.0
 10
44.6610975086
 20
83.5718363909
 30
0.0
 10
44.8799224838
 20
83.8018114691
 30
0.0
 10
45.0183439889
 20
84.0562196242
 30
0.0
 10
45.0507170849
 20
84.2388106628
 30
0.0
 10
45.0507170687
 20
84.3264130893
 30
0.0
  0
SPLINE
  5
363
100
AcDbEntity
  8
00_COMPONENTS_1
100
AcDbSpline
 62
7
  6
BYLAYER
 70
0
 71
3
 72
15
 73
11
 74
0
 42
0.0000001
 43
0.0000001
 44
0.0000000001
 40
0.0
 40
0.0
 40
0.0
 40
0.0
 40
0.1080128661
 40
0.218060919
 40
0.3319982873
 40
0.451360164
 40
0.5772729057
 40
0.7104897524
 40
0.8514287789
 40
1.0
 40
1.0
 40
1.0
 40
1.0
 10
15.4407591131
 20
60.2999899929
 30
0.0
 10
15.2276202491
 20
60.1769265618
 30
0.0
 10
14.8178337912
 20
59.8909667631
 30
0.0
 10
14.2763659826
 20
59.3580835259
 30
0.0
 10
13.8106482345
 20
58.7256295996
 30
0.0
 10
13.4251230297
 20
58.0006645236
 30
0.0
 10
13.1225961562
 20
57.1906833908
 30
0.0
 10
12.9055193335
 20
56.3033820509
 30
0.0
 10
12.7756272565
 20
55.3474364524
 30
0.0
 10
12.7482980125
 20
54.6873130318
 30
0.0
 10
12.7482980125
 20
54.3487824032
 30
0.0
  0
SPLINE
  5
364
100
AcDbEntity
  8
00_COMPONENTS_1
100
AcDbSpline
 62
7
  6
BYLAYER
 70
0
 71
3
 72
11
 73
7
 74
0
 42
0.0000001
 43
0.0000001
 44
0.0000000001
 40
0.0
 40
0.0
 40
0.0
 40
0.0
 40
0.2177821605
 40
0.4509085882
 40
0.7102951949
 40
1.0
 40
1.0
 40
1.0
 40
1.0
 10
45.0507170687
 20
85.9594179236
 30
0.0
 10
45.0507170441
 20
85.8718155155
 30
0.0
 10
45.0183440276
 20
85.6892245063
 30
0.0
 10
44.8799225123
 20
85.4348163394
 30
0.0
 10
44.6610975103
 20
85.204841272
 30
0.0
 10
44.4780017217
 20
85.0787304963
 30
0.0
 10
44.3770809132
 20
85.0204641881
 30
0.0
  0
SPLINE
  5
365
100
AcDbEntity
  8
00_COMPONENTS_1
100
AcDbSpline
 62
7
  6
BYLAYER
 70
0
 71
3
 72
12
 73
8
 74
0
 42
0.0000001
 43
0.0000001
 44
0.0000000001
 40
0.0
 40
0.0
 40
0.0
 40
0.0
 40
0.1081631901
 40
0.2183736225
 40
0.4513417426
 40
0.7104802902
 40
1.0
 40
1.0
 40
1.0
 40
1.0
 10
41.1758987158
 20
39.6160473693
 30
0.0
 10
41.1242477835
 20
39.5862390825
 30
0.0
 10
41.0249537358
 20
39.5169201439
 30
0.0
 10
40.846870987
 20
39.3416976382
 30
0.0
 10
40.670381345
 20
39.0541135629
 30
0.0
 10
40.54772793
 20
38.6372336823
 30
0.0
 10
40.5234865862
 20
38.3336630654
 30
0.0
 10
40.5234865862
 20
38.1740380088
 30
0.0
  0
SPLINE
  5
366
100
AcDbEntity
  8
00_COMPONENTS_1
100
AcDbSpline
 62
7
  6
BYLAYER
 70
0
 71
3
 72
11
 73
7
 74
0
 42
0.0000001
 43
0.0000001
 44
0.0000000001
 40
0.0
 40
0.0
 40
0.0
 40
0.0
 40
0.265900058
 40
0.5252935979
 40
0.7718709541
 40
1.0
 40
1.0
 40
1.0
 40
1.0
 10
57.5613957254
 20
74.4256656986
 30
0.0
 10
57.7145334425
 20
74.4241721897
 30
0.0
 10
58.0175200342
 20
74.4386473537
 30
0.0
 10
58.4571221005
 20
74.5116572044
 30
0.0
 10
58.8632713737
 20
74.6332359873
 30
0.0
 10
59.1125971965
 20
74.7487084006
 30
0.0
 10
59.2263851413
 20
74.814403509
 30
0.0
  0
SPLINE
  5
367
100
AcDbEntity
  8
00_COMPONENTS_1
100
AcDbSpline
 62
7
  6
BYLAYER
 70
0
 71
3
 72
11
 73
7
 74
0
 42
0.0000001
 43
0.0000001
 44
0.0000000001
 40
0.0
 40
0.0
 40
0.0
 40
0.0
 40
0.2897048043
 40
0.5490913404
 40
0.7822177947
 40
1.0
 40
1.0
 40
1.0
 40
1.0
 10
59.2263851413
 20
74.814403509
 30
0.0
 10
59.3273059498
 20
74.8726698171
 30
0.0
 10
59.5104017367
 20
74.998780546
 30
0.0
 10
59.7292267118
 20
75.2287556242
 30
0.0
 10
59.867648217
 20
75.4831637793
 30
0.0
 10
59.900021313
 20
75.6657548179
 30
0.0
 10
59.9000212968
 20
75.7533572443
 30
0.0
  0
SPLINE
  5
368
100
AcDbEntity
  8
00_COMPONENTS_1
100
AcDbSpline
 62
7
  6
BYLAYER
 70
0
 71
3
 72
25
 73
21
 74
0
 42
0.0000001
 43
0.0000001
 44
0.0000000001
 40
0.0
 40
0.0
 40
0.0
 40
0.0
 40
0.0213172111
 40
0.0429022206
 40
0.0649649542
 40
0.0876930946
 40
0.1356832032
 40
0.1878157573
 40
0.2444604965
 40
0.3055650174
 40
0.3707457513
 40
0.4393687603
 40
0.5106171187
 40
0.5835479983
 40
0.6571432838
 40
0.7303541894
 40
0.8021523262
 40
0.8715669744
 40
0.937750815
 40
1.0
 40
1.0
 40
1.0
 40
1.0
 10
28.4401335284
 20
37.7844979386
 30
0.0
 10
28.2789891076
 20
37.696632947
 30
0.0
 10
27.9429998905
 20
37.5403494988
 30
0.0
 10
27.4090376055
 20
37.3692907642
 30
0.0
 10
26.8463738064
 20
37.2616236104
 30
0.0
 10
26.0482344885
 20
37.2022030384
 30
0.0
 10
24.9869096778
 20
37.2974167544
 30
0.0
 10
23.6811447607
 20
37.6621519111
 30
0.0
 10
22.344617009
 20
38.2684753984
 30
0.0
 10
21.0041603962
 20
39.1027638168
 30
0.0
 10
19.6865910151
 20
40.1472739255
 30
0.0
 10
18.419024341
 20
41.3801467932
 30
0.0
 10
17.2278276373
 20
42.7755481836
 30
0.0
 10
16.1379801813
 20
44.3041564802
 30
0.0
 10
15.172444069
 20
45.9337713636
 30
0.0
 10
14.3515366628
 20
47.6300382501
 30
0.0
 10
13.6926288296
 20
49.357198405
 30
0.0
 10
13.2094557227
 20
51.0791045477
 30
0.0
 10
12.9124008309
 20
52.7593401864
 30
0.0
 10
12.8402215114
 20
53.8658853714
 30
0.0
 10
12.8402215114
 20
54.4018541432
 30
0.0
  0
SPLINE
  5
369
100
AcDbEntity
  8
00_COMPONENTS_1
100
AcDbSpline
 62
7
  6
BYLAYER
 70
0
 71
3
 72
15
 73
11
 74
0
 42
0.0000001
 43
0.0000001
 44
0.0000000001
 40
0.0
 40
0.0
 40
0.0
 40
0.0
 40
0.1086586546
 40
0.2192543101
 40
0.3335607765
 40
0.4530620103
 40
0.5788670181
 40
0.7117364874
 40
0.8521203187
 40
1.0
 40
1.0
 40
1.0
 40
1.0
 10
14.2826885523
 20
62.5181278716
 30
0.0
 10
14.5297041749
 20
62.6607335282
 30
0.0
 10
15.0531366583
 20
62.9073766862
 30
0.0
 10
15.8987945407
 20
63.1476241293
 30
0.0
 10
16.7995020784
 20
63.2580306899
 30
0.0
 10
17.7461618763
 20
63.2381168134
 30
0.0
 10
18.7301250147
 20
63.0891651454
 30
0.0
 10
19.7427490718
 20
62.8129110499
 30
0.0
 10
20.7748962208
 20
62.4122930994
 30
0.0
 10
21.4528422384
 20
62.0736186031
 30
0.0
 10
21.7926792076
 20
61.8860201009
 30
0.0
  0
SPLINE
  5
36A
100
AcDbEntity
  8
00_COMPONENTS_1
100
AcDbSpline
 62
7
  6
BYLAYER
 70
0
 71
3
 72
11
 73
7
 74
0
 42
0.0000001
 43
0.0000001
 44
0.0000000001
 40
0.0
 40
0.0
 40
0.0
 40
0.0
 40
0.2897048043
 40
0.5490913404
 40
0.7822177947
 40
1.0
 40
1.0
 40
1.0
 40
1.0
 10
56.716145617
 20
77.8966630218
 30
0.0
 10
56.6612973515
 20
77.8649965499
 30
0.0
 10
56.5617887717
 20
77.7964581103
 30
0.0
 10
56.4428621548
 20
77.6714716548
 30
0.0
 10
56.3676330759
 20
77.5332063531
 30
0.0
 10
56.350039002
 20
77.433972093
 30
0.0
 10
56.3500390108
 20
77.3863620786
 30
0.0
  0
SPLINE
  5
36B
100
AcDbEntity
  8
00_COMPONENTS_1
100
AcDbSpline
 62
7
  6
BYLAYER
 70
0
 71
3
 72
13
 73
9
 74
0
 42
0.0000001
 43
0.0000001
 44
0.0000000001
 40
0.0
 40
0.0
 40
0.0
 40
0.0
 40
0.1142253587
 40
0.237559206
 40
0.5000004539
 40
0.7624414493
 40
0.885775028
 40
1.0
 40
1.0
 40
1.0
 40
1.0
 10
58.48391257
 20
77.8966672709
 30
0.0
 10
58.4234202495
 20
77.9315917383
 30
0.0
 10
58.2910792887
 20
77.9931998069
 30
0.0
 10
57.9978267745
 20
78.0822962059
 30
0.0
 10
57.6000278176
 20
78.1255472868
 30
0.0
 10
57.2022291921
 20
78.0822944121
 30
0.0
 10
56.9089776981
 20
77.993196544
 30
0.0
 10
56.7766374808
 20
77.9315878072
 30
0.0
 10
56.716145617
 20
77.8966630218
 30
0.0
  0
SPLINE
  5
36C
100
AcDbEntity
  8
00_COMPONENTS_1
100
AcDbSpline
 62
7
  6
BYLAYER
 70
0
 71
3
 72
15
 73
11
 74
0
 42
0.0000001
 43
0.0000001
 44
0.0000000001
 40
0.0
 40
0.0
 40
0.0
 40
0.0
 40
0.1141231812
 40
0.2373468278
 40
0.366971913
 40
0.4999994099
 40
0.6330269884
 40
0.76265231
 40
0.885876356
 40
1.0
 40
1.0
 40
1.0
 40
1.0
 10
59.2263851413
 20
76.4474083432
 30
0.0
 10
59.1150801491
 20
76.3831467596
 30
0.0
 10
58.871584582
 20
76.2698149014
 30
0.0
 10
58.4751573375
 20
76.1492469293
 30
0.0
 10
58.0458894889
 20
76.0751232288
 30
0.0
 10
57.6000425114
 20
76.0500542553
 30
0.0
 10
57.1541951473
 20
76.0751210618
 30
0.0
 10
56.7249261245
 20
76.1492426932
 30
0.0
 10
56.328497037
 20
76.2698088281
 30
0.0
 10
56.0849998548
 20
76.3831394832
 30
0.0
 10
55.9736939479
 20
76.4474005247
 30
0.0
  0
SPLINE
  5
36D
100
AcDbEntity
  8
00_COMPONENTS_1
100
AcDbSpline
 62
7
  6
BYLAYER
 70
0
 71
3
 72
9
 73
5
 74
0
 42
0.0000001
 43
0.0000001
 44
0.0000000001
 40
0.0
 40
0.0
 40
0.0
 40
0.0
 40
0.2672929041
 40
1.0
 40
1.0
 40
1.0
 40
1.0
 10
55.9736939479
 20
76.4474005247
 30
0.0
 10
55.930230568
 20
76.4724935511
 30
0.0
 10
55.7710950521
 20
76.5719605627
 30
0.0
 10
55.6255749763
 20
76.6953743769
 30
0.0
 10
55.5363442585
 20
76.8000845671
 30
0.0
  0
SPLINE
  5
36E
100
AcDbEntity
  8
00_COMPONENTS_1
100
AcDbSpline
 62
7
  6
BYLAYER
 70
0
 71
3
 72
11
 73
7
 74
0
 42
0.0000001
 43
0.0000001
 44
0.0000000001
 40
0.0
 40
0.0
 40
0.0
 40
0.0
 40
0.2897052857
 40
0.5490919933
 40
0.7822182543
 40
1.0
 40
1.0
 40
1.0
 40
1.0
 10
41.1243897198
 20
85.0204563696
 30
0.0
 10
41.0234670234
 20
85.0787227974
 30
0.0
 10
40.8403677615
 20
85.2048340073
 30
0.0
 10
40.6215383407
 20
85.4348107899
 30
0.0
 10
40.483113854
 20
85.6892214097
 30
0.0
 10
40.4507399975
 20
85.8718145536
 30
0.0
 10
40.4507400221
 20
85.9594179235
 30
0.0
  0
SPLINE
  5
36F
100
AcDbEntity
  8
00_COMPONENTS_1
100
AcDbSpline
 62
7
  6
BYLAYER
 70
0
 71
3
 72
15
 73
11
 74
0
 42
0.0000001
 43
0.0000001
 44
0.0000000001
 40
0.0
 40
0.0
 40
0.0
 40
0.0
 40
0.1141231812
 40
0.2373468278
 40
0.366971913
 40
0.4999994099
 40
0.6330269884
 40
0.76265231
 40
0.885876356
 40
1.0
 40
1.0
 40
1.0
 40
1.0
 10
44.3770809132
 20
85.0204641881
 30
0.0
 10
44.265775921
 20
84.9562026045
 30
0.0
 10
44.0222803539
 20
84.8428707463
 30
0.0
 10
43.6258531094
 20
84.7223027742
 30
0.0
 10
43.1965852609
 20
84.6481790738
 30
0.0
 10
42.7507382833
 20
84.6231101002
 30
0.0
 10
42.3048909192
 20
84.6481769067
 30
0.0
 10
41.8756218964
 20
84.7222985381
 30
0.0
 10
41.4791928089
 20
84.842864673
 30
0.0
 10
41.2356956267
 20
84.9561953281
 30
0.0
 10
41.1243897198
 20
85.0204563696
 30
0.0
  0
ELLIPSE
  5
370
100
AcDbEntity
  8
00_COMPONENTS_1
100
AcDbEllipse
 62
7
  6
BYLAYER
 10
57.2521883326
 20
95.6380905281
 30
0.0
 11
9.150112244
 21
3.2335865305
 31
0.0
 40
0.1449673734
 41
2.6214401732
 42
3.9084423908
  0
ELLIPSE
  5
371
100
AcDbEntity
  8
00_COMPONENTS_1
100
AcDbEllipse
 62
7
  6
BYLAYER
 10
82.4252945478
 20
81.1047196672
 30
0.0
 11
9.150112244
 21
3.2335865305
 31
0.0
 40
0.1449673734
 41
2.6214401732
 42
3.7640317103
  0
ENDSEC
  0
SECTION
  2
OBJECTS
  0
DICTIONARY
  5
C
100
AcDbDictionary
280
0
281
1
  3
ACAD_GROUP
350
D
  3
ACAD_MLINESTYLE
350
17
  3
ACAD_LAYOUT
350
1A
  3
ACAD_PLOTSETTINGS
350
19
  3
ACAD_PLOTSTYLENAME
350
E
  0
DICTIONARY
  5
D
102
{ACAD_REACTORS
330
C
102
}
100
AcDbDictionary
280
0
281
1
  0
ACDBDICTIONARYWDFLT
  5
E
102
{ACAD_REACTORS
330
C
102
}
100
AcDbDictionary
281
1
  3
Normal
350
F
100
AcDbDictionaryWithDefault
340
F
  0
DICTIONARY
  5
17
102
{ACAD_REACTORS
330
C
102
}
100
AcDbDictionary
280
0
281
1
  3
Standard
350
18
  0
DICTIONARY
  5
19
102
{ACAD_REACTORS
330
C
102
}
100
AcDbDictionary
281
1
  0
DICTIONARY
  5
1A
102
{ACAD_REACTORS
330
C
102
}
100
AcDbDictionary
281
1
  3
Model
350
372
  3
Layout1
350
373
  0
ACDBPLACEHOLDER
  5
F
102
{ACAD_REACTORS
330
E
102
}
  0
MLINESTYLE
  5
18
102
{ACAD_REACTORS
330
17
102
}
100
AcDbMlineStyle
  2
STANDARD
 70
0
  3

 62
256
 51
90.0
 52
90.0
 71
2
 49
0.5
 62
256
  6
BYLAYER
 49
-0.5
 62
256
  6
BYLAYER
  0
LAYOUT
  5
372
102
{ACAD_REACTORS
330
1A
102
}
100
AcDbPlotSettings
  1

  2
none_device
  4

  6

 40
0.0
 41
0.0
 42
0.0
 43
0.0
 44
210.0
 45
297.0
 46
0.0
 47
0.0
 48
0.0
 49
0.0
140
0.0
141
0.0
142
1.0
143
1.0
 70
1024
 72
1
 73
0
 74
0
  7

 75
0
147
1.0
148
0.0
149
0.0
100
AcDbLayout
  1
Model
 70
0
 71
0
 10
0.0
 20
0.0
 11
210.0
 21
297.0
 12
0.0
 22
0.0
 32
0.0
 14
0.0
 24
0.0
 34
0.0
 15
0.0
 25
0.0
 35
0.0
146
0.0
 13
0.0
 23
0.0
 33
0.0
 16
1.0
 26
0.0
 36
0.0
 17
0.0
 27
1.0
 37
0.0
 76
0
330
216
345
0
346
0
  0
LAYOUT
  5
373
102
{ACAD_REACTORS
330
1A
102
}
100
AcDbPlotSettings
  1

  2
none_device
  4

  6

 40
0.0
 41
0.0
 42
0.0
 43
0.0
 44
210.0
 45
297.0
 46
0.0
 47
0.0
 48
0.0
 49
0.0
140
0.0
141
0.0
142
1.0
143
1.0
 70
0
 72
1
 73
0
 74
0
  7

 75
0
147
1.0
148
0.0
149
0.0
100
AcDbLayout
  1
Layout1
 70
0
 71
1
 10
0.0
 20
0.0
 11
210.0
 21
297.0
 12
0.0
 22
0.0
 32
0.0
 14
0.0
 24
0.0
 34
0.0
 15
0.0
 25
0.0
 35
0.0
146
0.0
 13
0.0
 23
0.0
 33
0.0
 16
1.0
 26
0.0
 36
0.0
 17
0.0
 27
1.0
 37
0.0
 76
0
330
217
345
0
346
0
  0
ENDSEC
  0
EOF
