999
DXF file: C:\Users\sesa63760\Dev\_Creo\CAD\MCADID0005580_3D-CAD\drw0001_7.dxf
999
Pro/ENGINEER 2019471 by Parametric Technology Corporation
  0
SECTION
  2
HEADER
  9
$ACADVER
  1
AC1024
  9
$DWGCODEPAGE
  3
ANSI_1252
  9
$EXTMAX
 10
38.2784506429
 20
54.1366659092
 30
0.0
  9
$EXTMIN
 10
0.0
 20
0.0
 30
0.0
  9
$LIMMIN
 10
0.0
 20
0.0
  9
$LIMMAX
 10
38.2784506429
 20
54.1366659092
  9
$VIEWCTR
 10
19.1392253214
 20
27.0683329546
  9
$VIEWSIZE
 40
54.1366659092
  9
$CLAYER
  8
0
  9
$LTSCALE
 40
3.5289085926
  9
$CELTYPE
  6
BYLAYER
  9
$DIMSCALE
 40
1.0
  9
$DIMASZ
 40
0.455695841
  9
$DIMEXO
 40
1.0
  9
$DIMDLI
 40
2.4381550276
  9
$DIMEXE
 40
1.0
  9
$DIMCEN
 40
0.5774577697
  9
$DIMLFAC
 40
1.0
  9
$DIMBLK
  1
_FILLED
  9
$DIMALT
 70
0
  9
$DIMALTF
 40
0.0393700787
  9
$DIMTXT
 40
0.6379741774
  9
$DIMTOL
 70
1
  9
$DIMLIM
 70
0
  9
$DIMTFAC
 40
1.0
  9
$DIMTP
 40
0.01
  9
$DIMTM
 40
0.01
  9
$DIMGAP
 40
0.625
  9
$DIMDSEP
 70
46
  9
$AUNITS
 70
0
  9
$PDMODE
 70
3
  9
$PDSIZE
 40
0.3125
  9
$HANDSEED
  5
3D2
  9
$TILEMODE
 70
1
  9
$MEASUREMENT
 70
1
  9
$INSUNITS
 70
4
  0
ENDSEC
  0
SECTION
  2
CLASSES
  0
CLASS
  1
ACDBDICTIONARYWDFLT
  2
AcDbDictionaryWithDefault
  3
AutoCAD 2000
 90
0
 91
1
280
0
281
0
  0
CLASS
  1
ACDBPLACEHOLDER
  2
AcDbPlaceHolder
  3
AutoCAD 2000
 90
0
 91
1
280
0
281
0
  0
CLASS
  1
LAYOUT
  2
AcDbLayout
  3
AutoCAD 2000
 90
0
 91
0
280
0
281
0
  0
ENDSEC
  0
SECTION
  2
TABLES
  0
TABLE
  2
VPORT
  5
8
100
AcDbSymbolTable
 70
2
  0
VPORT
  5
1F4
100
AcDbSymbolTableRecord
100
AcDbViewportTableRecord
  2
*ACTIVE
 70
0
 10
0.0
 20
0.0
 11
1.0
 21
1.0
 12
19.1392253214
 22
27.0683329546
 13
0.0
 23
0.0
 14
1.0
 24
1.0
 15
0.0
 25
0.0
 16
0.0
 26
0.0
 36
1.0
 17
0.0
 27
0.0
 37
0.0
 40
54.1366659092
 41
0.7070707071
 42
50.0
 43
0.0
 44
0.0
 50
0.0
 51
0.0
 71
0
 72
100
 73
1
 74
1
 75
0
 76
0
 77
0
 78
0
  0
ENDTAB
  0
TABLE
  2
LTYPE
  5
5
100
AcDbSymbolTable
 70
6
  0
LTYPE
  5
14
100
AcDbSymbolTableRecord
100
AcDbLinetypeTableRecord
  2
BYBLOCK
 70
0
  3

 72
65
 73
0
 40
0.0
  0
LTYPE
  5
15
100
AcDbSymbolTableRecord
100
AcDbLinetypeTableRecord
  2
BYLAYER
 70
0
  3

 72
65
 73
0
 40
0.0
  0
LTYPE
  5
16
100
AcDbSymbolTableRecord
100
AcDbLinetypeTableRecord
  2
CONTINUOUS
 70
64
  3
Solid line
 72
65
 73
0
 40
0.0
  0
LTYPE
  5
1F5
100
AcDbSymbolTableRecord
100
AcDbLinetypeTableRecord
  2
CENTER
 70
64
  3
____ _ ____ _ ____ _ ____ _ ____ _ ____ _ ____
 72
65
 73
4
 40
0.6
 49
0.375
 74
0
 49
-0.075
 74
0
 49
0.075
 74
0
 49
-0.075
 74
0
  0
LTYPE
  5
1F6
100
AcDbSymbolTableRecord
100
AcDbLinetypeTableRecord
  2
HIDDEN
 70
64
  3
- - - - - - - - - - - - - - - - - - - -
 72
65
 73
2
 40
0.2
 49
0.1
 74
0
 49
-0.1
 74
0
  0
LTYPE
  5
1F7
100
AcDbSymbolTableRecord
100
AcDbLinetypeTableRecord
  2
PHANTOM
 70
64
  3
_____ _ _ _____ _ _ _____ _ _ _____
 72
65
 73
6
 40
0.8
 49
0.45
 74
0
 49
-0.05
 74
0
 49
0.1
 74
0
 49
-0.05
 74
0
 49
0.1
 74
0
 49
-0.05
 74
0
  0
LTYPE
  5
1F8
100
AcDbSymbolTableRecord
100
AcDbLinetypeTableRecord
  2
DOT
 70
64
  3
. . . . . . . . . . . . . . . . . . . .
 72
65
 73
2
 40
0.2
 49
0.1
 74
0
 49
-0.1
 74
0
  0
LTYPE
  5
1F9
100
AcDbSymbolTableRecord
100
AcDbLinetypeTableRecord
  2
DASHED
 70
64
  3
- - - - - - - - - - - - - - - - - - - -
 72
65
 73
2
 40
0.2
 49
0.1
 74
0
 49
-0.1
 74
0
  0
ENDTAB
  0
TABLE
  2
LAYER
  5
2
100
AcDbSymbolTable
 70
36
  0
LAYER
  5
10
100
AcDbSymbolTableRecord
100
AcDbLayerTableRecord
  2
0
 70
0
 62
7
  6
CONTINUOUS
370
-3
390
F
  0
LAYER
  5
1FA
100
AcDbSymbolTableRecord
100
AcDbLayerTableRecord
  2
DEFAULT_1
 70
0
 62
7
  6
CENTER
370
-3
390
F
  0
LAYER
  5
1FB
100
AcDbSymbolTableRecord
100
AcDbLayerTableRecord
  2
DEFAULT_2
 70
0
 62
7
  6
HIDDEN
370
-3
390
F
  0
LAYER
  5
1FC
100
AcDbSymbolTableRecord
100
AcDbLayerTableRecord
  2
DEFAULT_3
 70
0
 62
7
  6
PHANTOM
370
-3
390
F
  0
LAYER
  5
1FD
100
AcDbSymbolTableRecord
100
AcDbLayerTableRecord
  2
00_COMPONENTS
 70
0
 62
7
  6
CONTINUOUS
370
-3
390
F
  0
LAYER
  5
1FE
100
AcDbSymbolTableRecord
100
AcDbLayerTableRecord
  2
01_1_DEFAULT_DATUMS
 70
0
 62
7
  6
CONTINUOUS
370
-3
390
F
  0
LAYER
  5
1FF
100
AcDbSymbolTableRecord
100
AcDbLayerTableRecord
  2
01_PLANES
 70
0
 62
7
  6
CONTINUOUS
370
-3
390
F
  0
LAYER
  5
200
100
AcDbSymbolTableRecord
100
AcDbLayerTableRecord
  2
02_COORD_SYS
 70
0
 62
7
  6
CONTINUOUS
370
-3
390
F
  0
LAYER
  5
201
100
AcDbSymbolTableRecord
100
AcDbLayerTableRecord
  2
03_AXES
 70
0
 62
7
  6
CONTINUOUS
370
-3
390
F
  0
LAYER
  5
202
100
AcDbSymbolTableRecord
100
AcDbLayerTableRecord
  2
04_POINTS
 70
0
 62
7
  6
CONTINUOUS
370
-3
390
F
  0
LAYER
  5
203
100
AcDbSymbolTableRecord
100
AcDbLayerTableRecord
  2
05_CURVES
 70
0
 62
7
  6
CONTINUOUS
370
-3
390
F
  0
LAYER
  5
204
100
AcDbSymbolTableRecord
100
AcDbLayerTableRecord
  2
06_SURFS
 70
0
 62
7
  6
CONTINUOUS
370
-3
390
F
  0
LAYER
  5
205
100
AcDbSymbolTableRecord
100
AcDbLayerTableRecord
  2
07_COSMETICS
 70
0
 62
7
  6
CONTINUOUS
370
-3
390
F
  0
LAYER
  5
206
100
AcDbSymbolTableRecord
100
AcDbLayerTableRecord
  2
10_NOTES
 70
0
 62
7
  6
CONTINUOUS
370
-3
390
F
  0
LAYER
  5
207
100
AcDbSymbolTableRecord
100
AcDbLayerTableRecord
  2
11_NOTES_PUB
 70
0
 62
7
  6
CONTINUOUS
370
-3
390
F
  0
LAYER
  5
208
100
AcDbSymbolTableRecord
100
AcDbLayerTableRecord
  2
13_REF_GTOL
 70
0
 62
7
  6
CONTINUOUS
370
-3
390
F
  0
LAYER
  5
209
100
AcDbSymbolTableRecord
100
AcDbLayerTableRecord
  2
16_MISC
 70
0
 62
7
  6
CONTINUOUS
370
-3
390
F
  0
LAYER
  5
20A
100
AcDbSymbolTableRecord
100
AcDbLayerTableRecord
  2
17_NO_PRINT
 70
0
 62
7
  6
CONTINUOUS
370
-3
390
F
  0
LAYER
  5
20B
100
AcDbSymbolTableRecord
100
AcDbLayerTableRecord
  2
18_DATUM_CAMS_JOINTS
 70
0
 62
7
  6
CONTINUOUS
370
-3
390
F
  0
LAYER
  5
20C
100
AcDbSymbolTableRecord
100
AcDbLayerTableRecord
  2
19_DATUM_FUNCTIONAL
 70
0
 62
7
  6
CONTINUOUS
370
-3
390
F
  0
LAYER
  5
20D
100
AcDbSymbolTableRecord
100
AcDbLayerTableRecord
  2
20_DATUM_KINEMATIC_SCHEME
 70
0
 62
7
  6
CONTINUOUS
370
-3
390
F
  0
ENDTAB
  0
TABLE
  2
STYLE
  5
3
100
AcDbSymbolTable
 70
1
  0
STYLE
  5
11
100
AcDbSymbolTableRecord
100
AcDbTextStyleTableRecord
  2
STANDARD
 70
0
 40
0.0
 41
1.0
 50
0.0
 71
0
 42
0.2
  3
ARIAL.TTF
  4

  0
STYLE
  5
20E
100
AcDbSymbolTableRecord
100
AcDbTextStyleTableRecord
  2
TEXTSTYLE_1
 70
0
 40
0.0
 41
0.8
 50
0.0
 71
0
 42
0.2
  3
gdt
  4

  0
ENDTAB
  0
TABLE
  2
VIEW
  5
6
100
AcDbSymbolTable
 70
0
  0
ENDTAB
  0
TABLE
  2
UCS
  5
7
100
AcDbSymbolTable
 70
0
  0
ENDTAB
  0
TABLE
  2
APPID
  5
9
100
AcDbSymbolTable
 70
1
  0
APPID
  5
20F
100
AcDbSymbolTableRecord
100
AcDbRegAppTableRecord
  2
ACAD
 70
0
  0
ENDTAB
  0
TABLE
  2
BLOCK_RECORD
  5
1
100
AcDbSymbolTable
 70
0
  0
BLOCK_RECORD
  5
210
100
AcDbSymbolTableRecord
100
AcDbBlockTableRecord
  2
*Model_Space
  0
BLOCK_RECORD
  5
211
100
AcDbSymbolTableRecord
100
AcDbBlockTableRecord
  2
*Paper_Space
  0
BLOCK_RECORD
  5
212
100
AcDbSymbolTableRecord
100
AcDbBlockTableRecord
  2
_FILLED
  0
ENDTAB
  0
TABLE
  2
DIMSTYLE
  5
A
100
AcDbSymbolTable
 70
1
100
AcDbDimStyleTable
 71
0
  0
DIMSTYLE
105
213
100
AcDbSymbolTableRecord
100
AcDbDimStyleTableRecord
  2
STANDARD
 70
0
  3

  4

 40
1.0
 41
0.455695841
 42
1.0
 43
0.38
 44
1.0
 45
0.0
 46
0.0
 47
0.01
 48
0.01
140
0.6379741774
141
0.09
142
0.0
143
25.4
144
1.0
145
0.0
146
1.0
147
0.625
 71
1
 72
0
 73
0
 74
0
 75
0
 76
0
 77
1
 78
8
 79
2
170
0
171
1
172
0
173
0
174
0
175
0
176
0
177
0
178
0
270
2
179
2
271
2
272
2
273
2
274
2
275
0
280
0
281
0
282
0
283
1
284
8
285
0
286
0
287
3
288
0
340
11
278
46
341
212
342
212
343
212
344
212
  0
ENDTAB
  0
ENDSEC
  0
SECTION
  2
BLOCKS
  0
BLOCK
  5
20
100
AcDbEntity
  8
0
100
AcDbBlockBegin
  2
*Model_Space
 70
0
 10
0.0
 20
0.0
 30
0.0
  3
*Model_Space
  1

  0
ENDBLK
  5
21
100
AcDbEntity
  8
0
100
AcDbBlockEnd
  0
BLOCK
  5
1C
100
AcDbEntity
  8
0
100
AcDbBlockBegin
  2
*Paper_Space
 70
0
 10
0.0
 20
0.0
 30
0.0
  3
*Paper_Space
  1

  0
ENDBLK
  5
1D
100
AcDbEntity
  8
0
100
AcDbBlockEnd
  0
BLOCK
  5
214
100
AcDbEntity
  8
0
100
AcDbBlockBegin
  2
_FILLED
 70
64
 10
0.0
 20
0.0
  3
_FILLED
  1

  0
SOLID
  5
215
100
AcDbEntity
  8
0
  6
BYBLOCK
 62
0
100
AcDbTrace
 10
0.0
 20
0.0
 11
-1.0
 21
0.25
 12
-1.0
 22
-0.25
 13
-1.0
 23
-0.25
  0
ENDBLK
  5
216
100
AcDbEntity
  8
0
  6
BYBLOCK
 62
0
100
AcDbBlockEnd
  0
ENDSEC
  0
SECTION
  2
ENTITIES
  0
LINE
  5
217
100
AcDbEntity
  8
0
100
AcDbLine
 62
7
  6
BYLAYER
 10
8.956549556
 20
5.8120109153
 11
8.9280745594
 21
5.8221643609
  0
LINE
  5
218
100
AcDbEntity
  8
0
100
AcDbLine
 62
7
  6
BYLAYER
 10
8.956384955
 20
5.8111624655
 11
8.9280745594
 21
5.8221643609
  0
LINE
  5
219
100
AcDbEntity
  8
0
100
AcDbLine
 62
7
  6
BYLAYER
 10
20.5073281946
 20
4.0263367952
 11
20.3319235034
 21
4.0255062691
  0
LINE
  5
21A
100
AcDbEntity
  8
0
100
AcDbLine
 62
7
  6
BYLAYER
 10
20.3319235034
 20
4.0255062691
 11
20.0540162078
 21
4.0237363213
  0
LINE
  5
21B
100
AcDbEntity
  8
0
100
AcDbLine
 62
7
  6
BYLAYER
 10
17.4367344143
 20
4.0409377055
 11
17.5074330893
 21
4.038432072
  0
LINE
  5
21C
100
AcDbEntity
  8
0
100
AcDbLine
 62
7
  6
BYLAYER
 10
17.4367429851
 20
4.0414052994
 11
17.5074330893
 21
4.038432072
  0
LINE
  5
21D
100
AcDbEntity
  8
0
100
AcDbLine
 62
7
  6
BYLAYER
 10
17.5187215604
 20
4.1536694456
 11
17.425634736
 21
4.1627880839
  0
LINE
  5
21E
100
AcDbEntity
  8
0
100
AcDbLine
 62
7
  6
BYLAYER
 10
17.5186939666
 20
4.153128037
 11
17.425634736
 21
4.1627880839
  0
LINE
  5
21F
100
AcDbEntity
  8
0
100
AcDbLine
 62
7
  6
BYLAYER
 10
10.6914546048
 20
5.8100254451
 11
10.657134003
 21
5.8221634697
  0
LINE
  5
220
100
AcDbEntity
  8
0
100
AcDbLine
 62
7
  6
BYLAYER
 10
10.6912382076
 20
5.8089096653
 11
10.657134003
 21
5.8221634697
  0
LINE
  5
221
100
AcDbEntity
  8
0
100
AcDbLine
 62
7
  6
BYLAYER
 10
7.3129681147
 20
5.8220042916
 11
8.9280424854
 21
5.8220042916
  0
LINE
  5
222
100
AcDbEntity
  8
0
100
AcDbLine
 62
7
  6
BYLAYER
 10
8.9601361748
 20
5.8220042916
 11
10.657105208
 21
5.8220042916
  0
LINE
  5
223
100
AcDbEntity
  8
0
100
AcDbLine
 62
7
  6
BYLAYER
 10
10.6957185305
 20
5.8220042916
 11
13.1549454399
 21
5.8220042916
  0
LINE
  5
224
100
AcDbEntity
  8
0
100
AcDbLine
 62
7
  6
BYLAYER
 10
7.1476075642
 20
5.9401737366
 11
8.6923378648
 21
5.9401737366
  0
LINE
  5
225
100
AcDbEntity
  8
0
100
AcDbLine
 62
7
  6
BYLAYER
 10
8.7245119207
 20
5.9401737366
 11
10.4214807425
 21
5.9401737366
  0
LINE
  5
226
100
AcDbEntity
  8
0
100
AcDbLine
 62
7
  6
BYLAYER
 10
10.4600136282
 20
5.9401737366
 11
12.7542599318
 21
5.9401737366
  0
LINE
  5
227
100
AcDbEntity
  8
0
100
AcDbLine
 62
7
  6
BYLAYER
 10
12.4022670297
 20
6.3364474396
 11
10.3019467428
 21
6.3364474396
  0
LINE
  5
228
100
AcDbEntity
  8
0
100
AcDbLine
 62
7
  6
BYLAYER
 10
10.2634069166
 20
6.3364474396
 11
8.5664949326
 21
6.3364474396
  0
LINE
  5
229
100
AcDbEntity
  8
0
100
AcDbLine
 62
7
  6
BYLAYER
 10
8.534270103
 20
6.3364474396
 11
7.0865881644
 21
6.3364474396
  0
LINE
  5
22A
100
AcDbEntity
  8
0
100
AcDbLine
 62
7
  6
BYLAYER
 10
9.3276355117
 20
46.286693909
 11
11.698308791
 21
50.3928205924
  0
LINE
  5
22B
100
AcDbEntity
  8
0
100
AcDbLine
 62
7
  6
BYLAYER
 10
5.8066796138
 20
40.6572940155
 11
5.2824312142
 21
39.2928206054
  0
LINE
  5
22C
100
AcDbEntity
  8
0
100
AcDbLine
 62
7
  6
BYLAYER
 10
4.4975558217
 20
39.2928206054
 11
4.455487981
 21
37.7928205924
  0
LINE
  5
22D
100
AcDbEntity
  8
0
100
AcDbLine
 62
7
  6
BYLAYER
 10
6.555744175
 20
37.1878205924
 11
6.5554881464
 21
37.2278205924
  0
LINE
  5
22E
100
AcDbEntity
  8
0
100
AcDbLine
 62
7
  6
BYLAYER
 10
4.9554880667
 20
20.4067447703
 11
4.9554880667
 21
29.0928205924
  0
LINE
  5
22F
100
AcDbEntity
  8
0
100
AcDbLine
 62
7
  6
BYLAYER
 10
5.8066796138
 20
43.7828205924
 11
5.8066796138
 21
39.2928206054
  0
LINE
  5
230
100
AcDbEntity
  8
0
100
AcDbLine
 62
7
  6
BYLAYER
 10
5.9547426636
 20
43.7828205924
 11
5.9547426636
 21
39.2928206054
  0
LINE
  5
231
100
AcDbEntity
  8
0
100
AcDbLine
 62
7
  6
BYLAYER
 10
6.555488139
 20
37.2278205924
 11
6.555488139
 21
37.7928205924
  0
LINE
  5
232
100
AcDbEntity
  8
0
100
AcDbLine
 62
7
  6
BYLAYER
 10
6.6054880704
 20
31.5428205924
 11
6.6054880704
 21
30.2928205924
  0
LINE
  5
233
100
AcDbEntity
  8
0
100
AcDbLine
 62
7
  6
BYLAYER
 10
6.5555294211
 20
37.2230811422
 11
6.5554881464
 21
37.2278205924
  0
LINE
  5
234
100
AcDbEntity
  8
0
100
AcDbLine
 62
7
  6
BYLAYER
 10
6.7304880704
 20
19.7628203849
 11
6.7304880704
 21
19.9928206549
  0
LINE
  5
235
100
AcDbEntity
  8
0
100
AcDbLine
 62
7
  6
BYLAYER
 10
7.0679502108
 20
43.7828205924
 11
7.0679502108
 21
39.2928206054
  0
LINE
  5
236
100
AcDbEntity
  8
0
100
AcDbLine
 62
7
  6
BYLAYER
 10
7.0819299022
 20
19.2588963127
 11
7.0819299022
 21
8.9438831765
  0
LINE
  5
237
100
AcDbEntity
  8
0
100
AcDbLine
 62
7
  6
BYLAYER
 10
7.3868444147
 20
19.237618295
 11
7.3868444147
 21
19.2588963127
  0
LINE
  5
238
100
AcDbEntity
  8
0
100
AcDbLine
 62
7
  6
BYLAYER
 10
8.2443065648
 20
36.7928205449
 11
8.2443065648
 21
34.8928205924
  0
LINE
  5
239
100
AcDbEntity
  8
0
100
AcDbLine
 62
7
  6
BYLAYER
 10
8.3304880704
 20
34.2428205924
 11
8.3304880704
 21
31.5428205924
  0
LINE
  5
23A
100
AcDbEntity
  8
0
100
AcDbLine
 62
7
  6
BYLAYER
 10
7.9510539047
 20
19.2588963187
 11
7.9512309982
 21
19.7628203006
  0
LINE
  5
23B
100
AcDbEntity
  8
0
100
AcDbLine
 62
7
  6
BYLAYER
 10
13.2492099362
 20
36.7928205449
 11
13.2689009583
 21
36.8160525812
  0
LINE
  5
23C
100
AcDbEntity
  8
0
100
AcDbLine
 62
7
  6
BYLAYER
 10
10.2622309494
 20
6.4028205924
 11
10.2634648999
 21
6.3364276567
  0
LINE
  5
23D
100
AcDbEntity
  8
0
100
AcDbLine
 62
7
  6
BYLAYER
 10
8.85234845
 20
34.8928205924
 11
8.85234845
 21
34.4928205924
  0
LINE
  5
23E
100
AcDbEntity
  8
0
100
AcDbLine
 62
7
  6
BYLAYER
 10
9.0566796138
 20
40.6606245076
 11
9.0566796138
 21
43.7828205924
  0
LINE
  5
23F
100
AcDbEntity
  8
0
100
AcDbLine
 62
7
  6
BYLAYER
 10
9.2054880704
 20
44.0128211663
 11
9.2054880704
 21
43.7928206445
  0
LINE
  5
240
100
AcDbEntity
  8
0
100
AcDbLine
 62
7
  6
BYLAYER
 10
9.3186281543
 20
46.0128205629
 11
9.3186281543
 21
45.5928210901
  0
LINE
  5
241
100
AcDbEntity
  8
0
100
AcDbLine
 62
7
  6
BYLAYER
 10
13.2492099362
 20
36.7928205449
 11
13.2688421642
 21
36.8160502679
  0
LINE
  5
242
100
AcDbEntity
  8
0
100
AcDbLine
 62
7
  6
BYLAYER
 10
31.6804878335
 20
19.7628203006
 11
28.3200911442
 21
19.2625050435
  0
LINE
  5
243
100
AcDbEntity
  8
0
100
AcDbLine
 62
7
  6
BYLAYER
 10
8.3266858356
 20
17.5028214744
 11
8.3589756479
 21
17.5028214744
  0
LINE
  5
244
100
AcDbEntity
  8
0
100
AcDbLine
 62
7
  6
BYLAYER
 10
10.0559469976
 20
17.5028217849
 11
10.0943643332
 21
17.5028217849
  0
LINE
  5
245
100
AcDbEntity
  8
0
100
AcDbLine
 62
7
  6
BYLAYER
 10
6.3454879369
 20
19.9928206549
 11
4.9554880704
 21
20.4067447692
  0
LINE
  5
246
100
AcDbEntity
  8
0
100
AcDbLine
 62
7
  6
BYLAYER
 10
10.7054880741
 20
45.5928210901
 11
10.7054880741
 21
44.0128211663
  0
LINE
  5
247
100
AcDbEntity
  8
0
100
AcDbLine
 62
7
  6
BYLAYER
 10
10.9295249825
 20
32.3284710683
 11
10.9294898539
 21
31.5428205924
  0
LINE
  5
248
100
AcDbEntity
  8
0
100
AcDbLine
 62
7
  6
BYLAYER
 10
11.2054879349
 20
49.1928205626
 11
11.2054879349
 21
49.5392298065
  0
LINE
  5
249
100
AcDbEntity
  8
0
100
AcDbLine
 62
7
  6
BYLAYER
 10
11.2702593128
 20
19.2272017683
 11
11.2702593128
 21
19.2588963136
  0
LINE
  5
24A
100
AcDbEntity
  8
0
100
AcDbLine
 62
7
  6
BYLAYER
 10
9.5667387639
 20
19.1528205924
 11
9.5548995646
 21
19.1081721981
  0
LINE
  5
24B
100
AcDbEntity
  8
0
100
AcDbLine
 62
7
  6
BYLAYER
 10
18.1508156818
 20
37.1802097191
 11
18.1583888764
 21
37.1878205924
  0
LINE
  5
24C
100
AcDbEntity
  8
0
100
AcDbLine
 62
7
  6
BYLAYER
 10
19.1254880704
 20
37.1878205924
 11
18.7304880704
 21
36.7928205924
  0
LINE
  5
24D
100
AcDbEntity
  8
0
100
AcDbLine
 62
7
  6
BYLAYER
 10
8.7265956429
 20
19.1028206191
 11
9.612077907
 21
19.1028206191
  0
LINE
  5
24E
100
AcDbEntity
  8
0
100
AcDbLine
 62
7
  6
BYLAYER
 10
9.5972076402
 20
19.1528205924
 11
8.7045297338
 21
19.1528205924
  0
LINE
  5
24F
100
AcDbEntity
  8
0
100
AcDbLine
 62
7
  6
BYLAYER
 10
7.0819299022
 20
19.2588963146
 11
13.822447004
 21
19.258896315
  0
LINE
  5
250
100
AcDbEntity
  8
0
100
AcDbLine
 62
7
  6
BYLAYER
 10
30.4592151582
 20
19.2588963134
 11
31.3290463363
 21
19.2588963133
  0
LINE
  5
251
100
AcDbEntity
  8
0
100
AcDbLine
 62
7
  6
BYLAYER
 10
28.3200911442
 20
19.2625050435
 11
15.9346920622
 21
19.2625050435
  0
LINE
  5
252
100
AcDbEntity
  8
0
100
AcDbLine
 62
7
  6
BYLAYER
 10
31.6804878335
 20
19.7628203006
 11
13.8228363474
 21
19.7628203006
  0
LINE
  5
253
100
AcDbEntity
  8
0
100
AcDbLine
 62
7
  6
BYLAYER
 10
7.9510539047
 20
19.7628203006
 11
6.7304880704
 21
19.7628203006
  0
LINE
  5
254
100
AcDbEntity
  8
0
100
AcDbLine
 62
7
  6
BYLAYER
 10
7.6417159911
 20
19.9888963127
 11
13.822447004
 21
19.9888963127
  0
LINE
  5
255
100
AcDbEntity
  8
0
100
AcDbLine
 62
7
  6
BYLAYER
 10
32.0654620518
 20
19.9928206549
 11
13.5781715845
 21
19.9928206549
  0
LINE
  5
256
100
AcDbEntity
  8
0
100
AcDbLine
 62
7
  6
BYLAYER
 10
7.6374207711
 20
19.9928206549
 11
6.345514089
 21
19.9928206549
  0
LINE
  5
257
100
AcDbEntity
  8
0
100
AcDbLine
 62
7
  6
BYLAYER
 10
13.4058806966
 20
49.1928205626
 11
13.3849347827
 21
50.3928205924
  0
LINE
  5
258
100
AcDbEntity
  8
0
100
AcDbLine
 62
7
  6
BYLAYER
 10
13.7242547158
 20
5.6328416614
 11
13.7242547158
 21
19.2588963128
  0
LINE
  5
259
100
AcDbEntity
  8
0
100
AcDbLine
 62
7
  6
BYLAYER
 10
13.8228363474
 20
19.9928206549
 11
13.822447004
 21
19.2588963082
  0
LINE
  5
25A
100
AcDbEntity
  8
0
100
AcDbLine
 62
7
  6
BYLAYER
 10
18.4637809139
 20
36.9060891419
 11
17.2054880704
 21
34.8928205924
  0
LINE
  5
25B
100
AcDbEntity
  8
0
100
AcDbLine
 62
7
  6
BYLAYER
 10
11.2758335733
 20
20.402143629
 11
7.388322242
 21
20.4020563798
  0
LINE
  5
25C
100
AcDbEntity
  8
0
100
AcDbLine
 62
7
  6
BYLAYER
 10
33.4554880741
 20
20.4067447692
 11
4.9554880667
 21
20.4067447692
  0
LINE
  5
25D
100
AcDbEntity
  8
0
100
AcDbLine
 62
7
  6
BYLAYER
 10
14.3621657111
 20
31.5428205924
 11
14.3621172289
 21
32.3284710683
  0
LINE
  5
25E
100
AcDbEntity
  8
0
100
AcDbLine
 62
7
  6
BYLAYER
 10
14.6011422971
 20
34.8928205924
 11
14.6011422971
 21
36.7928205449
  0
LINE
  5
25F
100
AcDbEntity
  8
0
100
AcDbLine
 62
7
  6
BYLAYER
 10
15.1054882831
 20
48.8928210722
 11
15.1054882831
 21
49.1928205626
  0
LINE
  5
260
100
AcDbEntity
  8
0
100
AcDbLine
 62
7
  6
BYLAYER
 10
16.3349480515
 20
34.7928205924
 11
16.3349480515
 21
34.8928205924
  0
LINE
  5
261
100
AcDbEntity
  8
0
100
AcDbLine
 62
7
  6
BYLAYER
 10
16.7054881263
 20
43.7828205924
 11
16.7054881263
 21
40.6606239286
  0
LINE
  5
262
100
AcDbEntity
  8
0
100
AcDbLine
 62
7
  6
BYLAYER
 10
16.9554880704
 20
31.5428205924
 11
16.9554880704
 21
32.7928205924
  0
LINE
  5
263
100
AcDbEntity
  8
0
100
AcDbLine
 62
7
  6
BYLAYER
 10
17.8054880704
 20
32.2928205924
 11
17.8054880704
 21
31.5428205924
  0
LINE
  5
264
100
AcDbEntity
  8
0
100
AcDbLine
 62
7
  6
BYLAYER
 10
18.0922805232
 20
43.7828205924
 11
18.0922805232
 21
39.2928206054
  0
LINE
  5
265
100
AcDbEntity
  8
0
100
AcDbLine
 62
7
  6
BYLAYER
 10
20.3186956176
 20
43.7828205924
 11
20.3186956176
 21
39.2928206054
  0
LINE
  5
266
100
AcDbEntity
  8
0
100
AcDbLine
 62
7
  6
BYLAYER
 10
20.6054880704
 20
31.5428205924
 11
20.6054880704
 21
32.2928205924
  0
LINE
  5
267
100
AcDbEntity
  8
0
100
AcDbLine
 62
7
  6
BYLAYER
 10
4.9554901221
 20
29.0928205924
 11
4.9942249279
 21
29.0928205924
  0
LINE
  5
268
100
AcDbEntity
  8
0
100
AcDbLine
 62
7
  6
BYLAYER
 10
33.4167512129
 20
29.0928205924
 11
33.4554860187
 21
29.0928205924
  0
LINE
  5
269
100
AcDbEntity
  8
0
100
AcDbLine
 62
7
  6
BYLAYER
 10
21.4554880704
 20
32.7928205924
 11
21.4554880704
 21
31.5428205924
  0
LINE
  5
26A
100
AcDbEntity
  8
0
100
AcDbLine
 62
7
  6
BYLAYER
 10
21.7054880704
 20
43.7828205924
 11
21.7054880704
 21
40.6606245075
  0
LINE
  5
26B
100
AcDbEntity
  8
0
100
AcDbLine
 62
7
  6
BYLAYER
 10
22.0760280893
 20
34.8928205924
 11
22.0760280893
 21
34.7928205924
  0
LINE
  5
26C
100
AcDbEntity
  8
0
100
AcDbLine
 62
7
  6
BYLAYER
 10
5.002373089
 20
30.2928203875
 11
33.408603056
 21
30.2928203875
  0
LINE
  5
26D
100
AcDbEntity
  8
0
100
AcDbLine
 62
7
  6
BYLAYER
 10
23.3054880905
 20
49.1928205626
 11
23.3054880905
 21
48.8928210722
  0
LINE
  5
26E
100
AcDbEntity
  8
0
100
AcDbLine
 62
7
  6
BYLAYER
 10
23.8098338437
 20
36.7928205686
 11
23.8098338437
 21
34.8928205924
  0
LINE
  5
26F
100
AcDbEntity
  8
0
100
AcDbLine
 62
7
  6
BYLAYER
 10
24.0488589119
 20
32.3284710683
 11
24.0488104298
 21
31.5428205924
  0
LINE
  5
270
100
AcDbEntity
  8
0
100
AcDbLine
 62
7
  6
BYLAYER
 10
6.6054880704
 20
31.5428205924
 11
31.8054880704
 21
31.5428205924
  0
LINE
  5
271
100
AcDbEntity
  8
0
100
AcDbLine
 62
7
  6
BYLAYER
 10
20.6054880704
 20
32.2928205924
 11
17.8054880704
 21
32.2928205924
  0
LINE
  5
272
100
AcDbEntity
  8
0
100
AcDbLine
 62
7
  6
BYLAYER
 10
10.9295601113
 20
32.3284710683
 11
14.3620687463
 21
32.3284710683
  0
LINE
  5
273
100
AcDbEntity
  8
0
100
AcDbLine
 62
7
  6
BYLAYER
 10
24.0489073945
 20
32.3284710683
 11
27.4814160295
 21
32.3284710683
  0
LINE
  5
274
100
AcDbEntity
  8
0
100
AcDbLine
 62
7
  6
BYLAYER
 10
27.4408909236
 20
32.5275232825
 11
24.1045529586
 21
32.5275232825
  0
LINE
  5
275
100
AcDbEntity
  8
0
100
AcDbLine
 62
7
  6
BYLAYER
 10
14.3064231807
 20
32.5275232825
 11
10.9700852171
 21
32.5275232825
  0
LINE
  5
276
100
AcDbEntity
  8
0
100
AcDbLine
 62
7
  6
BYLAYER
 10
21.4554880704
 20
32.7928205924
 11
16.9554880704
 21
32.7928205924
  0
LINE
  5
277
100
AcDbEntity
  8
0
100
AcDbLine
 62
7
  6
BYLAYER
 10
25.0260418202
 20
49.1928205626
 11
25.0260418202
 21
50.3928205924
  0
LINE
  5
278
100
AcDbEntity
  8
0
100
AcDbLine
 62
7
  6
BYLAYER
 10
26.0326672527
 20
34.1528205919
 11
25.7673401462
 21
34.1528205919
  0
LINE
  5
279
100
AcDbEntity
  8
0
100
AcDbLine
 62
7
  6
BYLAYER
 10
12.6436347901
 20
34.1528205919
 11
12.3783077124
 21
34.1528205919
  0
LINE
  5
27A
100
AcDbEntity
  8
0
100
AcDbLine
 62
7
  6
BYLAYER
 10
8.3304880704
 20
34.2428205924
 11
30.0804880704
 21
34.2428205924
  0
LINE
  5
27B
100
AcDbEntity
  8
0
100
AcDbLine
 62
7
  6
BYLAYER
 10
8.5804880704
 20
34.4928205924
 11
29.8304880704
 21
34.4928205924
  0
LINE
  5
27C
100
AcDbEntity
  8
0
100
AcDbLine
 62
7
  6
BYLAYER
 10
19.6804880942
 20
36.7928205686
 11
19.2854880704
 21
37.1878205924
  0
LINE
  5
27D
100
AcDbEntity
  8
0
100
AcDbLine
 62
7
  6
BYLAYER
 10
21.2054880704
 20
34.8928205924
 11
19.9471952269
 21
36.9060891419
  0
LINE
  5
27E
100
AcDbEntity
  8
0
100
AcDbLine
 62
7
  6
BYLAYER
 10
27.2054882059
 20
49.5392307807
 11
27.2054882059
 21
49.1928205626
  0
LINE
  5
27F
100
AcDbEntity
  8
0
100
AcDbLine
 62
7
  6
BYLAYER
 10
27.4814862869
 20
31.5428205924
 11
27.4814511583
 21
32.3284710683
  0
LINE
  5
280
100
AcDbEntity
  8
0
100
AcDbLine
 62
7
  6
BYLAYER
 10
27.7054885323
 20
44.0128211663
 11
27.7054885323
 21
45.5928210901
  0
LINE
  5
281
100
AcDbEntity
  8
0
100
AcDbLine
 62
7
  6
BYLAYER
 10
16.3349480515
 20
34.7928205924
 11
22.0760280893
 21
34.7928205924
  0
LINE
  5
282
100
AcDbEntity
  8
0
100
AcDbLine
 62
7
  6
BYLAYER
 10
8.2443065648
 20
34.8928205924
 11
16.3349480515
 21
34.8928205924
  0
LINE
  5
283
100
AcDbEntity
  8
0
100
AcDbLine
 62
7
  6
BYLAYER
 10
17.2054880704
 20
34.8928205924
 11
21.2054880704
 21
34.8928205924
  0
LINE
  5
284
100
AcDbEntity
  8
0
100
AcDbLine
 62
7
  6
BYLAYER
 10
22.0760280893
 20
34.8928205924
 11
30.1666695761
 21
34.8928205924
  0
LINE
  5
285
100
AcDbEntity
  8
0
100
AcDbLine
 62
7
  6
BYLAYER
 10
20.2525872644
 20
37.1878205924
 11
20.2601644359
 21
37.18020945
  0
LINE
  5
286
100
AcDbEntity
  8
0
100
AcDbLine
 62
7
  6
BYLAYER
 10
29.0923480351
 20
45.5928210901
 11
29.0923480351
 21
46.0128205629
  0
LINE
  5
287
100
AcDbEntity
  8
0
100
AcDbLine
 62
7
  6
BYLAYER
 10
29.2054880704
 20
43.7928206445
 11
29.2054880704
 21
44.0128211663
  0
LINE
  5
288
100
AcDbEntity
  8
0
100
AcDbLine
 62
7
  6
BYLAYER
 10
29.3542965266
 20
43.7828205924
 11
29.3542965266
 21
40.6606245088
  0
LINE
  5
289
100
AcDbEntity
  8
0
100
AcDbLine
 62
7
  6
BYLAYER
 10
29.5586276908
 20
34.4928205924
 11
29.5586276908
 21
34.8928205924
  0
LINE
  5
28A
100
AcDbEntity
  8
0
100
AcDbLine
 62
7
  6
BYLAYER
 10
30.0804880704
 20
31.5428205924
 11
30.0804880704
 21
34.2428205924
  0
LINE
  5
28B
100
AcDbEntity
  8
0
100
AcDbLine
 62
7
  6
BYLAYER
 10
30.1666695761
 20
34.8928205924
 11
30.1666695761
 21
36.7928205686
  0
LINE
  5
28C
100
AcDbEntity
  8
0
100
AcDbLine
 62
7
  6
BYLAYER
 10
32.0654882039
 20
19.9928206549
 11
33.4554880704
 21
20.4067447692
  0
LINE
  5
28D
100
AcDbEntity
  8
0
100
AcDbLine
 62
7
  6
BYLAYER
 10
19.8340382009
 20
36.7928205449
 11
19.6804880704
 21
36.7928205449
  0
LINE
  5
28E
100
AcDbEntity
  8
0
100
AcDbLine
 62
7
  6
BYLAYER
 10
18.7304880704
 20
36.7928205449
 11
18.5769379399
 21
36.7928205449
  0
LINE
  5
28F
100
AcDbEntity
  8
0
100
AcDbLine
 62
7
  6
BYLAYER
 10
14.2936335196
 20
36.7928205449
 11
14.9661880828
 21
36.7928205449
  0
LINE
  5
290
100
AcDbEntity
  8
0
100
AcDbLine
 62
7
  6
BYLAYER
 10
6.5711134124
 20
36.7928205924
 11
13.2492099362
 21
36.7928205449
  0
LINE
  5
291
100
AcDbEntity
  8
0
100
AcDbLine
 62
7
  6
BYLAYER
 10
13.2963107365
 20
36.7928205449
 11
14.0882263258
 21
36.7928205924
  0
LINE
  5
292
100
AcDbEntity
  8
0
100
AcDbLine
 62
7
  6
BYLAYER
 10
15.3283384818
 20
36.7928205449
 11
15.8764135603
 21
36.7928205924
  0
LINE
  5
293
100
AcDbEntity
  8
0
100
AcDbLine
 62
7
  6
BYLAYER
 10
16.3925508934
 20
36.7928205449
 11
16.8119752609
 21
36.7928205924
  0
LINE
  5
294
100
AcDbEntity
  8
0
100
AcDbLine
 62
7
  6
BYLAYER
 10
17.4781714555
 20
36.7928205449
 11
17.7657530392
 21
36.7928205924
  0
LINE
  5
295
100
AcDbEntity
  8
0
100
AcDbLine
 62
7
  6
BYLAYER
 10
20.6452231252
 20
36.7928205686
 11
20.9328046383
 21
36.7928205449
  0
LINE
  5
296
100
AcDbEntity
  8
0
100
AcDbLine
 62
7
  6
BYLAYER
 10
21.5990009032
 20
36.7928205686
 11
22.018425201
 21
36.7928205449
  0
LINE
  5
297
100
AcDbEntity
  8
0
100
AcDbLine
 62
7
  6
BYLAYER
 10
22.5345626033
 20
36.7928205686
 11
23.082637659
 21
36.7928205449
  0
LINE
  5
298
100
AcDbEntity
  8
0
100
AcDbLine
 62
7
  6
BYLAYER
 10
23.444788036
 20
36.7928205686
 11
24.1173425773
 21
36.7928205449
  0
LINE
  5
299
100
AcDbEntity
  8
0
100
AcDbLine
 62
7
  6
BYLAYER
 10
24.3227498363
 20
36.7928205686
 11
25.1146654044
 21
36.7928205449
  0
LINE
  5
29A
100
AcDbEntity
  8
0
100
AcDbLine
 62
7
  6
BYLAYER
 10
25.1617661846
 20
36.7928205686
 11
31.84656687
 21
36.7928205449
  0
LINE
  5
29B
100
AcDbEntity
  8
0
100
AcDbLine
 62
7
  6
BYLAYER
 10
31.8140713881
 20
37.1878205924
 11
31.8001265364
 21
37.1878205924
  0
LINE
  5
29C
100
AcDbEntity
  8
0
100
AcDbLine
 62
7
  6
BYLAYER
 10
31.6769488089
 20
37.1878205924
 11
31.6491651668
 21
37.1878205924
  0
LINE
  5
29D
100
AcDbEntity
  8
0
100
AcDbLine
 62
7
  6
BYLAYER
 10
31.444910883
 20
37.1878205924
 11
31.4034998358
 21
37.1878205924
  0
LINE
  5
29E
100
AcDbEntity
  8
0
100
AcDbLine
 62
7
  6
BYLAYER
 10
31.1197235592
 20
37.1878205924
 11
31.0650003363
 21
37.1878205924
  0
LINE
  5
29F
100
AcDbEntity
  8
0
100
AcDbLine
 62
7
  6
BYLAYER
 10
30.7038617093
 20
37.1878205924
 11
30.6362427874
 21
37.1878205924
  0
LINE
  5
2A0
100
AcDbEntity
  8
0
100
AcDbLine
 62
7
  6
BYLAYER
 10
30.2004902931
 20
37.1878205924
 11
30.1204902931
 21
37.1878205924
  0
LINE
  5
2A1
100
AcDbEntity
  8
0
100
AcDbLine
 62
7
  6
BYLAYER
 10
29.613440271
 20
37.1878205924
 11
29.5216680412
 21
37.1878205924
  0
LINE
  5
2A2
100
AcDbEntity
  8
0
100
AcDbLine
 62
7
  6
BYLAYER
 10
28.9471794482
 20
37.1878205924
 11
28.8443334306
 21
37.1878205924
  0
LINE
  5
2A3
100
AcDbEntity
  8
0
100
AcDbLine
 62
7
  6
BYLAYER
 10
28.2067784718
 20
37.1878205924
 11
28.0936413868
 21
37.1878205924
  0
LINE
  5
2A4
100
AcDbEntity
  8
0
100
AcDbLine
 62
7
  6
BYLAYER
 10
27.3978722403
 20
37.1878205924
 11
27.2753051294
 21
37.1878205924
  0
LINE
  5
2A5
100
AcDbEntity
  8
0
100
AcDbLine
 62
7
  6
BYLAYER
 10
26.5266170186
 20
37.1878205924
 11
26.3955526915
 21
37.1878205924
  0
LINE
  5
2A6
100
AcDbEntity
  8
0
100
AcDbLine
 62
7
  6
BYLAYER
 10
25.599643585
 20
37.1878205924
 11
25.4610795204
 21
37.1878205924
  0
LINE
  5
2A7
100
AcDbEntity
  8
0
100
AcDbLine
 62
7
  6
BYLAYER
 10
24.624006767
 20
37.1878205924
 11
24.478997521
 21
37.1878205924
  0
LINE
  5
2A8
100
AcDbEntity
  8
0
100
AcDbLine
 62
7
  6
BYLAYER
 10
23.6071317499
 20
37.1878205924
 11
23.4567809306
 21
37.1878205924
  0
LINE
  5
2A9
100
AcDbEntity
  8
0
100
AcDbLine
 62
7
  6
BYLAYER
 10
22.5567575667
 20
37.1878205924
 11
22.4022094344
 21
37.1878205924
  0
LINE
  5
2AA
100
AcDbEntity
  8
0
100
AcDbLine
 62
7
  6
BYLAYER
 10
21.480878199
 20
37.1878205924
 11
21.3233089585
 21
37.1878205924
  0
LINE
  5
2AB
100
AcDbEntity
  8
0
100
AcDbLine
 62
7
  6
BYLAYER
 10
20.3876817385
 20
37.1878205924
 11
20.2525872644
 21
37.1878205924
  0
LINE
  5
2AC
100
AcDbEntity
  8
0
100
AcDbLine
 62
7
  6
BYLAYER
 10
18.1583888764
 20
37.1878205924
 11
18.0232944023
 21
37.1878205924
  0
LINE
  5
2AD
100
AcDbEntity
  8
0
100
AcDbLine
 62
7
  6
BYLAYER
 10
17.0876677153
 20
37.1878205924
 11
16.9300979418
 21
37.1878205924
  0
LINE
  5
2AE
100
AcDbEntity
  8
0
100
AcDbLine
 62
7
  6
BYLAYER
 10
16.0087675007
 20
37.1878205924
 11
15.8542185742
 21
37.1878205924
  0
LINE
  5
2AF
100
AcDbEntity
  8
0
100
AcDbLine
 62
7
  6
BYLAYER
 10
14.9541962599
 20
37.1878205924
 11
14.8038443909
 21
37.1878205924
  0
LINE
  5
2B0
100
AcDbEntity
  8
0
100
AcDbLine
 62
7
  6
BYLAYER
 10
13.9319799168
 20
37.1878205924
 11
13.7869693739
 21
37.1878205924
  0
LINE
  5
2B1
100
AcDbEntity
  8
0
100
AcDbLine
 62
7
  6
BYLAYER
 10
12.949898155
 20
37.1878205924
 11
12.8113325559
 21
37.1878205924
  0
LINE
  5
2B2
100
AcDbEntity
  8
0
100
AcDbLine
 62
7
  6
BYLAYER
 10
12.0154252096
 20
37.1878205924
 11
11.8843591222
 21
37.1878205924
  0
LINE
  5
2B3
100
AcDbEntity
  8
0
100
AcDbLine
 62
7
  6
BYLAYER
 10
11.1356729842
 20
37.1878205924
 11
11.0131039005
 21
37.1878205924
  0
LINE
  5
2B4
100
AcDbEntity
  8
0
100
AcDbLine
 62
7
  6
BYLAYER
 10
10.3173369242
 20
37.1878205924
 11
10.204197669
 21
37.1878205924
  0
LINE
  5
2B5
100
AcDbEntity
  8
0
100
AcDbLine
 62
7
  6
BYLAYER
 10
9.5666450612
 20
37.1878205924
 11
9.4637966926
 21
37.1878205924
  0
LINE
  5
2B6
100
AcDbEntity
  8
0
100
AcDbLine
 62
7
  6
BYLAYER
 10
8.8893106136
 20
37.1878205924
 11
8.7975358698
 21
37.1878205924
  0
LINE
  5
2B7
100
AcDbEntity
  8
0
100
AcDbLine
 62
7
  6
BYLAYER
 10
8.2904885056
 20
37.1878205924
 11
8.2104858477
 21
37.1878205924
  0
LINE
  5
2B8
100
AcDbEntity
  8
0
100
AcDbLine
 62
7
  6
BYLAYER
 10
7.7747361349
 20
37.1878205924
 11
7.7071144315
 21
37.1878205924
  0
LINE
  5
2B9
100
AcDbEntity
  8
0
100
AcDbLine
 62
7
  6
BYLAYER
 10
7.3459786885
 20
37.1878205924
 11
7.2912525816
 21
37.1878205924
  0
LINE
  5
2BA
100
AcDbEntity
  8
0
100
AcDbLine
 62
7
  6
BYLAYER
 10
7.0074792695
 20
37.1878205924
 11
6.9660652578
 21
37.1878205924
  0
LINE
  5
2BB
100
AcDbEntity
  8
0
100
AcDbLine
 62
7
  6
BYLAYER
 10
6.7618140628
 20
37.1878205924
 11
6.7340273319
 21
37.1878205924
  0
LINE
  5
2BC
100
AcDbEntity
  8
0
100
AcDbLine
 62
7
  6
BYLAYER
 10
6.610852729
 20
37.1878205924
 11
6.5969047528
 21
37.1878205924
  0
LINE
  5
2BD
100
AcDbEntity
  8
0
100
AcDbLine
 62
7
  6
BYLAYER
 10
33.9553654815
 20
37.7928205924
 11
4.4556106593
 21
37.7928205924
  0
LINE
  5
2BE
100
AcDbEntity
  8
0
100
AcDbLine
 62
7
  6
BYLAYER
 10
25.142075203
 20
36.8160525571
 11
25.1617661846
 21
36.7928205686
  0
LINE
  5
2BF
100
AcDbEntity
  8
0
100
AcDbLine
 62
7
  6
BYLAYER
 10
30.4592151582
 20
19.2588963066
 11
30.4592151582
 21
19.5809901749
  0
LINE
  5
2C0
100
AcDbEntity
  8
0
100
AcDbLine
 62
7
  6
BYLAYER
 10
30.594408318
 20
5.6331898628
 11
30.594408318
 21
19.2588963066
  0
LINE
  5
2C1
100
AcDbEntity
  8
0
100
AcDbLine
 62
7
  6
BYLAYER
 10
31.329046332
 20
8.9770899093
 11
31.3290463363
 21
19.2588963127
  0
LINE
  5
2C2
100
AcDbEntity
  8
0
100
AcDbLine
 62
7
  6
BYLAYER
 10
31.34302593
 20
43.7828205924
 11
31.34302593
 21
39.2928206054
  0
LINE
  5
2C3
100
AcDbEntity
  8
0
100
AcDbLine
 62
7
  6
BYLAYER
 10
31.6804878335
 20
19.7628203006
 11
31.6804878335
 21
19.9928206549
  0
LINE
  5
2C4
100
AcDbEntity
  8
0
100
AcDbLine
 62
7
  6
BYLAYER
 10
31.8054880704
 20
30.2928205924
 11
31.8054880704
 21
31.5428205924
  0
LINE
  5
2C5
100
AcDbEntity
  8
0
100
AcDbLine
 62
7
  6
BYLAYER
 10
31.8554880019
 20
37.2278205924
 11
31.8554880019
 21
37.7928205924
  0
LINE
  5
2C6
100
AcDbEntity
  8
0
100
AcDbLine
 62
7
  6
BYLAYER
 10
31.8554903141
 20
37.2278205924
 11
31.8552351023
 21
37.1878205924
  0
LINE
  5
2C7
100
AcDbEntity
  8
0
100
AcDbLine
 62
7
  6
BYLAYER
 10
4.4976783483
 20
39.2928206054
 11
33.9132977925
 21
39.2928206054
  0
LINE
  5
2C8
100
AcDbEntity
  8
0
100
AcDbLine
 62
7
  6
BYLAYER
 10
32.4562334772
 20
43.7828205924
 11
32.4562334772
 21
39.2928206054
  0
LINE
  5
2C9
100
AcDbEntity
  8
0
100
AcDbLine
 62
7
  6
BYLAYER
 10
32.6042965159
 20
39.2928206054
 11
32.6042965159
 21
43.7828205924
  0
LINE
  5
2CA
100
AcDbEntity
  8
0
100
AcDbLine
 62
7
  6
BYLAYER
 10
33.4554880741
 20
20.4067447703
 11
33.4554880741
 21
29.0928205924
  0
LINE
  5
2CB
100
AcDbEntity
  8
0
100
AcDbLine
 62
7
  6
BYLAYER
 10
33.9134203191
 20
39.2928206054
 11
33.9554881598
 21
37.7928205924
  0
LINE
  5
2CC
100
AcDbEntity
  8
0
100
AcDbLine
 62
7
  6
BYLAYER
 10
10.052312294
 20
43.5954266362
 11
16.7054881263
 21
43.5954266362
  0
LINE
  5
2CD
100
AcDbEntity
  8
0
100
AcDbLine
 62
7
  6
BYLAYER
 10
21.70548807
 20
43.5954266362
 11
28.3586638469
 21
43.5954266362
  0
LINE
  5
2CE
100
AcDbEntity
  8
0
100
AcDbLine
 62
7
  6
BYLAYER
 10
5.8066796138
 20
43.7828205924
 11
10.2354566384
 21
43.7828205924
  0
LINE
  5
2CF
100
AcDbEntity
  8
0
100
AcDbLine
 62
7
  6
BYLAYER
 10
16.7054881263
 20
43.7828205924
 11
21.7054880704
 21
43.7828205924
  0
LINE
  5
2D0
100
AcDbEntity
  8
0
100
AcDbLine
 62
7
  6
BYLAYER
 10
28.1755195024
 20
43.7828205924
 11
32.6042965159
 21
43.7828205924
  0
LINE
  5
2D1
100
AcDbEntity
  8
0
100
AcDbLine
 62
7
  6
BYLAYER
 10
7.2106866087
 20
43.7928206445
 11
31.2002895321
 21
43.7928206445
  0
LINE
  5
2D2
100
AcDbEntity
  8
0
100
AcDbLine
 62
7
  6
BYLAYER
 10
9.2054880704
 20
44.0128211663
 11
10.7054880741
 21
44.0128211663
  0
LINE
  5
2D3
100
AcDbEntity
  8
0
100
AcDbLine
 62
7
  6
BYLAYER
 10
27.7054885323
 20
44.0128211663
 11
29.2054880704
 21
44.0128211663
  0
LINE
  5
2D4
100
AcDbEntity
  8
0
100
AcDbLine
 62
7
  6
BYLAYER
 10
29.0923480574
 20
45.5928210901
 11
27.7054885323
 21
45.5928210901
  0
LINE
  5
2D5
100
AcDbEntity
  8
0
100
AcDbLine
 62
7
  6
BYLAYER
 10
10.7054880741
 20
45.5928210901
 11
9.3186280834
 21
45.5928210901
  0
LINE
  5
2D6
100
AcDbEntity
  8
0
100
AcDbLine
 62
7
  6
BYLAYER
 10
29.0833346474
 20
46.2867058827
 11
26.7126678154
 21
50.3928205924
  0
LINE
  5
2D7
100
AcDbEntity
  8
0
100
AcDbLine
 62
7
  6
BYLAYER
 10
32.6042965159
 20
40.6572940444
 11
33.1285449266
 21
39.2928206054
  0
LINE
  5
2D8
100
AcDbEntity
  8
0
100
AcDbLine
 62
7
  6
BYLAYER
 10
15.1054882831
 20
48.8928210722
 11
23.3054880905
 21
48.8928210722
  0
LINE
  5
2D9
100
AcDbEntity
  8
0
100
AcDbLine
 62
7
  6
BYLAYER
 10
11.2054879349
 20
49.1928205626
 11
15.1054882831
 21
49.1928205626
  0
LINE
  5
2DA
100
AcDbEntity
  8
0
100
AcDbLine
 62
7
  6
BYLAYER
 10
23.3054880905
 20
49.1928205626
 11
27.2054882059
 21
49.1928205626
  0
LINE
  5
2DB
100
AcDbEntity
  8
0
100
AcDbLine
 62
7
  6
BYLAYER
 10
11.6983086723
 20
50.3928205924
 11
13.3849347827
 21
50.3928205924
  0
LINE
  5
2DC
100
AcDbEntity
  8
0
100
AcDbLine
 62
7
  6
BYLAYER
 10
25.0260418202
 20
50.3928205924
 11
26.7126678154
 21
50.3928205924
  0
ARC
  5
2DD
100
AcDbEntity
  8
0
100
AcDbCircle
 62
7
  6
BYLAYER
 10
-713.9987531392
 20
9.020128988
 40
745.3278007139
100
AcDbArc
 50
359.7936757364
 51
359.9966914456
  0
ARC
  5
2DE
100
AcDbEntity
  8
0
100
AcDbCircle
 62
7
  6
BYLAYER
 10
-121.0442863525
 20
-103.0165166897
 40
199.9266833695
100
AcDbArc
 50
44.3711134345
 51
44.5296896146
  0
ARC
  5
2DF
100
AcDbEntity
  8
0
100
AcDbCircle
 62
7
  6
BYLAYER
 10
-103.8435620515
 20
-85.8118735211
 40
175.4073761661
100
AcDbArc
 50
44.3445167789
 51
44.4996569184
  0
ARC
  5
2E0
100
AcDbEntity
  8
0
100
AcDbCircle
 62
7
  6
BYLAYER
 10
-71.0104274007
 20
-53.0393146794
 40
129.9836683667
100
AcDbArc
 50
43.7175039852
 51
43.9588922652
  0
ARC
  5
2E1
100
AcDbEntity
  8
0
100
AcDbCircle
 62
7
  6
BYLAYER
 10
-59.7969171993
 20
-41.8213264559
 40
113.8360956766
100
AcDbArc
 50
43.6768847226
 51
43.8631973992
  0
ARC
  5
2E2
100
AcDbEntity
  8
0
100
AcDbCircle
 62
7
  6
BYLAYER
 10
-45.1755204377
 20
-27.2996016268
 40
94.2851041599
100
AcDbArc
 50
42.8258689657
 51
43.1540237562
  0
ARC
  5
2E3
100
AcDbEntity
  8
0
100
AcDbCircle
 62
7
  6
BYLAYER
 10
-36.9957847626
 20
-19.1178018734
 40
82.3350505075
100
AcDbArc
 50
42.7704052461
 51
42.9534789076
  0
ARC
  5
2E4
100
AcDbEntity
  8
0
100
AcDbCircle
 62
7
  6
BYLAYER
 10
-29.0757738037
 20
-11.3391063317
 40
72.3776835084
100
AcDbArc
 50
41.6831387751
 51
42.1032021811
  0
ARC
  5
2E5
100
AcDbEntity
  8
0
100
AcDbCircle
 62
7
  6
BYLAYER
 10
-22.7431832423
 20
-5.0116257411
 40
62.950883932
100
AcDbArc
 50
41.6118125318
 51
41.7500560342
  0
ARC
  5
2E6
100
AcDbEntity
  8
0
100
AcDbCircle
 62
7
  6
BYLAYER
 10
-17.9014988711
 20
-0.3498591099
 40
57.4580437573
100
AcDbArc
 50
40.2730767366
 51
40.7913197402
  0
ARC
  5
2E7
100
AcDbEntity
  8
0
100
AcDbCircle
 62
7
  6
BYLAYER
 10
-9.6009541407
 20
7.7226004762
 40
46.6197446836
100
AcDbArc
 50
38.576592178
 51
39.2002781609
  0
ARC
  5
2E8
100
AcDbEntity
  8
0
100
AcDbCircle
 62
7
  6
BYLAYER
 10
-3.1562632796
 20
13.9038163142
 40
38.4148415667
100
AcDbArc
 50
36.5723606572
 51
37.3094803185
  0
ARC
  5
2E9
100
AcDbEntity
  8
0
100
AcDbCircle
 62
7
  6
BYLAYER
 10
1.9913050115
 20
18.7655103174
 40
32.0411074187
100
AcDbArc
 50
34.2379231623
 51
35.0967330041
  0
ARC
  5
2EA
100
AcDbEntity
  8
0
100
AcDbCircle
 62
7
  6
BYLAYER
 10
6.171234754
 20
22.6557136557
 40
27.0171387962
100
AcDbArc
 50
31.5514768136
 51
32.5397603512
  0
ARC
  5
2EB
100
AcDbEntity
  8
0
100
AcDbCircle
 62
7
  6
BYLAYER
 10
18.3538340917
 20
29.9351655101
 40
25.9104761699
100
AcDbArc
 50
267.4883129516
 51
267.9715700813
  0
ARC
  5
2EC
100
AcDbEntity
  8
0
100
AcDbCircle
 62
7
  6
BYLAYER
 10
18.3455496832
 20
29.2791814151
 40
25.2547981936
100
AcDbArc
 50
261.2741907709
 51
267.1622837439
  0
ARC
  5
2ED
100
AcDbEntity
  8
0
100
AcDbCircle
 62
7
  6
BYLAYER
 10
18.3703473932
 20
29.1792673021
 40
25.1556408781
100
AcDbArc
 50
261.1835963742
 51
267.8730683151
  0
ARC
  5
2EE
100
AcDbEntity
  8
0
100
AcDbCircle
 62
7
  6
BYLAYER
 10
18.2359047821
 20
27.0742280386
 40
23.0471203949
100
AcDbArc
 50
267.1631520665
 51
267.4695202396
  0
ARC
  5
2EF
100
AcDbEntity
  8
0
100
AcDbCircle
 62
7
  6
BYLAYER
 10
9.5882546023
 20
25.8033532535
 40
23.0350636564
100
AcDbArc
 50
28.4945797989
 51
29.618553082
  0
ARC
  5
2F0
100
AcDbEntity
  8
0
100
AcDbCircle
 62
7
  6
BYLAYER
 10
12.3745588154
 20
28.3704380983
 40
19.8874349048
100
AcDbArc
 50
25.0559262412
 51
26.3187468952
  0
ARC
  5
2F1
100
AcDbEntity
  8
0
100
AcDbCircle
 62
7
  6
BYLAYER
 10
14.6178812776
 20
30.4799874665
 40
17.4285338366
100
AcDbArc
 50
21.2361365644
 51
22.6360735281
  0
ARC
  5
2F2
100
AcDbEntity
  8
0
100
AcDbCircle
 62
7
  6
BYLAYER
 10
16.3774695832
 20
32.231775835
 40
15.5530200261
100
AcDbArc
 50
17.0530979437
 51
18.5815934418
  0
ARC
  5
2F3
100
AcDbEntity
  8
0
100
AcDbCircle
 62
7
  6
BYLAYER
 10
17.6935731909
 20
33.7115474782
 40
14.1839262226
100
AcDbArc
 50
12.546798324
 51
14.1868801673
  0
ARC
  5
2F4
100
AcDbEntity
  8
0
100
AcDbCircle
 62
7
  6
BYLAYER
 10
10.0908849966
 20
30.7978131346
 40
11.5353080911
100
AcDbArc
 50
253.0633606013
 51
259.215669074
  0
ARC
  5
2F5
100
AcDbEntity
  8
0
100
AcDbCircle
 62
7
  6
BYLAYER
 10
9.3759589762
 20
6.9974153351
 40
1.258956979
100
AcDbArc
 50
237.1087110864
 51
241.1066550413
  0
ARC
  5
2F6
100
AcDbEntity
  8
0
100
AcDbCircle
 62
7
  6
BYLAYER
 10
11.1050530305
 20
6.996986143
 40
1.2585707533
100
AcDbArc
 50
237.0997668436
 51
241.0982226754
  0
ARC
  5
2F7
100
AcDbEntity
  8
0
100
AcDbCircle
 62
7
  6
BYLAYER
 10
9.3285935703
 20
6.9145438211
 40
1.1635160828
100
AcDbArc
 50
241.1769491743
 51
245.5025442362
  0
ARC
  5
2F8
100
AcDbEntity
  8
0
100
AcDbCircle
 62
7
  6
BYLAYER
 10
11.0576327968
 20
6.9140560402
 40
1.163051865
100
AcDbArc
 50
241.1688225129
 51
245.4948824863
  0
ARC
  5
2F9
100
AcDbEntity
  8
0
100
AcDbCircle
 62
7
  6
BYLAYER
 10
9.3230051527
 20
6.9018297158
 40
1.1496292672
100
AcDbArc
 50
245.4932447081
 51
249.9079948883
  0
ARC
  5
2FA
100
AcDbEntity
  8
0
100
AcDbCircle
 62
7
  6
BYLAYER
 10
11.0519874761
 20
6.9012032989
 40
1.1490153255
100
AcDbArc
 50
245.4851999027
 51
249.9008911448
  0
ARC
  5
2FB
100
AcDbEntity
  8
0
100
AcDbCircle
 62
7
  6
BYLAYER
 10
11.3865859427
 20
32.3391033138
 40
0.4571465539
100
AcDbArc
 50
155.6401969063
 51
180.0137802889
  0
ARC
  5
2FC
100
AcDbEntity
  8
0
100
AcDbCircle
 62
7
  6
BYLAYER
 10
7.0196141072
 20
37.1520262942
 40
0.2878212569
100
AcDbArc
 50
171.8168556776
 51
172.8560320455
  0
ARC
  5
2FD
100
AcDbEntity
  8
0
100
AcDbCircle
 62
7
  6
BYLAYER
 10
8.5804880704
 20
34.2428205924
 40
0.25
100
AcDbArc
 50
90.0
 51
180.0
  0
ARC
  5
2FE
100
AcDbEntity
  8
0
100
AcDbCircle
 62
7
  6
BYLAYER
 10
18.2385176064
 20
37.1279292037
 40
0.1000377077
100
AcDbArc
 50
133.4420100403
 51
143.2240001041
  0
ARC
  5
2FF
100
AcDbEntity
  8
0
100
AcDbCircle
 62
7
  6
BYLAYER
 10
18.1030022347
 20
37.1284038636
 40
0.0994167347
100
AcDbArc
 50
36.7355507905
 51
143.2979959323
  0
ARC
  5
300
100
AcDbEntity
  8
0
100
AcDbCircle
 62
7
  6
BYLAYER
 10
-122.7312313715
 20
179.2122617703
 40
202.2934810655
100
AcDbArc
 50
315.2492614364
 51
315.4065805897
  0
ARC
  5
301
100
AcDbEntity
  8
0
100
AcDbCircle
 62
7
  6
BYLAYER
 10
-72.6490234014
 20
129.1561812635
 40
132.2607887023
100
AcDbArc
 50
315.7058079579
 51
315.9443907137
  0
ARC
  5
302
100
AcDbEntity
  8
0
100
AcDbCircle
 62
7
  6
BYLAYER
 10
-46.761702756
 20
103.3239449383
 40
96.4604706331
100
AcDbArc
 50
316.3917163325
 51
316.7148823554
  0
ARC
  5
303
100
AcDbEntity
  8
0
100
AcDbCircle
 62
7
  6
BYLAYER
 10
-30.6009333185
 20
87.2549528272
 40
74.4346459084
100
AcDbArc
 50
317.3172195292
 51
317.7294619268
  0
ARC
  5
304
100
AcDbEntity
  8
0
100
AcDbCircle
 62
7
  6
BYLAYER
 10
-19.3558108765
 20
76.1427309682
 40
59.3804572839
100
AcDbArc
 50
318.4958400081
 51
319.0027803762
  0
ARC
  5
305
100
AcDbEntity
  8
0
100
AcDbCircle
 62
7
  6
BYLAYER
 10
-10.9744216693
 20
67.935757818
 40
48.3937044186
100
AcDbArc
 50
319.9442394123
 51
320.5525230752
  0
ARC
  5
306
100
AcDbEntity
  8
0
100
AcDbCircle
 62
7
  6
BYLAYER
 10
-4.43913066
 20
61.6121398328
 40
40.0293992936
100
AcDbArc
 50
321.6818739592
 51
322.3989614788
  0
ARC
  5
307
100
AcDbEntity
  8
0
100
AcDbCircle
 62
7
  6
BYLAYER
 10
0.8083034447
 20
56.6042300648
 40
33.4886043815
100
AcDbArc
 50
323.7303211131
 51
324.5641180626
  0
ARC
  5
308
100
AcDbEntity
  8
0
100
AcDbCircle
 62
7
  6
BYLAYER
 10
5.0967300111
 20
52.5682716552
 40
28.2932314002
100
AcDbArc
 50
326.1121013682
 51
327.0703513251
  0
ARC
  5
309
100
AcDbEntity
  8
0
100
AcDbCircle
 62
7
  6
BYLAYER
 10
8.6301342771
 20
49.2796474832
 40
24.1385264789
100
AcDbArc
 50
328.8487765239
 51
329.9381376956
  0
ARC
  5
30A
100
AcDbEntity
  8
0
100
AcDbCircle
 62
7
  6
BYLAYER
 10
11.539877887
 20
46.5805456667
 40
20.8197608466
100
AcDbArc
 50
331.9581035969
 51
333.1828485731
  0
ARC
  5
30B
100
AcDbEntity
  8
0
100
AcDbCircle
 62
7
  6
BYLAYER
 10
13.9127900472
 20
44.3518913635
 40
18.1933444305
100
AcDbArc
 50
335.4501056759
 51
336.8104501921
  0
ARC
  5
30C
100
AcDbEntity
  8
0
100
AcDbCircle
 62
7
  6
BYLAYER
 10
15.8071589813
 20
42.4974730323
 40
16.1553128056
100
AcDbArc
 50
339.3221556782
 51
340.8123591375
  0
ARC
  5
30D
100
AcDbEntity
  8
0
100
AcDbCircle
 62
7
  6
BYLAYER
 10
17.2622257724
 20
40.9346180011
 40
14.6292215432
100
AcDbArc
 50
343.5536086477
 51
345.1601967142
  0
ARC
  5
30E
100
AcDbEntity
  8
0
100
AcDbCircle
 62
7
  6
BYLAYER
 10
18.3039974154
 20
39.5885614836
 40
13.5593900073
100
AcDbArc
 50
348.1011317489
 51
349.801803939
  0
ARC
  5
30F
100
AcDbEntity
  8
0
100
AcDbCircle
 62
7
  6
BYLAYER
 10
7.2204700313
 20
43.48873577
 40
0.3042422165
100
AcDbArc
 50
91.8427602919
 51
97.7874605539
  0
ARC
  5
310
100
AcDbEntity
  8
0
100
AcDbCircle
 62
7
  6
BYLAYER
 10
13.7951163345
 20
1684.1472590845
 40
1664.9219717923
100
AcDbArc
 50
269.7794684389
 51
269.9131108189
  0
ARC
  5
311
100
AcDbEntity
  8
0
100
AcDbCircle
 62
7
  6
BYLAYER
 10
159.6972675489
 20
-103.2539229381
 40
200.2656936259
100
AcDbArc
 50
135.4704446061
 51
135.6287523384
  0
ARC
  5
312
100
AcDbEntity
  8
0
100
AcDbCircle
 62
7
  6
BYLAYER
 10
142.0344198353
 20
-85.5961513964
 40
175.0991750114
100
AcDbArc
 50
135.5002065501
 51
135.6556197492
  0
ARC
  5
313
100
AcDbEntity
  8
0
100
AcDbCircle
 62
7
  6
BYLAYER
 10
109.6427660842
 20
-53.2518771936
 40
130.2905621281
100
AcDbArc
 50
136.0413920275
 51
136.2822117125
  0
ARC
  5
314
100
AcDbEntity
  8
0
100
AcDbCircle
 62
7
  6
BYLAYER
 10
98.0488886972
 20
-41.6690059814
 40
113.615905134
100
AcDbArc
 50
136.1366220693
 51
136.3232958084
  0
ARC
  5
315
100
AcDbEntity
  8
0
100
AcDbCircle
 62
7
  6
BYLAYER
 10
83.7939438277
 20
-27.4929812807
 40
94.5687049252
100
AcDbArc
 50
136.8464682913
 51
137.1736389999
  0
ARC
  5
316
100
AcDbEntity
  8
0
100
AcDbCircle
 62
7
  6
BYLAYER
 10
75.2994097523
 20
-19.0181778248
 40
82.1885951702
100
AcDbArc
 50
137.04635798
 51
137.229757891
  0
ARC
  5
317
100
AcDbEntity
  8
0
100
AcDbCircle
 62
7
  6
BYLAYER
 10
67.6821510098
 20
-11.5143876357
 40
72.6401795831
100
AcDbArc
 50
137.8975568072
 51
138.3161022198
  0
ARC
  5
318
100
AcDbEntity
  8
0
100
AcDbCircle
 62
7
  6
BYLAYER
 10
61.0947273892
 20
-4.9587091864
 40
62.8713080911
100
AcDbArc
 50
138.2498565092
 51
138.3882749566
  0
ARC
  5
319
100
AcDbEntity
  8
0
100
AcDbCircle
 62
7
  6
BYLAYER
 10
56.4961368815
 20
-0.5068997576
 40
57.699688658
100
AcDbArc
 50
139.2097654566
 51
139.7258380873
  0
ARC
  5
31A
100
AcDbEntity
  8
0
100
AcDbCircle
 62
7
  6
BYLAYER
 10
48.1835190126
 20
7.5842029926
 40
46.8401876997
100
AcDbArc
 50
140.8011894676
 51
141.4219402185
  0
ARC
  5
31B
100
AcDbEntity
  8
0
100
AcDbCircle
 62
7
  6
BYLAYER
 10
41.7261488135
 20
13.7843262057
 40
38.6136592067
100
AcDbArc
 50
142.6924173902
 51
143.4257416046
  0
ARC
  5
31C
100
AcDbEntity
  8
0
100
AcDbCircle
 62
7
  6
BYLAYER
 10
36.5651905071
 20
18.6648706345
 40
32.2180325059
100
AcDbArc
 50
144.9056251052
 51
145.7597187627
  0
ARC
  5
31D
100
AcDbEntity
  8
0
100
AcDbCircle
 62
7
  6
BYLAYER
 10
32.3711332327
 20
22.5734653793
 40
27.1721446642
100
AcDbArc
 50
147.4630585832
 51
148.4457042915
  0
ARC
  5
31E
100
AcDbEntity
  8
0
100
AcDbCircle
 62
7
  6
BYLAYER
 10
20.0971377609
 20
29.0850176422
 40
25.060031477
100
AcDbArc
 50
264.0980028649
 51
270.1034953884
  0
ARC
  5
31F
100
AcDbEntity
  8
0
100
AcDbCircle
 62
7
  6
BYLAYER
 10
20.0568084685
 20
28.9827071982
 40
24.9589668566
100
AcDbArc
 50
264.1634177356
 51
269.9935900892
  0
ARC
  5
320
100
AcDbEntity
  8
0
100
AcDbCircle
 62
7
  6
BYLAYER
 10
28.9392761921
 20
25.7385954492
 40
23.1683935479
100
AcDbArc
 50
150.3846811628
 51
151.5021859114
  0
ARC
  5
321
100
AcDbEntity
  8
0
100
AcDbCircle
 62
7
  6
BYLAYER
 10
26.1374867217
 20
28.3218241967
 40
19.9995813062
100
AcDbArc
 50
153.6847938533
 51
154.9405329598
  0
ARC
  5
322
100
AcDbEntity
  8
0
100
AcDbCircle
 62
7
  6
BYLAYER
 10
23.8781116444
 20
30.4457486882
 40
17.520179349
100
AcDbArc
 50
157.3675880723
 51
158.7602018912
  0
ARC
  5
323
100
AcDbEntity
  8
0
100
AcDbCircle
 62
7
  6
BYLAYER
 10
22.1019980565
 20
32.2097627414
 40
15.6249557276
100
AcDbArc
 50
161.421925269
 51
162.9433834066
  0
ARC
  5
324
100
AcDbEntity
  8
0
100
AcDbCircle
 62
7
  6
BYLAYER
 10
20.7690050434
 20
33.6992856774
 40
14.2369597379
100
AcDbArc
 50
165.8161747248
 51
167.4501468496
  0
ARC
  5
325
100
AcDbEntity
  8
0
100
AcDbCircle
 62
7
  6
BYLAYER
 10
19.852198759
 20
34.9913098598
 40
13.3007924948
100
AcDbArc
 50
170.4945545465
 51
172.2157130262
  0
ARC
  5
326
100
AcDbEntity
  8
0
100
AcDbCircle
 62
7
  6
BYLAYER
 10
18.5932419594
 20
34.9965497496
 40
13.2659358068
100
AcDbArc
 50
7.7820256888
 51
9.5077068075
  0
ARC
  5
327
100
AcDbEntity
  8
0
100
AcDbCircle
 62
7
  6
BYLAYER
 10
19.3342758572
 20
36.1577978831
 40
12.7789502478
100
AcDbArc
 50
175.3767685548
 51
177.1516351911
  0
ARC
  5
328
100
AcDbEntity
  8
0
100
AcDbCircle
 62
7
  6
BYLAYER
 10
19.0939008075
 20
36.1589209793
 40
12.7617151674
100
AcDbArc
 50
2.8471661184
 51
4.6244300645
  0
ARC
  5
329
100
AcDbEntity
  8
0
100
AcDbCircle
 62
7
  6
BYLAYER
 10
19.2049473895
 20
37.2678324495
 40
12.6505406765
100
AcDbArc
 50
357.8481096186
 51
359.6376145171
  0
ARC
  5
32A
100
AcDbEntity
  8
0
100
AcDbCircle
 62
7
  6
BYLAYER
 10
19.2060283301
 20
37.2678324442
 40
12.6505402553
100
AcDbArc
 50
180.362385471
 51
182.1518903215
  0
ARC
  5
32B
100
AcDbEntity
  8
0
100
AcDbCircle
 62
7
  6
BYLAYER
 10
27.0243903526
 20
32.3391033395
 40
0.4571463994
100
AcDbArc
 50
359.9862164803
 51
24.3598380348
  0
ARC
  5
32C
100
AcDbEntity
  8
0
100
AcDbCircle
 62
7
  6
BYLAYER
 10
29.8304880704
 20
34.2428205924
 40
0.25
100
AcDbArc
 50
0.0
 51
90.0
  0
ARC
  5
32D
100
AcDbEntity
  8
0
100
AcDbCircle
 62
7
  6
BYLAYER
 10
20.1724409654
 20
37.1279137832
 40
0.1000612617
100
AcDbArc
 50
36.7769427894
 51
46.7679762115
  0
ARC
  5
32E
100
AcDbEntity
  8
0
100
AcDbCircle
 62
7
  6
BYLAYER
 10
19.2054880704
 20
37.1278205924
 40
0.1
100
AcDbArc
 50
36.8698976458
 51
143.1301023541
  0
ARC
  5
32F
100
AcDbEntity
  8
0
100
AcDbCircle
 62
7
  6
BYLAYER
 10
20.3079736411
 20
37.1284038803
 40
0.099416718
100
AcDbArc
 50
36.7019992353
 51
143.2644539431
  0
ARC
  5
330
100
AcDbEntity
  8
0
100
AcDbCircle
 62
7
  6
BYLAYER
 10
161.2888310632
 20
179.3572165204
 40
202.4996612421
100
AcDbArc
 50
224.5934995012
 51
224.7506584664
  0
ARC
  5
331
100
AcDbEntity
  8
0
100
AcDbCircle
 62
7
  6
BYLAYER
 10
111.2198167084
 20
129.3114605147
 40
132.4836181384
100
AcDbArc
 50
224.0558099298
 51
224.293991389
  0
ARC
  5
332
100
AcDbEntity
  8
0
100
AcDbCircle
 62
7
  6
BYLAYER
 10
85.3360673388
 20
103.4787061617
 40
96.6855182222
100
AcDbArc
 50
223.285493747
 51
223.6079075781
  0
ARC
  5
333
100
AcDbEntity
  8
0
100
AcDbCircle
 62
7
  6
BYLAYER
 10
69.1741630064
 20
87.4035092658
 40
74.6546336456
100
AcDbArc
 50
222.2711454654
 51
222.6821730621
  0
ARC
  5
334
100
AcDbEntity
  8
0
100
AcDbCircle
 62
7
  6
BYLAYER
 10
57.9248881442
 20
76.2813852956
 40
59.5907431047
100
AcDbArc
 50
220.9981140786
 51
221.5032655574
  0
ARC
  5
335
100
AcDbEntity
  8
0
100
AcDbCircle
 62
7
  6
BYLAYER
 10
19.1846288281
 20
54.1624003503
 40
50.1535083753
100
AcDbArc
 50
271.5112376413
 51
275.4037147272
  0
ARC
  5
336
100
AcDbEntity
  8
0
100
AcDbCircle
 62
7
  6
BYLAYER
 10
19.2263473127
 20
54.1624003503
 40
50.1535083753
100
AcDbArc
 50
264.5938383031
 51
267.5375141537
  0
ARC
  5
337
100
AcDbEntity
  8
0
100
AcDbCircle
 62
7
  6
BYLAYER
 10
19.2263473127
 20
54.1624003503
 40
50.1535083753
100
AcDbArc
 50
268.035909021
 51
269.9761702298
  0
ARC
  5
338
100
AcDbEntity
  8
0
100
AcDbCircle
 62
7
  6
BYLAYER
 10
19.1846288281
 20
54.1624003503
 40
50.1535083753
100
AcDbArc
 50
270.0238297702
 51
271.0943997169
  0
ARC
  5
339
100
AcDbEntity
  8
0
100
AcDbCircle
 62
7
  6
BYLAYER
 10
49.5370720487
 20
68.0619112069
 40
48.5909825471
100
AcDbArc
 50
219.4487117503
 51
220.0545257378
  0
ARC
  5
33A
100
AcDbEntity
  8
0
100
AcDbCircle
 62
7
  6
BYLAYER
 10
42.9935025712
 20
61.7240100703
 40
40.2112673984
100
AcDbArc
 50
217.6026601619
 51
218.3165044287
  0
ARC
  5
33B
100
AcDbEntity
  8
0
100
AcDbCircle
 62
7
  6
BYLAYER
 10
37.7362009392
 20
56.700720777
 40
33.6533430211
100
AcDbArc
 50
215.4379227513
 51
216.2676381063
  0
ARC
  5
33C
100
AcDbEntity
  8
0
100
AcDbCircle
 62
7
  6
BYLAYER
 10
33.4365182697
 20
52.6489221491
 40
28.4397014854
100
AcDbArc
 50
212.9321163299
 51
213.8854309385
  0
ARC
  5
33D
100
AcDbEntity
  8
0
100
AcDbCircle
 62
7
  6
BYLAYER
 10
29.8906373005
 20
49.3445972533
 40
24.2660884155
100
AcDbArc
 50
210.064725677
 51
211.14836006
  0
ARC
  5
33E
100
AcDbEntity
  8
0
100
AcDbCircle
 62
7
  6
BYLAYER
 10
26.9673444816
 20
46.6304979045
 40
20.9281915905
100
AcDbArc
 50
206.8203242885
 51
208.0387235904
  0
ARC
  5
33F
100
AcDbEntity
  8
0
100
AcDbCircle
 62
7
  6
BYLAYER
 10
24.5799484964
 20
44.3880717885
 40
18.2827479688
100
AcDbArc
 50
203.1928760253
 51
204.5465681612
  0
ARC
  5
340
100
AcDbEntity
  8
0
100
AcDbCircle
 62
7
  6
BYLAYER
 10
22.6702982365
 20
42.5215818207
 40
16.2260243695
100
AcDbArc
 50
199.1908881162
 51
200.6745971277
  0
ARC
  5
341
100
AcDbEntity
  8
0
100
AcDbCircle
 62
7
  6
BYLAYER
 10
21.1992863052
 20
40.948768877
 40
14.6816961922
100
AcDbArc
 50
194.842674586
 51
196.4435199878
  0
ARC
  5
342
100
AcDbEntity
  8
0
100
AcDbCircle
 62
7
  6
BYLAYER
 10
20.1410417899
 20
39.5952126166
 40
13.5940925334
100
AcDbArc
 50
190.2003669112
 51
191.8966974691
  0
ARC
  5
343
100
AcDbEntity
  8
0
100
AcDbCircle
 62
7
  6
BYLAYER
 10
19.4793466288
 20
38.3908576878
 40
12.9246087828
100
AcDbArc
 50
185.3408868233
 51
187.1023962266
  0
ARC
  5
344
100
AcDbEntity
  8
0
100
AcDbCircle
 62
7
  6
BYLAYER
 10
18.9488233352
 20
38.3889832736
 40
12.9073151363
100
AcDbArc
 50
352.8964237045
 51
354.6602933163
  0
ARC
  5
345
100
AcDbEntity
  8
0
100
AcDbCircle
 62
7
  6
BYLAYER
 10
31.1905061095
 20
43.48873577
 40
0.3042422165
100
AcDbArc
 50
82.2125394461
 51
88.1572397081
  0
ARC
  5
346
100
AcDbEntity
  8
0
100
AcDbCircle
 62
7
  6
BYLAYER
 10
750.8020207562
 20
8.9811860827
 40
743.7200920359
100
AcDbArc
 50
180.0032361236
 51
180.2037701777
  0
SPLINE
  5
347
100
AcDbEntity
  8
0
100
AcDbSpline
 62
7
  6
BYLAYER
 70
0
 71
3
 72
12
 73
8
 74
0
 42
0.0000001
 43
0.0000001
 44
0.0000000001
 40
0.0
 40
0.0
 40
0.0
 40
0.0
 40
0.4084264614
 40
0.71905109
 40
0.9159878646
 40
0.9704749071
 40
1.0
 40
1.0
 40
1.0
 40
1.0
 10
6.610852729
 20
37.1878205924
 30
0.0
 10
6.6104604425
 20
37.1934173683
 30
0.0
 10
6.609612638
 20
37.2032816188
 30
0.0
 10
6.6080271967
 20
37.2157026689
 30
0.0
 10
6.6063798594
 20
37.2233857213
 30
0.0
 10
6.6049910413
 20
37.226880544
 30
0.0
 10
6.604030798
 20
37.2278205924
 30
0.0
 10
6.6036252152
 20
37.2278205924
 30
0.0
  0
SPLINE
  5
348
100
AcDbEntity
  8
0
100
AcDbSpline
 62
7
  6
BYLAYER
 70
0
 71
3
 72
13
 73
9
 74
0
 42
0.0000001
 43
0.0000001
 44
0.0000000001
 40
0.0
 40
0.0
 40
0.0
 40
0.0
 40
0.3886826052
 40
0.551012854
 40
0.6890470107
 40
0.8019668713
 40
0.8897581013
 40
1.0
 40
1.0
 40
1.0
 40
1.0
 10
6.7618140628
 20
37.1878205924
 30
0.0
 10
6.7610560926
 20
37.193439064
 30
0.0
 10
6.759765106
 20
37.2013799029
 30
0.0
 10
6.7574467743
 20
37.2111709502
 30
0.0
 10
6.7557203313
 20
37.2169343058
 30
0.0
 10
6.7538544623
 20
37.2215715691
 30
0.0
 10
6.7517554803
 20
37.2254380142
 30
0.0
 10
6.7492780705
 20
37.2278205924
 30
0.0
 10
6.7476700696
 20
37.2278205924
 30
0.0
  0
SPLINE
  5
349
100
AcDbEntity
  8
0
100
AcDbSpline
 62
7
  6
BYLAYER
 70
0
 71
3
 72
13
 73
9
 74
0
 42
0.0000001
 43
0.0000001
 44
0.0000000001
 40
0.0
 40
0.0
 40
0.0
 40
0.0
 40
0.365066494
 40
0.653554792
 40
0.7665626134
 40
0.8594574803
 40
0.9351768272
 40
1.0
 40
1.0
 40
1.0
 40
1.0
 10
7.0074792695
 20
37.1878205924
 30
0.0
 10
7.0063562479
 20
37.1934725673
 30
0.0
 10
7.0039234141
 20
37.2035088486
 30
0.0
 10
6.9996689597
 20
37.2149113809
 30
0.0
 10
6.9956926249
 20
37.2216535859
 30
0.0
 10
6.9928113069
 20
37.225076186
 30
0.0
 10
6.9897806641
 20
37.2272666476
 30
0.0
 10
6.9875496555
 20
37.2278205924
 30
0.0
 10
6.9865264412
 20
37.2278205924
 30
0.0
  0
SPLINE
  5
34A
100
AcDbEntity
  8
0
100
AcDbSpline
 62
7
  6
BYLAYER
 70
0
 71
3
 72
12
 73
8
 74
0
 42
0.0000001
 43
0.0000001
 44
0.0000000001
 40
0.0
 40
0.0
 40
0.0
 40
0.0
 40
0.344635188
 40
0.6244998714
 40
0.73889078
 40
0.8375821528
 40
1.0
 40
1.0
 40
1.0
 40
1.0
 10
7.3459786885
 20
37.1878205924
 30
0.0
 10
7.3444925332
 20
37.1935152884
 30
0.0
 10
7.3412426588
 20
37.2036983868
 30
0.0
 10
7.3356001124
 20
37.2150943793
 30
0.0
 10
7.3303735802
 20
37.2217508201
 30
0.0
 10
7.3256107072
 20
37.2260447743
 30
0.0
 10
7.3211501405
 20
37.2278205924
 30
0.0
 10
7.3183764888
 20
37.2278205924
 30
0.0
  0
SPLINE
  5
34B
100
AcDbEntity
  8
0
100
AcDbSpline
 62
7
  6
BYLAYER
 70
0
 71
3
 72
11
 73
7
 74
0
 42
0.0000001
 43
0.0000001
 44
0.0000000001
 40
0.0
 40
0.0
 40
0.0
 40
0.0
 40
0.3263191733
 40
0.5990817764
 40
0.8180697723
 40
1.0
 40
1.0
 40
1.0
 40
1.0
 10
7.7747361349
 20
37.1878205924
 30
0.0
 10
7.7728909039
 20
37.1935642858
 30
0.0
 10
7.7688193297
 20
37.2039210178
 30
0.0
 10
7.7607973203
 20
37.2168656604
 30
0.0
 10
7.7515072312
 20
37.2255154154
 30
0.0
 10
7.7440580639
 20
37.2278205924
 30
0.0
 10
7.7406946332
 20
37.2278205924
 30
0.0
  0
SPLINE
  5
34C
100
AcDbEntity
  8
0
100
AcDbSpline
 62
7
  6
BYLAYER
 70
0
 71
3
 72
11
 73
7
 74
0
 42
0.0000001
 43
0.0000001
 44
0.0000000001
 40
0.0
 40
0.0
 40
0.0
 40
0.0
 40
0.3106026786
 40
0.5777242353
 40
0.802703641
 40
1.0
 40
1.0
 40
1.0
 40
1.0
 10
8.2904885056
 20
37.1878205924
 30
0.0
 10
8.2882911746
 20
37.1936166577
 30
0.0
 10
8.2833915346
 20
37.2041276319
 30
0.0
 10
8.2738047128
 20
37.2171354549
 30
0.0
 10
8.2626969241
 20
37.225676696
 30
0.0
 10
8.2542041594
 20
37.2278205924
 30
0.0
 10
8.2502667783
 20
37.2278205924
 30
0.0
  0
SPLINE
  5
34D
100
AcDbEntity
  8
0
100
AcDbSpline
 62
7
  6
BYLAYER
 70
0
 71
3
 72
11
 73
7
 74
0
 42
0.0000001
 43
0.0000001
 44
0.0000000001
 40
0.0
 40
0.0
 40
0.0
 40
0.0
 40
0.2975825905
 40
0.5604186546
 40
0.7905794967
 40
1.0
 40
1.0
 40
1.0
 40
1.0
 10
8.8893106136
 20
37.1878205924
 30
0.0
 10
8.8867716527
 20
37.1936698249
 30
0.0
 10
8.8810585817
 20
37.2043266772
 30
0.0
 10
8.8699744769
 20
37.2173550005
 30
0.0
 10
8.8571955104
 20
37.2257807197
 30
0.0
 10
8.8477021698
 20
37.2278205924
 30
0.0
 10
8.8432147724
 20
37.2278205924
 30
0.0
  0
SPLINE
  5
34E
100
AcDbEntity
  8
0
100
AcDbSpline
 62
7
  6
BYLAYER
 70
0
 71
3
 72
11
 73
7
 74
0
 42
0.0000001
 43
0.0000001
 44
0.0000000001
 40
0.0
 40
0.0
 40
0.0
 40
0.0
 40
0.2869077911
 40
0.546492385
 40
0.7810130706
 40
1.0
 40
1.0
 40
1.0
 40
1.0
 10
9.5666450612
 20
37.1878205924
 30
0.0
 10
9.5637787611
 20
37.193721682
 30
0.0
 10
9.5572794474
 20
37.2045096813
 30
0.0
 10
9.5447914701
 20
37.2175294409
 30
0.0
 10
9.5304779083
 20
37.2258500681
 30
0.0
 10
9.5200332345
 20
37.2278205924
 30
0.0
 10
9.5150259231
 20
37.2278205924
 30
0.0
  0
SPLINE
  5
34F
100
AcDbEntity
  8
0
100
AcDbSpline
 62
7
  6
BYLAYER
 70
0
 71
3
 72
11
 73
7
 74
0
 42
0.0000001
 43
0.0000001
 44
0.0000000001
 40
0.0
 40
0.0
 40
0.0
 40
0.0
 40
0.2782097373
 40
0.5353194276
 40
0.7734503461
 40
1.0
 40
1.0
 40
1.0
 40
1.0
 10
10.3173369242
 20
37.1878205924
 30
0.0
 10
10.3141614831
 20
37.1937706353
 30
0.0
 10
10.3069161588
 20
37.204672261
 30
0.0
 10
10.2931330679
 20
37.2176666199
 30
0.0
 10
10.2774168437
 20
37.2258977843
 30
0.0
 10
10.2660793612
 20
37.2278205924
 30
0.0
 10
10.2605873421
 20
37.2278205924
 30
0.0
  0
SPLINE
  5
350
100
AcDbEntity
  8
0
100
AcDbSpline
 62
7
  6
BYLAYER
 70
0
 71
3
 72
11
 73
7
 74
0
 42
0.0000001
 43
0.0000001
 44
0.0000000001
 40
0.0
 40
0.0
 40
0.0
 40
0.0
 40
0.2711555522
 40
0.5263727564
 40
0.767461659
 40
1.0
 40
1.0
 40
1.0
 40
1.0
 10
11.1356729842
 20
37.1878205924
 30
0.0
 10
11.1322103978
 20
37.1938155625
 30
0.0
 10
11.1242711555
 20
37.204813009
 30
0.0
 10
11.109311348
 20
37.217774037
 30
0.0
 10
11.09232422
 20
37.2259315429
 30
0.0
 10
11.0801619794
 20
37.2278205924
 30
0.0
 10
11.0742248567
 20
37.2278205924
 30
0.0
  0
SPLINE
  5
351
100
AcDbEntity
  8
0
100
AcDbSpline
 62
7
  6
BYLAYER
 70
0
 71
3
 72
10
 73
6
 74
0
 42
0.0000001
 43
0.0000001
 44
0.0000000001
 40
0.0
 40
0.0
 40
0.0
 40
0.0
 40
0.5175095376
 40
0.7618714874
 40
1.0
 40
1.0
 40
1.0
 40
1.0
 10
12.0154252096
 20
37.1878205924
 30
0.0
 10
12.0081909773
 20
37.1995438392
 30
0.0
 10
11.993549417
 20
37.2150120986
 30
0.0
 10
11.9690009836
 20
37.2259481692
 30
0.0
 10
11.956084968
 20
37.2278205924
 30
0.0
 10
11.9497461941
 20
37.2278205924
 30
0.0
  0
SPLINE
  5
352
100
AcDbEntity
  8
0
100
AcDbSpline
 62
7
  6
BYLAYER
 70
0
 71
3
 72
10
 73
6
 74
0
 42
0.0000001
 43
0.0000001
 44
0.0000000001
 40
0.0
 40
0.0
 40
0.0
 40
0.0
 40
0.5118392583
 40
0.7581284106
 40
1.0
 40
1.0
 40
1.0
 40
1.0
 10
12.949898155
 20
37.1878205924
 30
0.0
 10
12.9421627709
 20
37.1996866725
 30
0.0
 10
12.9264993833
 20
37.2151681581
 30
0.0
 10
12.900762034
 20
37.2259646034
 30
0.0
 10
12.8871817129
 20
37.2278205924
 30
0.0
 10
12.8804881084
 20
37.2278205924
 30
0.0
  0
SPLINE
  5
353
100
AcDbEntity
  8
0
100
AcDbSpline
 62
7
  6
BYLAYER
 70
0
 71
3
 72
11
 73
7
 74
0
 42
0.0000001
 43
0.0000001
 44
0.0000000001
 40
0.0
 40
0.0
 40
0.0
 40
0.0
 40
0.2573116721
 40
0.5091086495
 40
0.7560589219
 40
1.0
 40
1.0
 40
1.0
 40
1.0
 10
13.9319799168
 20
37.1878205924
 30
0.0
 10
13.9278215394
 20
37.1939202882
 30
0.0
 10
13.9182053101
 20
37.2051119154
 30
0.0
 10
13.9004863927
 20
37.2179735333
 30
0.0
 10
13.8805112558
 20
37.2259871913
 30
0.0
 10
13.8663657902
 20
37.2278205924
 30
0.0
 10
13.8593670915
 20
37.2278205924
 30
0.0
  0
SPLINE
  5
354
100
AcDbEntity
  8
0
100
AcDbSpline
 62
7
  6
BYLAYER
 70
0
 71
3
 72
9
 73
5
 74
0
 42
0.0000001
 43
0.0000001
 44
0.0000000001
 40
0.0
 40
0.0
 40
0.0
 40
0.0
 40
0.5058505235
 40
1.0
 40
1.0
 40
1.0
 40
1.0
 10
14.9541962599
 20
37.1878205924
 30
0.0
 10
14.945660374
 20
37.1999043801
 30
0.0
 10
14.9230607835
 20
37.2203419826
 30
0.0
 10
14.8933856328
 20
37.2278205924
 30
0.0
 10
14.8789332833
 20
37.2278205924
 30
0.0
  0
SPLINE
  5
355
100
AcDbEntity
  8
0
100
AcDbSpline
 62
7
  6
BYLAYER
 70
0
 71
3
 72
9
 73
5
 74
0
 42
0.0000001
 43
0.0000001
 44
0.0000000001
 40
0.0
 40
0.0
 40
0.0
 40
0.0
 40
0.5032369437
 40
1.0
 40
1.0
 40
1.0
 40
1.0
 10
16.0087675007
 20
37.1878205924
 30
0.0
 10
15.9999440857
 20
37.1999795518
 30
0.0
 10
15.9765397655
 20
37.2204501933
 30
0.0
 10
15.9462569857
 20
37.2278205924
 30
0.0
 10
15.9314271695
 20
37.2278205924
 30
0.0
  0
SPLINE
  5
356
100
AcDbEntity
  8
0
100
AcDbSpline
 62
7
  6
BYLAYER
 70
0
 71
3
 72
9
 73
5
 74
0
 42
0.0000001
 43
0.0000001
 44
0.0000000001
 40
0.0
 40
0.0
 40
0.0
 40
0.0
 40
0.5014334658
 40
1.0
 40
1.0
 40
1.0
 40
1.0
 10
17.0876677153
 20
37.1878205924
 30
0.0
 10
17.0786377137
 20
37.2000327139
 30
0.0
 10
17.0546589275
 20
37.2205239657
 30
0.0
 10
17.0239398481
 20
37.2278205924
 30
0.0
 10
17.0088386361
 20
37.2278205924
 30
0.0
  0
SPLINE
  5
357
100
AcDbEntity
  8
0
100
AcDbSpline
 62
7
  6
BYLAYER
 70
0
 71
3
 72
9
 73
5
 74
0
 42
0.0000001
 43
0.0000001
 44
0.0000000001
 40
0.0
 40
0.0
 40
0.0
 40
0.0
 40
0.2498109106
 40
1.0
 40
1.0
 40
1.0
 40
1.0
 10
17.7657530392
 20
36.7928205924
 30
0.0
 10
17.7977922565
 20
36.8251031674
 30
0.0
 10
17.9260709533
 20
36.9543065733
 30
0.0
 10
18.0544487621
 20
37.0834115762
 30
0.0
 10
18.1508118055
 20
37.1802095511
 30
0.0
  0
LINE
  5
358
100
AcDbEntity
  8
0
100
AcDbLine
 62
7
  6
BYLAYER
 10
18.5769379637
 20
36.7928205686
 11
18.182685554
 21
37.1878205924
  0
LINE
  5
359
100
AcDbEntity
  8
0
100
AcDbLine
 62
7
  6
BYLAYER
 10
20.2282905868
 20
37.1878205924
 11
19.8340382009
 21
36.7928205924
  0
SPLINE
  5
35A
100
AcDbEntity
  8
0
100
AcDbSpline
 62
7
  6
BYLAYER
 70
0
 71
3
 72
9
 73
5
 74
0
 42
0.0000001
 43
0.0000001
 44
0.0000000001
 40
0.0
 40
0.0
 40
0.0
 40
0.0
 40
0.2501794606
 40
1.0
 40
1.0
 40
1.0
 40
1.0
 10
20.2601644359
 20
37.18020945
 30
0.0
 10
20.2923003997
 20
37.1479284416
 30
0.0
 10
20.4207273983
 20
37.0188724968
 30
0.0
 10
20.5490557546
 20
36.8897183899
 30
0.0
 10
20.6452231252
 20
36.7928205686
 30
0.0
  0
SPLINE
  5
35B
100
AcDbEntity
  8
0
100
AcDbSpline
 62
7
  6
BYLAYER
 70
0
 71
3
 72
9
 73
5
 74
0
 42
0.0000001
 43
0.0000001
 44
0.0000000001
 40
0.0
 40
0.0
 40
0.0
 40
0.0
 40
0.4985658627
 40
1.0
 40
1.0
 40
1.0
 40
1.0
 10
21.4021379075
 20
37.2278205924
 30
0.0
 10
21.3870367385
 20
37.2278205924
 30
0.0
 10
21.3563177164
 20
37.2205239289
 30
0.0
 10
21.3323389703
 20
37.2000327119
 30
0.0
 10
21.3233089702
 20
37.1878205924
 30
0.0
  0
SPLINE
  5
35C
100
AcDbEntity
  8
0
100
AcDbSpline
 62
7
  6
BYLAYER
 70
0
 71
3
 72
9
 73
5
 74
0
 42
0.0000001
 43
0.0000001
 44
0.0000000001
 40
0.0
 40
0.0
 40
0.0
 40
0.0
 40
0.4967620343
 40
1.0
 40
1.0
 40
1.0
 40
1.0
 10
22.4795495716
 20
37.2278205924
 30
0.0
 10
22.4647198195
 20
37.2278205924
 30
0.0
 10
22.4344371259
 20
37.2204501374
 30
0.0
 10
22.4110328648
 20
37.199979549
 30
0.0
 10
22.4022094519
 20
37.1878205924
 30
0.0
  0
SPLINE
  5
35D
100
AcDbEntity
  8
0
100
AcDbSpline
 62
7
  6
BYLAYER
 70
0
 71
3
 72
9
 73
5
 74
0
 42
0.0000001
 43
0.0000001
 44
0.0000000001
 40
0.0
 40
0.0
 40
0.0
 40
0.0
 40
0.4941480895
 40
1.0
 40
1.0
 40
1.0
 40
1.0
 10
23.5320436508
 20
37.2278205924
 30
0.0
 10
23.5175913859
 20
37.2278205924
 30
0.0
 10
23.4879163503
 20
37.2203419068
 30
0.0
 10
23.465316837
 20
37.1999043764
 30
0.0
 10
23.4567809536
 20
37.1878205924
 30
0.0
  0
SPLINE
  5
35E
100
AcDbEntity
  8
0
100
AcDbSpline
 62
7
  6
BYLAYER
 70
0
 71
3
 72
11
 73
7
 74
0
 42
0.0000001
 43
0.0000001
 44
0.0000000001
 40
0.0
 40
0.0
 40
0.0
 40
0.0
 40
0.2439401582
 40
0.4908896239
 40
0.742687278
 40
1.0
 40
1.0
 40
1.0
 40
1.0
 10
24.5516100296
 20
37.2278205924
 30
0.0
 10
24.5446113841
 20
37.2278205924
 30
0.0
 10
24.5304660186
 20
37.2259871953
 30
0.0
 10
24.5104910205
 20
37.2179734966
 30
0.0
 10
24.4927721624
 20
37.2051119049
 30
0.0
 10
24.483155928
 20
37.1939202897
 30
0.0
 10
24.4789975495
 20
37.1878205924
 30
0.0
  0
SPLINE
  5
35F
100
AcDbEntity
  8
0
100
AcDbSpline
 62
7
  6
BYLAYER
 70
0
 71
3
 72
10
 73
6
 74
0
 42
0.0000001
 43
0.0000001
 44
0.0000000001
 40
0.0
 40
0.0
 40
0.0
 40
0.0
 40
0.2418704374
 40
0.4881585944
 40
1.0
 40
1.0
 40
1.0
 40
1.0
 10
25.5304891922
 20
37.2278205924
 30
0.0
 10
25.5237956506
 20
37.2278205924
 30
0.0
 10
25.510215447
 20
37.225964608
 30
0.0
 10
25.4844782783
 20
37.2151680759
 30
0.0
 10
25.4688149347
 20
37.1996866672
 30
0.0
 10
25.4610795541
 20
37.1878205924
 30
0.0
  0
SPLINE
  5
360
100
AcDbEntity
  8
0
100
AcDbSpline
 62
7
  6
BYLAYER
 70
0
 71
3
 72
10
 73
6
 74
0
 42
0.0000001
 43
0.0000001
 44
0.0000000001
 40
0.0
 40
0.0
 40
0.0
 40
0.0
 40
0.238127113
 40
0.4824878784
 40
1.0
 40
1.0
 40
1.0
 40
1.0
 10
26.4612312771
 20
37.2278205924
 30
0.0
 10
26.4548925754
 20
37.2278205924
 30
0.0
 10
26.4419766936
 20
37.2259481737
 30
0.0
 10
26.4174284731
 20
37.2150119999
 30
0.0
 10
26.4027869589
 20
37.1995438333
 30
0.0
 10
26.3955527302
 20
37.1878205924
 30
0.0
  0
SPLINE
  5
361
100
AcDbEntity
  8
0
100
AcDbSpline
 62
7
  6
BYLAYER
 70
0
 71
3
 72
11
 73
7
 74
0
 42
0.0000001
 43
0.0000001
 44
0.0000000001
 40
0.0
 40
0.0
 40
0.0
 40
0.0
 40
0.2325366783
 40
0.4736242133
 40
0.7288425996
 40
1.0
 40
1.0
 40
1.0
 40
1.0
 10
27.3367527751
 20
37.2278205924
 30
0.0
 10
27.330815733
 20
37.2278205924
 30
0.0
 10
27.3186536416
 20
37.225931547
 30
0.0
 10
27.3016667359
 20
37.2177739731
 30
0.0
 10
27.2867070132
 20
37.2048129944
 30
0.0
 10
27.2787677604
 20
37.1938155647
 30
0.0
 10
27.2753051728
 20
37.1878205924
 30
0.0
  0
SPLINE
  5
362
100
AcDbEntity
  8
0
100
AcDbSpline
 62
7
  6
BYLAYER
 70
0
 71
3
 72
11
 73
7
 74
0
 42
0.0000001
 43
0.0000001
 44
0.0000000001
 40
0.0
 40
0.0
 40
0.0
 40
0.0
 40
0.2265476739
 40
0.4646770199
 40
0.7217880941
 40
1.0
 40
1.0
 40
1.0
 40
1.0
 10
28.1503904389
 20
37.2278205924
 30
0.0
 10
28.1448985084
 20
37.2278205924
 30
0.0
 10
28.1335611881
 20
37.2258977872
 30
0.0
 10
28.1178452154
 20
37.2176665454
 30
0.0
 10
28.1040622139
 20
37.2046722459
 30
0.0
 10
28.0968168768
 20
37.1937706378
 30
0.0
 10
28.0936414345
 20
37.1878205924
 30
0.0
  0
SPLINE
  5
363
100
AcDbEntity
  8
0
100
AcDbSpline
 62
7
  6
BYLAYER
 70
0
 71
3
 72
11
 73
7
 74
0
 42
0.0000001
 43
0.0000001
 44
0.0000000001
 40
0.0
 40
0.0
 40
0.0
 40
0.0
 40
0.2189845787
 40
0.4535034816
 40
0.7130896841
 40
1.0
 40
1.0
 40
1.0
 40
1.0
 10
28.8959519946
 20
37.2278205924
 30
0.0
 10
28.890944779
 20
37.2278205924
 30
0.0
 10
28.8805002786
 20
37.2258500686
 30
0.0
 10
28.8661869991
 20
37.2175293549
 30
0.0
 10
28.8536991124
 20
37.2045096666
 30
0.0
 10
28.8471997836
 20
37.1937216845
 30
0.0
 10
28.8443334823
 20
37.1878205924
 30
0.0
  0
SPLINE
  5
364
100
AcDbEntity
  8
0
100
AcDbSpline
 62
7
  6
BYLAYER
 70
0
 71
3
 72
11
 73
7
 74
0
 42
0.0000001
 43
0.0000001
 44
0.0000000001
 40
0.0
 40
0.0
 40
0.0
 40
0.0
 40
0.2094177128
 40
0.4395765641
 40
0.7024144881
 40
1.0
 40
1.0
 40
1.0
 40
1.0
 10
29.5677632686
 20
37.2278205924
 30
0.0
 10
29.5632759731
 20
37.2278205924
 30
0.0
 10
29.5537828152
 20
37.2257807155
 30
0.0
 10
29.5410041643
 20
37.2173549023
 30
0.0
 10
29.5299201467
 20
37.2043266637
 30
0.0
 10
29.5242070584
 20
37.1936698274
 30
0.0
 10
29.5216680964
 20
37.1878205924
 30
0.0
  0
SPLINE
  5
365
100
AcDbEntity
  8
0
100
AcDbSpline
 62
7
  6
BYLAYER
 70
0
 71
3
 72
11
 73
7
 74
0
 42
0.0000001
 43
0.0000001
 44
0.0000000001
 40
0.0
 40
0.0
 40
0.0
 40
0.0
 40
0.1972930423
 40
0.4222702687
 40
0.6893939645
 40
1.0
 40
1.0
 40
1.0
 40
1.0
 10
30.1607113714
 20
37.2278205924
 30
0.0
 10
30.1567740973
 20
37.2278205924
 30
0.0
 10
30.1482815228
 20
37.2256766835
 30
0.0
 10
30.1371740869
 20
37.2171353446
 30
0.0
 10
30.127587342
 20
37.2041276212
 30
0.0
 10
30.1226876833
 20
37.1936166601
 30
0.0
 10
30.1204903515
 20
37.1878205924
 30
0.0
  0
SPLINE
  5
366
100
AcDbEntity
  8
0
100
AcDbSpline
 62
7
  6
BYLAYER
 70
0
 71
3
 72
11
 73
7
 74
0
 42
0.0000001
 43
0.0000001
 44
0.0000000001
 40
0.0
 40
0.0
 40
0.0
 40
0.0
 40
0.1819262829
 40
0.4009119665
 40
0.6736770101
 40
1.0
 40
1.0
 40
1.0
 40
1.0
 10
30.6702836099
 20
37.2278205924
 30
0.0
 10
30.6669202901
 20
37.2278205924
 30
0.0
 10
30.6594713201
 20
37.2255153884
 30
0.0
 10
30.6501816253
 20
37.2168655399
 30
0.0
 10
30.6421596726
 20
37.2039210111
 30
0.0
 10
30.6380880802
 20
37.193564288
 30
0.0
 10
30.6362428485
 20
37.1878205924
 30
0.0
  0
SPLINE
  5
367
100
AcDbEntity
  8
0
100
AcDbSpline
 62
7
  6
BYLAYER
 70
0
 71
3
 72
12
 73
8
 74
0
 42
0.0000001
 43
0.0000001
 44
0.0000000001
 40
0.0
 40
0.0
 40
0.0
 40
0.0
 40
0.1624131996
 40
0.261102391
 40
0.3754930609
 40
0.6553605177
 40
1.0
 40
1.0
 40
1.0
 40
1.0
 10
31.0926018317
 20
37.2278205924
 30
0.0
 10
31.089828293
 20
37.2278205924
 30
0.0
 10
31.0853678917
 20
37.2260447674
 30
0.0
 10
31.0806053249
 20
37.2217507748
 30
0.0
 10
31.0753789634
 20
37.215094333
 30
0.0
 10
31.0697364573
 20
37.2036983733
 30
0.0
 10
31.0664865554
 20
37.1935152903
 30
0.0
 10
31.0650003996
 20
37.1878205924
 30
0.0
  0
SPLINE
  5
368
100
AcDbEntity
  8
0
100
AcDbSpline
 62
7
  6
BYLAYER
 70
0
 71
3
 72
12
 73
8
 74
0
 42
0.0000001
 43
0.0000001
 44
0.0000000001
 40
0.0
 40
0.0
 40
0.0
 40
0.0
 40
0.02952288
 40
0.0840075094
 40
0.2809435691
 40
0.591570352
 40
1.0
 40
1.0
 40
1.0
 40
1.0
 10
31.8073532364
 20
37.2278205924
 30
0.0
 10
31.8069476871
 20
37.2278205924
 30
0.0
 10
31.805987541
 20
37.2268805171
 30
0.0
 10
31.8045992192
 20
37.2233856209
 30
0.0
 10
31.8029520699
 20
37.2157026441
 30
0.0
 10
31.8013666628
 20
37.2032816084
 30
0.0
 10
31.8005188229
 20
37.1934173688
 30
0.0
 10
31.8001265364
 20
37.1878205924
 30
0.0
  0
SPLINE
  5
369
100
AcDbEntity
  8
0
100
AcDbSpline
 62
7
  6
BYLAYER
 70
0
 71
3
 72
13
 73
9
 74
0
 42
0.0000001
 43
0.0000001
 44
0.0000000001
 40
0.0
 40
0.0
 40
0.0
 40
0.0
 40
0.0648215395
 40
0.1405374043
 40
0.2334301145
 40
0.3464377941
 40
0.6349290142
 40
1.0
 40
1.0
 40
1.0
 40
1.0
 10
31.4244519402
 20
37.2278205924
 30
0.0
 10
31.423428764
 20
37.2278205924
 30
0.0
 10
31.4211978527
 20
37.2272666691
 30
0.0
 10
31.4181674367
 20
37.22507615
 30
0.0
 10
31.415286369
 20
37.2216535408
 30
0.0
 10
31.4113102116
 20
37.2149113362
 30
0.0
 10
31.4070557844
 20
37.2035088395
 30
0.0
 10
31.4046229228
 20
37.1934725688
 30
0.0
 10
31.4034999009
 20
37.1878205924
 30
0.0
  0
SPLINE
  5
36A
100
AcDbEntity
  8
0
100
AcDbSpline
 62
7
  6
BYLAYER
 70
0
 71
3
 72
13
 73
9
 74
0
 42
0.0000001
 43
0.0000001
 44
0.0000000001
 40
0.0
 40
0.0
 40
0.0
 40
0.0
 40
0.1102360364
 40
0.1980254907
 40
0.3109454427
 40
0.4489807849
 40
0.6113128441
 40
1.0
 40
1.0
 40
1.0
 40
1.0
 10
31.6633083556
 20
37.2278205924
 30
0.0
 10
31.6617004587
 20
37.2278205924
 30
0.0
 10
31.6592232597
 20
37.2254379438
 30
0.0
 10
31.6571246118
 20
37.2215715299
 30
0.0
 10
31.6552588594
 20
37.2169342868
 30
0.0
 10
31.6535324754
 20
37.2111709424
 30
0.0
 10
31.6512141476
 20
37.2013799001
 30
0.0
 10
31.6499231372
 20
37.193439065
 30
0.0
 10
31.6491651668
 20
37.1878205924
 30
0.0
  0
SPLINE
  5
36B
100
AcDbEntity
  8
0
100
AcDbSpline
 62
7
  6
BYLAYER
 70
0
 71
3
 72
9
 73
5
 74
0
 42
0.0000001
 43
0.0000001
 44
0.0000000001
 40
0.0
 40
0.0
 40
0.0
 40
0.0
 40
0.4969229054
 40
1.0
 40
1.0
 40
1.0
 40
1.0
 10
15.9314265692
 20
37.2278205924
 30
0.0
 10
15.9166100228
 20
37.2278205924
 30
0.0
 10
15.8863573901
 20
37.2204612782
 30
0.0
 10
15.8630088836
 20
37.1999750752
 30
0.0
 10
15.8542185567
 20
37.1878205924
 30
0.0
  0
SPLINE
  5
36C
100
AcDbEntity
  8
0
100
AcDbSpline
 62
7
  6
BYLAYER
 70
0
 71
3
 72
9
 73
5
 74
0
 42
0.0000001
 43
0.0000001
 44
0.0000000001
 40
0.0
 40
0.0
 40
0.0
 40
0.0
 40
0.5010000931
 40
1.0
 40
1.0
 40
1.0
 40
1.0
 10
16.7054881263
 20
40.6608046672
 30
0.0
 10
16.7054881263
 20
40.4314779474
 30
0.0
 10
16.7214115329
 20
39.9735866996
 30
0.0
 10
16.7738427339
 20
39.5181352129
 30
0.0
 10
16.8113258648
 20
39.2928206054
 30
0.0
  0
SPLINE
  5
36D
100
AcDbEntity
  8
0
100
AcDbSpline
 62
7
  6
BYLAYER
 70
0
 71
3
 72
11
 73
7
 74
0
 42
0.0000001
 43
0.0000001
 44
0.0000000001
 40
0.0
 40
0.0
 40
0.0
 40
0.0
 40
0.2572091967
 40
0.508869283
 40
0.7558169702
 40
1.0
 40
1.0
 40
1.0
 40
1.0
 10
24.6240054699
 20
37.1878205924
 30
0.0
 10
24.6198737473
 20
37.1939170382
 30
0.0
 10
24.6103161542
 20
37.205111718
 30
0.0
 10
24.5926591524
 20
37.2179765648
 30
0.0
 10
24.5727254482
 20
37.2259901771
 30
0.0
 10
24.5586007037
 20
37.2278205924
 30
0.0
 10
24.5516090493
 20
37.2278205924
 30
0.0
  0
SPLINE
  5
36E
100
AcDbEntity
  8
0
100
AcDbSpline
 62
7
  6
BYLAYER
 70
0
 71
3
 72
11
 73
7
 74
0
 42
0.0000001
 43
0.0000001
 44
0.0000000001
 40
0.0
 40
0.0
 40
0.0
 40
0.0
 40
0.2096999313
 40
0.4396854962
 40
0.7023060218
 40
1.0
 40
1.0
 40
1.0
 40
1.0
 10
8.8432128722
 20
37.2278205924
 30
0.0
 10
8.8387388632
 20
37.2278205924
 30
0.0
 10
8.8292814257
 20
37.2257878591
 30
0.0
 10
8.8165826245
 20
37.2173553404
 30
0.0
 10
8.8056267045
 20
37.2043181453
 30
0.0
 10
8.8000265189
 20
37.1936632386
 30
0.0
 10
8.7975358146
 20
37.1878205924
 30
0.0
  0
SPLINE
  5
36F
100
AcDbEntity
  8
0
100
AcDbSpline
 62
7
  6
BYLAYER
 70
0
 71
3
 72
11
 73
7
 74
0
 42
0.0000001
 43
0.0000001
 44
0.0000000001
 40
0.0
 40
0.0
 40
0.0
 40
0.0
 40
0.2608038012
 40
0.5132911729
 40
0.7587005624
 40
1.0
 40
1.0
 40
1.0
 40
1.0
 10
25.5996420504
 20
37.1878205924
 30
0.0
 10
25.5957163261
 20
37.1938867878
 30
0.0
 10
25.58665368
 20
37.2050306124
 30
0.0
 10
25.56979474
 20
37.2179266056
 30
0.0
 10
25.5507224234
 20
37.2259775645
 30
0.0
 10
25.5371733093
 20
37.2278205924
 30
0.0
 10
25.5304880324
 20
37.2278205924
 30
0.0
  0
SPLINE
  5
370
100
AcDbEntity
  8
0
100
AcDbSpline
 62
7
  6
BYLAYER
 70
0
 71
3
 72
9
 73
5
 74
0
 42
0.0000001
 43
0.0000001
 44
0.0000000001
 40
0.0
 40
0.0
 40
0.0
 40
0.0
 40
0.249990348
 40
1.0
 40
1.0
 40
1.0
 40
1.0
 10
10.0522428019
 20
43.5952220284
 30
0.0
 10
9.9691470699
 20
43.3507276241
 30
0.0
 10
9.6369223147
 20
42.3726541349
 30
0.0
 10
9.3052026973
 20
41.3944090795
 30
0.0
 10
9.0566796138
 20
40.6606245076
 30
0.0
  0
SPLINE
  5
371
100
AcDbEntity
  8
0
100
AcDbSpline
 62
7
  6
BYLAYER
 70
0
 71
3
 72
10
 73
6
 74
0
 42
0.0000001
 43
0.0000001
 44
0.0000000001
 40
0.0
 40
0.0
 40
0.0
 40
0.0
 40
0.238450565
 40
0.482795646
 40
1.0
 40
1.0
 40
1.0
 40
1.0
 10
11.9497448637
 20
37.2278205924
 30
0.0
 10
11.9434155608
 20
37.2278205924
 30
0.0
 10
11.9305275051
 20
37.225952174
 30
0.0
 10
11.906055952
 20
37.2150191463
 30
0.0
 10
11.891522295
 20
37.1995320044
 30
0.0
 10
11.8843590835
 20
37.1878205924
 30
0.0
  0
SPLINE
  5
372
100
AcDbEntity
  8
0
100
AcDbSpline
 62
7
  6
BYLAYER
 70
0
 71
3
 72
9
 73
5
 74
0
 42
0.0000001
 43
0.0000001
 44
0.0000000001
 40
0.0
 40
0.0
 40
0.0
 40
0.0
 40
0.4986755807
 40
1.0
 40
1.0
 40
1.0
 40
1.0
 10
17.0088382333
 20
37.2278205924
 30
0.0
 10
16.9937459338
 20
37.2278205924
 30
0.0
 10
16.9630473087
 20
37.2205314714
 30
0.0
 10
16.93910566
 20
37.2000297908
 30
0.0
 10
16.9300979301
 20
37.1878205924
 30
0.0
  0
SPLINE
  5
373
100
AcDbEntity
  8
0
100
AcDbSpline
 62
7
  6
BYLAYER
 70
0
 71
3
 72
10
 73
6
 74
0
 42
0.0000001
 43
0.0000001
 44
0.0000000001
 40
0.0
 40
0.0
 40
0.0
 40
0.0
 40
0.5172069556
 40
0.7615508398
 40
1.0
 40
1.0
 40
1.0
 40
1.0
 10
26.5266152583
 20
37.1878205924
 30
0.0
 10
26.5194520503
 20
37.1995319988
 30
0.0
 10
26.504918439
 20
37.2150190476
 30
0.0
 10
26.4804470991
 20
37.2259521787
 30
0.0
 10
26.4675591775
 20
37.2278205924
 30
0.0
 10
26.4612299467
 20
37.2278205924
 30
0.0
  0
LINE
  5
374
100
AcDbEntity
  8
0
100
AcDbLine
 62
7
  6
BYLAYER
 10
18.0232944023
 20
37.1878205924
 11
17.6305529767
 21
36.7928205924
  0
SPLINE
  5
375
100
AcDbEntity
  8
0
100
AcDbSpline
 62
7
  6
BYLAYER
 70
0
 71
3
 72
9
 73
5
 74
0
 42
0.0000001
 43
0.0000001
 44
0.0000000001
 40
0.0
 40
0.0
 40
0.0
 40
0.0
 40
0.4353747443
 40
1.0
 40
1.0
 40
1.0
 40
1.0
 10
7.318374309
 20
37.2278205924
 30
0.0
 10
7.3156687018
 20
37.2278205924
 30
0.0
 10
7.309479918
 20
37.2253820175
 30
0.0
 10
7.3054005305
 20
37.2205153502
 30
0.0
 10
7.3034028928
 20
37.2176306832
 30
0.0
  0
SPLINE
  5
376
100
AcDbEntity
  8
0
100
AcDbSpline
 62
7
  6
BYLAYER
 70
0
 71
3
 72
9
 73
5
 74
0
 42
0.0000001
 43
0.0000001
 44
0.0000000001
 40
0.0
 40
0.0
 40
0.0
 40
0.0
 40
0.4464531785
 40
1.0
 40
1.0
 40
1.0
 40
1.0
 10
7.3034028928
 20
37.2176306832
 30
0.0
 10
7.3006655301
 20
37.2136778243
 30
0.0
 10
7.2958800648
 20
37.2039148431
 30
0.0
 10
7.2927095919
 20
37.1936012911
 30
0.0
 10
7.2912525183
 20
37.1878205924
 30
0.0
  0
SPLINE
  5
377
100
AcDbEntity
  8
0
100
AcDbSpline
 62
7
  6
BYLAYER
 70
0
 71
3
 72
11
 73
7
 74
0
 42
0.0000001
 43
0.0000001
 44
0.0000000001
 40
0.0
 40
0.0
 40
0.0
 40
0.0
 40
0.2710782152
 40
0.5260911448
 40
0.7671308207
 40
1.0
 40
1.0
 40
1.0
 40
1.0
 10
27.3978702676
 20
37.1878205924
 30
0.0
 10
27.3944472255
 20
37.1938103271
 30
0.0
 10
27.3865976766
 20
37.2048100635
 30
0.0
 10
27.3717340909
 20
37.2177775547
 30
0.0
 10
27.3548093937
 20
37.225936626
 30
0.0
 10
27.3426777275
 20
37.2278205924
 30
0.0
 10
27.3367512841
 20
37.2278205924
 30
0.0
  0
SPLINE
  5
378
100
AcDbEntity
  8
0
100
AcDbSpline
 62
7
  6
BYLAYER
 70
0
 71
3
 72
12
 73
8
 74
0
 42
0.0000001
 43
0.0000001
 44
0.0000000001
 40
0.0
 40
0.0
 40
0.0
 40
0.0
 40
0.1132272461
 40
0.2008487928
 40
0.3130285751
 40
0.6110901184
 40
1.0
 40
1.0
 40
1.0
 40
1.0
 10
6.7476677852
 20
37.2278205924
 30
0.0
 10
6.7462184214
 20
37.2278205924
 30
0.0
 10
6.7439471977
 20
37.2258229228
 30
0.0
 10
6.742005076
 20
37.2224317434
 30
0.0
 10
6.7395008484
 20
37.2165059979
 30
0.0
 10
6.736931212
 20
37.2065987541
 30
0.0
 10
6.7354331098
 20
37.197921511
 30
0.0
 10
6.7347234039
 20
37.1929941238
 30
0.0
  0
SPLINE
  5
379
100
AcDbEntity
  8
0
100
AcDbSpline
 62
7
  6
BYLAYER
 70
0
 71
3
 72
9
 73
5
 74
0
 42
0.0000001
 43
0.0000001
 44
0.0000000001
 40
0.0
 40
0.0
 40
0.0
 40
0.0
 40
0.5019068306
 40
1.0
 40
1.0
 40
1.0
 40
1.0
 10
8.5244552367
 20
39.2928206054
 30
0.0
 10
8.6245300983
 20
39.5171545394
 30
0.0
 10
8.8118713846
 20
39.9695527579
 30
0.0
 10
8.9784790135
 20
40.4299112859
 30
0.0
 10
9.0566796138
 20
40.6608049042
 30
0.0
  0
SPLINE
  5
37A
100
AcDbEntity
  8
0
100
AcDbSpline
 62
7
  6
BYLAYER
 70
0
 71
3
 72
11
 73
7
 74
0
 42
0.0000001
 43
0.0000001
 44
0.0000000001
 40
0.0
 40
0.0
 40
0.0
 40
0.0
 40
0.2193096663
 40
0.4537091625
 40
0.7130696771
 40
1.0
 40
1.0
 40
1.0
 40
1.0
 10
9.5150241462
 20
37.2278205924
 30
0.0
 10
9.5100294062
 20
37.2278205924
 30
0.0
 10
9.4996194709
 20
37.2258566193
 30
0.0
 10
9.4853801582
 20
37.2175315409
 30
0.0
 10
9.4730099576
 20
37.2045032229
 30
0.0
 10
9.4666170551
 20
37.1937153976
 30
0.0
 10
9.463796641
 20
37.1878205924
 30
0.0
  0
SPLINE
  5
37B
100
AcDbEntity
  8
0
100
AcDbSpline
 62
7
  6
BYLAYER
 70
0
 71
3
 72
12
 73
8
 74
0
 42
0.0000001
 43
0.0000001
 44
0.0000000001
 40
0.0
 40
0.0
 40
0.0
 40
0.0
 40
0.2615768525
 40
0.5158328618
 40
0.6398102558
 40
0.7617830577
 40
1.0
 40
1.0
 40
1.0
 40
1.0
 10
10.0522428019
 20
43.5952220284
 30
0.0
 10
10.0597148147
 20
43.6177798998
 30
0.0
 10
10.079559009
 20
43.6607192488
 30
0.0
 10
10.1151447136
 20
43.7073332336
 30
0.0
 10
10.1488482732
 20
43.7379898484
 30
0.0
 10
10.1850202626
 20
43.763172048
 30
0.0
 10
10.2153536491
 20
43.7766125523
 30
0.0
 10
10.2360851273
 20
43.7828205924
 30
0.0
  0
SPLINE
  5
37C
100
AcDbEntity
  8
0
100
AcDbSpline
 62
7
  6
BYLAYER
 70
0
 71
3
 72
11
 73
7
 74
0
 42
0.0000001
 43
0.0000001
 44
0.0000000001
 40
0.0
 40
0.0
 40
0.0
 40
0.0
 40
0.2781722849
 40
0.5350641383
 40
0.7731143954
 40
1.0
 40
1.0
 40
1.0
 40
1.0
 10
28.2067763017
 20
37.1878205924
 30
0.0
 10
28.2036438323
 20
37.1937648226
 30
0.0
 10
28.1964970932
 20
37.2046677057
 30
0.0
 10
28.1828211584
 20
37.217669663
 30
0.0
 10
28.167173543
 20
37.2259036161
 30
0.0
 10
28.1558690928
 20
37.2278205924
 30
0.0
 10
28.1503887987
 20
37.2278205924
 30
0.0
  0
SPLINE
  5
37D
100
AcDbEntity
  8
0
100
AcDbSpline
 62
7
  6
BYLAYER
 70
0
 71
3
 72
11
 73
7
 74
0
 42
0.0000001
 43
0.0000001
 44
0.0000000001
 40
0.0
 40
0.0
 40
0.0
 40
0.0
 40
0.241300583
 40
0.4867109688
 40
0.7391975062
 40
1.0
 40
1.0
 40
1.0
 40
1.0
 10
12.8804869486
 20
37.2278205924
 30
0.0
 10
12.8738016087
 20
37.2278205924
 30
0.0
 10
12.8602523766
 20
37.22597756
 30
0.0
 10
12.8411798933
 20
37.2179266505
 30
0.0
 10
12.8243208842
 20
37.2050306241
 30
0.0
 10
12.8152582451
 20
37.1938867858
 30
0.0
 10
12.8113325221
 20
37.1878205924
 30
0.0
  0
SPLINE
  5
37E
100
AcDbEntity
  8
0
100
AcDbSpline
 62
7
  6
BYLAYER
 70
0
 71
3
 72
12
 73
8
 74
0
 42
0.0000001
 43
0.0000001
 44
0.0000000001
 40
0.0
 40
0.0
 40
0.0
 40
0.0
 40
0.2382169273
 40
0.360189719
 40
0.4841671107
 40
0.7384231315
 40
1.0
 40
1.0
 40
1.0
 40
1.0
 10
28.1748910114
 20
43.7828205924
 30
0.0
 10
28.1956224885
 20
43.7766125527
 30
0.0
 10
28.2259558748
 20
43.7631720528
 30
0.0
 10
28.2621278611
 20
43.7379898526
 30
0.0
 10
28.2958314235
 20
43.7073332411
 30
0.0
 10
28.3314171365
 20
43.6607192581
 30
0.0
 10
28.3512613251
 20
43.6177799031
 30
0.0
 10
28.3587333383
 20
43.5952220302
 30
0.0
  0
SPLINE
  5
37F
100
AcDbEntity
  8
0
100
AcDbSpline
 62
7
  6
BYLAYER
 70
0
 71
3
 72
11
 73
7
 74
0
 42
0.0000001
 43
0.0000001
 44
0.0000000001
 40
0.0
 40
0.0
 40
0.0
 40
0.0
 40
0.2869328664
 40
0.5462949954
 40
0.7806926947
 40
1.0
 40
1.0
 40
1.0
 40
1.0
 10
28.9471770972
 20
37.1878205924
 30
0.0
 10
28.9443566818
 20
37.1937154004
 30
0.0
 10
28.9379637636
 20
37.2045032087
 30
0.0
 10
28.9255936533
 20
37.2175314549
 30
0.0
 10
28.9113546238
 20
37.2258566199
 30
0.0
 10
28.9009448619
 20
37.2278205924
 30
0.0
 10
28.8959502177
 20
37.2278205924
 30
0.0
  0
LINE
  5
380
100
AcDbEntity
  8
0
100
AcDbLine
 62
7
  6
BYLAYER
 10
20.7804231877
 20
36.7928205686
 11
20.3876817385
 21
37.1878205924
  0
SPLINE
  5
381
100
AcDbEntity
  8
0
100
AcDbSpline
 62
7
  6
BYLAYER
 70
0
 71
3
 72
11
 73
7
 74
0
 42
0.0000001
 43
0.0000001
 44
0.0000000001
 40
0.0
 40
0.0
 40
0.0
 40
0.0
 40
0.2441839534
 40
0.491132458
 40
0.7427918657
 40
1.0
 40
1.0
 40
1.0
 40
1.0
 10
13.8593661112
 20
37.2278205924
 30
0.0
 10
13.8523744035
 20
37.2278205924
 30
0.0
 10
13.8382495587
 20
37.225990173
 30
0.0
 10
13.8183157154
 20
37.2179766012
 30
0.0
 10
13.8006586544
 20
37.205111728
 30
0.0
 10
13.7911010668
 20
37.1939170364
 30
0.0
 10
13.7869693453
 20
37.1878205924
 30
0.0
  0
SPLINE
  5
382
100
AcDbEntity
  8
0
100
AcDbSpline
 62
7
  6
BYLAYER
 70
0
 71
3
 72
11
 73
7
 74
0
 42
0.0000001
 43
0.0000001
 44
0.0000000001
 40
0.0
 40
0.0
 40
0.0
 40
0.0
 40
0.2268875925
 40
0.4649394354
 40
0.7218299002
 40
1.0
 40
1.0
 40
1.0
 40
1.0
 10
10.2605857018
 20
37.2278205924
 30
0.0
 10
10.2551053191
 20
37.2278205924
 30
0.0
 10
10.2438007066
 20
37.225903613
 30
0.0
 10
10.2281528391
 20
37.2176697374
 30
0.0
 10
10.2144768152
 20
37.2046677203
 30
0.0
 10
10.2073300894
 20
37.19376482
 30
0.0
 10
10.2041976214
 20
37.1878205924
 30
0.0
  0
SPLINE
  5
383
100
AcDbEntity
  8
0
100
AcDbSpline
 62
7
  6
BYLAYER
 70
0
 71
3
 72
11
 73
7
 74
0
 42
0.0000001
 43
0.0000001
 44
0.0000000001
 40
0.0
 40
0.0
 40
0.0
 40
0.0
 40
0.2976969202
 40
0.5603193129
 40
0.7903028727
 40
1.0
 40
1.0
 40
1.0
 40
1.0
 10
29.613437757
 20
37.1878205924
 30
0.0
 10
29.6109470516
 20
37.1936632413
 30
0.0
 10
29.6053468482
 20
37.2043181324
 30
0.0
 10
29.5943910149
 20
37.2173552422
 30
0.0
 10
29.5816925305
 20
37.2257878549
 30
0.0
 10
29.5722352754
 20
37.2278205924
 30
0.0
 10
29.5677613685
 20
37.2278205924
 30
0.0
  0
SPLINE
  5
384
100
AcDbEntity
  8
0
100
AcDbSpline
 62
7
  6
BYLAYER
 70
0
 71
3
 72
11
 73
7
 74
0
 42
0.0000001
 43
0.0000001
 44
0.0000000001
 40
0.0
 40
0.0
 40
0.0
 40
0.0
 40
0.3486120534
 40
0.4820223816
 40
0.6353906361
 40
1.0
 40
1.0
 40
1.0
 40
1.0
 10
6.9865242006
 20
37.2278205924
 30
0.0
 10
6.9823976848
 20
37.2278205924
 30
0.0
 10
6.9777057908
 20
37.2224224189
 30
0.0
 10
6.9743012583
 20
37.2159547635
 30
0.0
 10
6.971264621
 20
37.208793729
 30
0.0
 10
6.9695320716
 20
37.2029180895
 30
0.0
 10
6.9684671973
 20
37.198735647
 30
0.0
  0
LINE
  5
385
100
AcDbEntity
  8
0
100
AcDbLine
 62
7
  6
BYLAYER
 10
6.9684671973
 20
37.198735647
 11
6.9660651927
 21
37.1878205924
  0
SPLINE
  5
386
100
AcDbEntity
  8
0
100
AcDbSpline
 62
7
  6
BYLAYER
 70
0
 71
3
 72
9
 73
5
 74
0
 42
0.0000001
 43
0.0000001
 44
0.0000000001
 40
0.0
 40
0.0
 40
0.0
 40
0.0
 40
0.5013251032
 40
1.0
 40
1.0
 40
1.0
 40
1.0
 10
21.480877666
 20
37.1878205924
 30
0.0
 10
21.4718699374
 20
37.2000297892
 30
0.0
 10
21.4479283286
 20
37.2205314348
 30
0.0
 10
21.4172297609
 20
37.2278205924
 30
0.0
 10
21.4021375047
 20
37.2278205924
 30
0.0
  0
SPLINE
  5
387
100
AcDbEntity
  8
0
100
AcDbSpline
 62
7
  6
BYLAYER
 70
0
 71
3
 72
11
 73
7
 74
0
 42
0.0000001
 43
0.0000001
 44
0.0000000001
 40
0.0
 40
0.0
 40
0.0
 40
0.0
 40
0.182002043
 40
0.4006793986
 40
0.6733076811
 40
1.0
 40
1.0
 40
1.0
 40
1.0
 10
7.7406925309
 20
37.2278205924
 30
0.0
 10
7.7373436717
 20
37.2278205924
 30
0.0
 10
7.7299302187
 20
37.225522176
 30
0.0
 10
7.7207343408
 20
37.2168597377
 30
0.0
 10
7.7128587406
 20
37.2039092575
 30
0.0
 10
7.7089082183
 20
37.1935578707
 30
0.0
 10
7.7071143704
 20
37.1878205924
 30
0.0
  0
SPLINE
  5
388
100
AcDbEntity
  8
0
100
AcDbSpline
 62
7
  6
BYLAYER
 70
0
 71
3
 72
11
 73
7
 74
0
 42
0.0000001
 43
0.0000001
 44
0.0000000001
 40
0.0
 40
0.0
 40
0.0
 40
0.0
 40
0.3108352444
 40
0.5777711859
 40
0.8025080407
 40
1.0
 40
1.0
 40
1.0
 40
1.0
 10
30.2004876352
 20
37.1878205924
 30
0.0
 10
30.1983403837
 20
37.1936100074
 30
0.0
 10
30.1935585169
 20
37.2041171641
 30
0.0
 10
30.1841097521
 20
37.2171330126
 30
0.0
 10
30.1730889048
 20
37.2256840466
 30
0.0
 10
30.1646325699
 20
37.2278205924
 30
0.0
 10
30.1607093625
 20
37.2278205924
 30
0.0
  0
SPLINE
  5
389
100
AcDbEntity
  8
0
100
AcDbSpline
 62
7
  6
BYLAYER
 70
0
 71
3
 72
9
 73
5
 74
0
 42
0.0000001
 43
0.0000001
 44
0.0000000001
 40
0.0
 40
0.0
 40
0.0
 40
0.0
 40
0.4980931731
 40
1.0
 40
1.0
 40
1.0
 40
1.0
 10
29.3542965266
 20
40.6608049053
 30
0.0
 10
29.4324971275
 20
40.4299112851
 30
0.0
 10
29.5991047554
 20
39.9695527563
 30
0.0
 10
29.7864460432
 20
39.517154538
 30
0.0
 10
29.8865209041
 20
39.2928206054
 30
0.0
  0
SPLINE
  5
38A
100
AcDbEntity
  8
0
100
AcDbSpline
 62
7
  6
BYLAYER
 70
0
 71
3
 72
9
 73
5
 74
0
 42
0.0000001
 43
0.0000001
 44
0.0000000001
 40
0.0
 40
0.0
 40
0.0
 40
0.0
 40
0.5030781295
 40
1.0
 40
1.0
 40
1.0
 40
1.0
 10
22.5567567723
 20
37.1878205924
 30
0.0
 10
22.5479664473
 20
37.1999750727
 30
0.0
 10
22.5246179998
 20
37.2204612226
 30
0.0
 10
22.4943654533
 20
37.2278205924
 30
0.0
 10
22.4795489713
 20
37.2278205924
 30
0.0
  0
SPLINE
  5
38B
100
AcDbEntity
  8
0
100
AcDbSpline
 62
7
  6
BYLAYER
 70
0
 71
3
 72
11
 73
7
 74
0
 42
0.0000001
 43
0.0000001
 44
0.0000000001
 40
0.0
 40
0.0
 40
0.0
 40
0.0
 40
0.3266961581
 40
0.5993268907
 40
0.8180019249
 40
1.0
 40
1.0
 40
1.0
 40
1.0
 10
30.7038589278
 20
37.1878205924
 30
0.0
 10
30.7020650792
 20
37.1935578731
 30
0.0
 10
30.6981145383
 20
37.2039092516
 30
0.0
 10
30.6902389935
 20
37.2168596172
 30
0.0
 10
30.681043512
 20
37.2255221488
 30
0.0
 10
30.6736302558
 20
37.2278205924
 30
0.0
 10
30.6702815076
 20
37.2278205924
 30
0.0
  0
SPLINE
  5
38C
100
AcDbEntity
  8
0
100
AcDbSpline
 62
7
  6
BYLAYER
 70
0
 71
3
 72
9
 73
5
 74
0
 42
0.0000001
 43
0.0000001
 44
0.0000000001
 40
0.0
 40
0.0
 40
0.0
 40
0.0
 40
0.4943552404
 40
1.0
 40
1.0
 40
1.0
 40
1.0
 10
14.87893249
 20
37.2278205924
 30
0.0
 10
14.8644976481
 20
37.2278205924
 30
0.0
 10
14.8348617039
 20
37.2203564084
 30
0.0
 10
14.8123367389
 20
37.1998982473
 30
0.0
 10
14.8038443678
 20
37.1878205924
 30
0.0
  0
SPLINE
  5
38D
100
AcDbEntity
  8
0
100
AcDbSpline
 62
7
  6
BYLAYER
 70
0
 71
3
 72
13
 73
9
 74
0
 42
0.0000001
 43
0.0000001
 44
0.0000000001
 40
0.0
 40
0.0
 40
0.0
 40
0.0
 40
0.344502984
 40
0.6237799688
 40
0.7378132323
 40
0.836090629
 40
0.9217243489
 40
1.0
 40
1.0
 40
1.0
 40
1.0
 10
31.1197206753
 20
37.1878205924
 30
0.0
 10
31.1182867447
 20
37.1935094751
 30
0.0
 10
31.1151631942
 20
37.2036851107
 30
0.0
 10
31.1096424299
 20
37.2150907402
 30
0.0
 10
31.1045136168
 20
37.2217478553
 30
0.0
 10
31.1007201637
 20
37.2251725998
 30
0.0
 10
31.0967405884
 20
37.2273138589
 30
0.0
 10
31.0939326707
 20
37.2278205924
 30
0.0
 10
31.092599652
 20
37.2278205924
 30
0.0
  0
SPLINE
  5
38E
100
AcDbEntity
  8
0
100
AcDbSpline
 62
7
  6
BYLAYER
 70
0
 71
3
 72
11
 73
7
 74
0
 42
0.0000001
 43
0.0000001
 44
0.0000000001
 40
0.0
 40
0.0
 40
0.0
 40
0.0
 40
0.1974952938
 40
0.4222343409
 40
0.6891681347
 40
1.0
 40
1.0
 40
1.0
 40
1.0
 10
8.2502647694
 20
37.2278205924
 30
0.0
 10
8.2463414549
 20
37.2278205924
 30
0.0
 10
8.2378849301
 20
37.2256840591
 30
0.0
 10
8.2268637286
 20
37.2171331229
 30
0.0
 10
8.2174148876
 20
37.2041171742
 30
0.0
 10
8.2126330399
 20
37.1936100048
 30
0.0
 10
8.2104857894
 20
37.1878205924
 30
0.0
  0
SPLINE
  5
38F
100
AcDbEntity
  8
0
100
AcDbSpline
 62
7
  6
BYLAYER
 70
0
 71
3
 72
9
 73
5
 74
0
 42
0.0000001
 43
0.0000001
 44
0.0000000001
 40
0.0
 40
0.0
 40
0.0
 40
0.0
 40
0.2500092456
 40
1.0
 40
1.0
 40
1.0
 40
1.0
 10
29.3542965266
 20
40.6606245088
 30
0.0
 10
29.2714535014
 20
40.9052252634
 30
0.0
 10
28.939960166
 20
41.8835468771
 30
0.0
 10
28.6080270853
 20
42.8617195415
 30
0.0
 10
28.3587333383
 20
43.5952220302
 30
0.0
  0
SPLINE
  5
390
100
AcDbEntity
  8
0
100
AcDbSpline
 62
7
  6
BYLAYER
 70
0
 71
3
 72
9
 73
5
 74
0
 42
0.0000001
 43
0.0000001
 44
0.0000000001
 40
0.0
 40
0.0
 40
0.0
 40
0.0
 40
0.5056461603
 40
1.0
 40
1.0
 40
1.0
 40
1.0
 10
23.6071307002
 20
37.1878205924
 30
0.0
 10
23.5986383316
 20
37.1998982439
 30
0.0
 10
23.5761134436
 20
37.2203563328
 30
0.0
 10
23.5464776144
 20
37.2278205924
 30
0.0
 10
23.5320428575
 20
37.2278205924
 30
0.0
  0
SPLINE
  5
391
100
AcDbEntity
  8
0
100
AcDbSpline
 62
7
  6
BYLAYER
 70
0
 71
3
 72
10
 73
6
 74
0
 42
0.0000001
 43
0.0000001
 44
0.0000000001
 40
0.0
 40
0.0
 40
0.0
 40
0.0
 40
0.6069094413
 40
0.8328310167
 40
1.0
 40
1.0
 40
1.0
 40
1.0
 10
31.8140683307
 20
37.1878205924
 30
0.0
 10
31.8136331736
 20
37.1949964172
 30
0.0
 10
31.8129114226
 20
37.2048441904
 30
0.0
 10
31.811348466
 20
37.2165863828
 30
0.0
 10
31.8104703867
 20
37.2211675778
 30
0.0
 10
31.809961159
 20
37.2230811422
 30
0.0
  0
SPLINE
  5
392
100
AcDbEntity
  8
0
100
AcDbSpline
 62
7
  6
BYLAYER
 70
0
 71
3
 72
12
 73
8
 74
0
 42
0.0000001
 43
0.0000001
 44
0.0000000001
 40
0.0
 40
0.0
 40
0.0
 40
0.0
 40
0.0293081368
 40
0.0835253622
 40
0.2802777191
 40
0.5910668825
 40
1.0
 40
1.0
 40
1.0
 40
1.0
 10
6.6036229044
 20
37.2278205924
 30
0.0
 10
6.6032211782
 20
37.2278205924
 30
0.0
 10
6.6022722302
 20
37.2268784552
 30
0.0
 10
6.6009518682
 20
37.2233753517
 30
0.0
 10
6.5993943555
 20
37.2156980647
 30
0.0
 10
6.597971381
 20
37.2032759498
 30
0.0
 10
6.5972439759
 20
37.1934155534
 30
0.0
 10
6.5969046856
 20
37.1878205924
 30
0.0
  0
SPLINE
  5
393
100
AcDbEntity
  8
0
100
AcDbSpline
 62
7
  6
BYLAYER
 70
0
 71
3
 72
9
 73
5
 74
0
 42
0.0000001
 43
0.0000001
 44
0.0000000001
 40
0.0
 40
0.0
 40
0.0
 40
0.0
 40
0.4989999104
 40
1.0
 40
1.0
 40
1.0
 40
1.0
 10
21.5996503014
 20
39.2928206054
 30
0.0
 10
21.6371334438
 20
39.5181352529
 30
0.0
 10
21.6895646597
 20
39.9735868185
 30
0.0
 10
21.7054880704
 20
40.4314781461
 30
0.0
 10
21.7054880704
 20
40.6608049042
 30
0.0
  0
SPLINE
  5
394
100
AcDbEntity
  8
0
100
AcDbSpline
 62
7
  6
BYLAYER
 70
0
 71
3
 72
10
 73
6
 74
0
 42
0.0000001
 43
0.0000001
 44
0.0000000001
 40
0.0
 40
0.0
 40
0.0
 40
0.0
 40
0.599433481
 40
0.8265752325
 40
1.0
 40
1.0
 40
1.0
 40
1.0
 10
31.6769457865
 20
37.1878205924
 30
0.0
 10
31.6760400852
 20
37.1950335748
 30
0.0
 10
31.6745100266
 20
37.2049736342
 30
0.0
 10
31.6713290098
 20
37.2166820476
 30
0.0
 10
31.6695436699
 20
37.2212285722
 30
0.0
 10
31.6685479473
 20
37.2230811422
 30
0.0
  0
SPLINE
  5
395
100
AcDbEntity
  8
0
100
AcDbSpline
 62
7
  6
BYLAYER
 70
0
 71
3
 72
9
 73
5
 74
0
 42
0.0000001
 43
0.0000001
 44
0.0000000001
 40
0.0
 40
0.0
 40
0.0
 40
0.0
 40
0.336543528
 40
1.0
 40
1.0
 40
1.0
 40
1.0
 10
31.6685479473
 20
37.2230811422
 30
0.0
 10
31.668165071
 20
37.2237934945
 30
0.0
 10
31.6669871779
 20
37.2257941748
 30
0.0
 10
31.6649003834
 20
37.2278205924
 30
0.0
 10
31.6633060712
 20
37.2278205924
 30
0.0
  0
SPLINE
  5
396
100
AcDbEntity
  8
0
100
AcDbSpline
 62
7
  6
BYLAYER
 70
0
 71
3
 72
11
 73
7
 74
0
 42
0.0000001
 43
0.0000001
 44
0.0000000001
 40
0.0
 40
0.0
 40
0.0
 40
0.0
 40
0.3506883278
 40
0.6366737026
 40
0.8509471037
 40
1.0
 40
1.0
 40
1.0
 40
1.0
 10
31.4449079186
 20
37.1878205924
 30
0.0
 10
31.4439361549
 20
37.1929477361
 30
0.0
 10
31.4418516367
 20
37.2021989731
 30
0.0
 10
31.4377091566
 20
37.2142237167
 30
0.0
 10
31.4331408353
 20
37.2227492772
 30
0.0
 10
31.4289443912
 20
37.2266182325
 30
0.0
 10
31.4268612923
 20
37.227379908
 30
0.0
  0
SPLINE
  5
397
100
AcDbEntity
  8
0
100
AcDbSpline
 62
7
  6
BYLAYER
 70
0
 71
3
 72
8
 73
4
 74
0
 42
0.0000001
 43
0.0000001
 44
0.0000000001
 40
0.0
 40
0.0
 40
0.0
 40
0.0
 40
1.0
 40
1.0
 40
1.0
 40
1.0
 10
31.4268612923
 20
37.227379908
 30
0.0
 10
31.4260938126
 20
37.2276605334
 30
0.0
 10
31.4252668751
 20
37.2278205924
 30
0.0
 10
31.4244496996
 20
37.2278205924
 30
0.0
  0
SPLINE
  5
398
100
AcDbEntity
  8
0
100
AcDbSpline
 62
7
  6
BYLAYER
 70
0
 71
3
 72
11
 73
7
 74
0
 42
0.0000001
 43
0.0000001
 44
0.0000000001
 40
0.0
 40
0.0
 40
0.0
 40
0.0
 40
0.2328708483
 40
0.4739119046
 40
0.7289236485
 40
1.0
 40
1.0
 40
1.0
 40
1.0
 10
11.0742233657
 20
37.2278205924
 30
0.0
 10
11.0682968416
 20
37.2278205924
 30
0.0
 10
11.0561650261
 20
37.2259366217
 30
0.0
 10
11.039240106
 20
37.2177776185
 30
0.0
 10
11.0243764358
 20
37.2048100776
 30
0.0
 10
11.0165268978
 20
37.1938103246
 30
0.0
 10
11.0131038572
 20
37.1878205924
 30
0.0
  0
SPLINE
  5
399
100
AcDbEntity
  8
0
100
AcDbSpline
 62
7
  6
BYLAYER
 70
0
 71
3
 72
9
 73
5
 74
0
 42
0.0000001
 43
0.0000001
 44
0.0000000001
 40
0.0
 40
0.0
 40
0.0
 40
0.0
 40
0.5132959384
 40
1.0
 40
1.0
 40
1.0
 40
1.0
 10
30.594408318
 20
5.6331898628
 30
0.0
 10
29.4787775546
 20
5.2787108677
 30
0.0
 10
27.2713789224
 20
4.6893999876
 30
0.0
 10
25.0127414085
 20
4.3363061914
 30
0.0
 10
23.9077253158
 20
4.2317791659
 30
0.0
  0
SPLINE
  5
39A
100
AcDbEntity
  8
0
100
AcDbSpline
 62
7
  6
BYLAYER
 70
0
 71
3
 72
12
 73
8
 74
0
 42
0.0000001
 43
0.0000001
 44
0.0000000001
 40
0.0
 40
0.0
 40
0.0
 40
0.0
 40
0.1269749493
 40
0.2532597158
 40
0.5039792127
 40
0.7527107273
 40
1.0
 40
1.0
 40
1.0
 40
1.0
 10
10.6957470323
 20
5.8221624032
 30
0.0
 10
10.973605965
 20
5.7140105303
 30
0.0
 10
11.5312653249
 20
5.5070054115
 30
0.0
 10
12.6539262458
 20
5.132065
 30
0.0
 10
14.0700347064
 20
4.7355758222
 30
0.0
 10
15.7878087919
 20
4.3772167141
 30
0.0
 10
16.9426683148
 20
4.2174866518
 30
0.0
 10
17.520284675
 20
4.1578235402
 30
0.0
  0
SPLINE
  5
39B
100
AcDbEntity
  8
0
100
AcDbSpline
 62
7
  6
BYLAYER
 70
0
 71
3
 72
9
 73
5
 74
0
 42
0.0000001
 43
0.0000001
 44
0.0000000001
 40
0.0
 40
0.0
 40
0.0
 40
0.0
 40
0.5132927208
 40
1.0
 40
1.0
 40
1.0
 40
1.0
 10
7.816567822
 20
5.6329635966
 30
0.0
 10
8.9318461873
 20
5.2786343523
 30
0.0
 10
11.138546684
 20
4.6895477596
 30
0.0
 10
13.3964519911
 20
4.3365230546
 30
0.0
 10
14.5011180004
 20
4.2319815119
 30
0.0
  0
SPLINE
  5
39C
100
AcDbEntity
  8
0
100
AcDbSpline
 62
7
  6
BYLAYER
 70
0
 71
3
 72
11
 73
7
 74
0
 42
0.0000001
 43
0.0000001
 44
0.0000000001
 40
0.0
 40
0.0
 40
0.0
 40
0.0
 40
0.1811775451
 40
0.4012143117
 40
0.6727476815
 40
1.0
 40
1.0
 40
1.0
 40
1.0
 10
7.1476075642
 20
5.9401737366
 30
0.0
 10
7.1353214247
 20
5.9612751161
 30
0.0
 10
7.1151077506
 20
6.012056437
 30
0.0
 10
7.0974982979
 20
6.1012409739
 30
0.0
 10
7.0885120373
 20
6.211374735
 30
0.0
 10
7.0868646516
 20
6.2920768505
 30
0.0
 10
7.0866321541
 20
6.336180514
 30
0.0
  0
SPLINE
  5
39D
100
AcDbEntity
  8
0
100
AcDbSpline
 62
7
  6
BYLAYER
 70
0
 71
3
 72
9
 73
5
 74
0
 42
0.0000001
 43
0.0000001
 44
0.0000000001
 40
0.0
 40
0.0
 40
0.0
 40
0.0
 40
0.2782517624
 40
1.0
 40
1.0
 40
1.0
 40
1.0
 10
7.3129681147
 20
5.8220042916
 30
0.0
 10
7.2956364798
 20
5.8296408196
 30
0.0
 10
7.2347425259
 20
5.8599345173
 30
0.0
 10
7.1793093002
 20
5.9026450624
 30
0.0
 10
7.1476075642
 20
5.9401737366
 30
0.0
  0
SPLINE
  5
39E
100
AcDbEntity
  8
0
100
AcDbSpline
 62
7
  6
BYLAYER
 70
0
 71
3
 72
10
 73
6
 74
0
 42
0.0000001
 43
0.0000001
 44
0.0000000001
 40
0.0
 40
0.0
 40
0.0
 40
0.0
 40
0.5535855568
 40
0.7914494053
 40
1.0
 40
1.0
 40
1.0
 40
1.0
 10
7.816567822
 20
5.6329635966
 30
0.0
 10
7.721926519
 20
5.6630758752
 30
0.0
 10
7.587359967
 20
5.7086599268
 30
0.0
 10
7.4202764693
 20
5.7740693369
 30
0.0
 10
7.3468380521
 20
5.806107162
 30
0.0
 10
7.3129681147
 20
5.8220042916
 30
0.0
  0
SPLINE
  5
39F
100
AcDbEntity
  8
0
100
AcDbSpline
 62
7
  6
BYLAYER
 70
0
 71
3
 72
11
 73
7
 74
0
 42
0.0000001
 43
0.0000001
 44
0.0000000001
 40
0.0
 40
0.0
 40
0.0
 40
0.0
 40
0.2271141924
 40
0.4723306645
 40
0.7320036461
 40
1.0
 40
1.0
 40
1.0
 40
1.0
 10
10.4599265639
 20
5.9402870514
 30
0.0
 10
10.4358115816
 20
5.9628940222
 30
0.0
 10
10.3918456257
 20
6.0167174045
 30
0.0
 10
10.3431500563
 20
6.1122095303
 30
0.0
 10
10.3116126919
 20
6.2208076756
 30
0.0
 10
10.303058649
 20
6.2975522469
 30
0.0
 10
10.301945003
 20
6.3365410237
 30
0.0
  0
SPLINE
  5
3A0
100
AcDbEntity
  8
0
100
AcDbSpline
 62
7
  6
BYLAYER
 70
0
 71
3
 72
9
 73
5
 74
0
 42
0.0000001
 43
0.0000001
 44
0.0000000001
 40
0.0
 40
0.0
 40
0.0
 40
0.0
 40
0.4937532809
 40
1.0
 40
1.0
 40
1.0
 40
1.0
 10
10.6957470323
 20
5.8221624032
 30
0.0
 10
10.6549094993
 20
5.8370842057
 30
0.0
 10
10.5738606188
 20
5.8720689063
 30
0.0
 10
10.4973686403
 20
5.9160934725
 30
0.0
 10
10.4599265639
 20
5.9402870514
 30
0.0
  0
LINE
  5
3A1
100
AcDbEntity
  8
0
100
AcDbLine
 62
7
  6
BYLAYER
 10
8.3589756479
 20
17.5028214744
 11
8.5664931935
 21
6.3365410143
  0
SPLINE
  5
3A2
100
AcDbEntity
  8
0
100
AcDbSpline
 62
7
  6
BYLAYER
 70
0
 71
3
 72
11
 73
7
 74
0
 42
0.0000001
 43
0.0000001
 44
0.0000000001
 40
0.0
 40
0.0
 40
0.0
 40
0.0
 40
0.227119791
 40
0.472340312
 40
0.7320113682
 40
1.0
 40
1.0
 40
1.0
 40
1.0
 10
8.7244246961
 20
5.9402872966
 30
0.0
 10
8.7003140491
 20
5.9628974569
 30
0.0
 10
8.656359144
 20
6.0167268894
 30
0.0
 10
8.6076805927
 20
6.1122220603
 30
0.0
 10
8.5761565844
 20
6.2208164509
 30
0.0
 10
8.5676064014
 20
6.2975554691
 30
0.0
 10
8.5664931935
 20
6.3365410143
 30
0.0
  0
SPLINE
  5
3A3
100
AcDbEntity
  8
0
100
AcDbSpline
 62
7
  6
BYLAYER
 70
0
 71
3
 72
9
 73
5
 74
0
 42
0.0000001
 43
0.0000001
 44
0.0000000001
 40
0.0
 40
0.0
 40
0.0
 40
0.0
 40
0.493755245
 40
1.0
 40
1.0
 40
1.0
 40
1.0
 10
8.9601660366
 20
5.8221532132
 30
0.0
 10
8.9193403376
 20
5.8370757222
 30
0.0
 10
8.8383225701
 20
5.8720760471
 30
0.0
 10
8.761853577
 20
5.9160944826
 30
0.0
 10
8.7244246961
 20
5.9402872966
 30
0.0
  0
SPLINE
  5
3A4
100
AcDbEntity
  8
0
100
AcDbSpline
 62
7
  6
BYLAYER
 70
0
 71
3
 72
12
 73
8
 74
0
 42
0.0000001
 43
0.0000001
 44
0.0000000001
 40
0.0
 40
0.0
 40
0.0
 40
0.0
 40
0.1267094691
 40
0.2528477976
 40
0.5035568427
 40
0.7524897191
 40
1.0
 40
1.0
 40
1.0
 40
1.0
 10
8.9601660366
 20
5.8221532132
 30
0.0
 10
9.1870571257
 20
5.7338099262
 30
0.0
 10
9.6420987908
 20
5.5632968656
 30
0.0
 10
10.5571319267
 20
5.2483512233
 30
0.0
 10
11.7095700765
 20
4.9027624354
 30
0.0
 10
13.1058842824
 20
4.5658434483
 30
0.0
 10
14.0447498193
 20
4.3935496043
 30
0.0
 10
14.5147689004
 20
4.3208216725
 30
0.0
  0
LINE
  5
3A5
100
AcDbEntity
  8
0
100
AcDbLine
 62
7
  6
BYLAYER
 10
10.0943643332
 20
17.5028214744
 11
10.301945003
 21
6.3365410237
  0
LINE
  5
3A6
100
AcDbEntity
  8
0
100
AcDbLine
 62
7
  6
BYLAYER
 10
7.6418818729
 20
19.9908565501
 11
7.636350799
 21
19.9929039
  0
SPLINE
  5
3A7
100
AcDbEntity
  8
0
100
AcDbSpline
 62
7
  6
BYLAYER
 70
0
 71
3
 72
18
 73
14
 74
0
 42
0.0000001
 43
0.0000001
 44
0.0000000001
 40
0.0
 40
0.0
 40
0.0
 40
0.0
 40
0.200120121
 40
0.3807030606
 40
0.5403339952
 40
0.6773733844
 40
0.7904200958
 40
0.8381253057
 40
0.8803115037
 40
0.9174087464
 40
0.9495764871
 40
0.9769556871
 40
1.0
 40
1.0
 40
1.0
 40
1.0
 10
7.636350799
 20
19.9929039
 30
0.0
 10
7.5950780538
 20
20.0081919879
 30
0.0
 10
7.5167027576
 20
20.0376625986
 30
0.0
 10
7.4066111501
 20
20.0824876677
 30
0.0
 10
7.3114688632
 20
20.1269642244
 30
0.0
 10
7.2320281015
 20
20.169546089
 30
0.0
 10
7.1761047588
 20
20.2038271732
 30
0.0
 10
7.1403273563
 20
20.2305713743
 30
0.0
 10
7.1194060148
 20
20.2491455955
 30
0.0
 10
7.10305876
 20
20.2674993414
 30
0.0
 10
7.0912402917
 20
20.2852738552
 30
0.0
 10
7.0839131642
 20
20.3020054892
 30
0.0
 10
7.0819297353
 20
20.3130991768
 30
0.0
 10
7.0819299023
 20
20.318167407
 30
0.0
  0
SPLINE
  5
3A8
100
AcDbEntity
  8
0
100
AcDbSpline
 62
7
  6
BYLAYER
 70
0
 71
3
 72
11
 73
7
 74
0
 42
0.0000001
 43
0.0000001
 44
0.0000000001
 40
0.0
 40
0.0
 40
0.0
 40
0.0
 40
0.1812612928
 40
0.401360841
 40
0.6728975333
 40
1.0
 40
1.0
 40
1.0
 40
1.0
 10
31.26300271
 20
5.9401737366
 30
0.0
 10
31.2753132048
 20
5.9612773731
 30
0.0
 10
31.2955792994
 20
6.0120664989
 30
0.0
 10
31.3132608914
 20
6.1012691994
 30
0.0
 10
31.3223106024
 20
6.2114003818
 30
0.0
 10
31.323979847
 20
6.2920925249
 30
0.0
 10
31.3242150709
 20
6.3361812592
 30
0.0
  0
SPLINE
  5
3A9
100
AcDbEntity
  8
0
100
AcDbSpline
 62
7
  6
BYLAYER
 70
0
 71
3
 72
9
 73
5
 74
0
 42
0.0000001
 43
0.0000001
 44
0.0000000001
 40
0.0
 40
0.0
 40
0.0
 40
0.0
 40
0.2781894365
 40
1.0
 40
1.0
 40
1.0
 40
1.0
 10
31.0974738467
 20
5.8220042916
 30
0.0
 10
31.1148147726
 20
5.8296402254
 30
0.0
 10
31.175757625
 20
5.8599376026
 30
0.0
 10
31.2312426209
 20
5.9026463543
 30
0.0
 10
31.26300271
 20
5.9401737366
 30
0.0
  0
SPLINE
  5
3AA
100
AcDbEntity
  8
0
100
AcDbSpline
 62
7
  6
BYLAYER
 70
0
 71
3
 72
10
 73
6
 74
0
 42
0.0000001
 43
0.0000001
 44
0.0000000001
 40
0.0
 40
0.0
 40
0.0
 40
0.0
 40
0.5534763564
 40
0.7913639378
 40
1.0
 40
1.0
 40
1.0
 40
1.0
 10
30.594408318
 20
5.6331898628
 30
0.0
 10
30.6889279257
 20
5.6632664197
 30
0.0
 10
30.8233337645
 20
5.7087981984
 30
0.0
 10
30.9902411311
 20
5.7741258648
 30
0.0
 10
31.0636228632
 20
5.8061258064
 30
0.0
 10
31.0974738467
 20
5.8220042916
 30
0.0
  0
SPLINE
  5
3AB
100
AcDbEntity
  8
0
100
AcDbSpline
 62
7
  6
BYLAYER
 70
0
 71
3
 72
15
 73
11
 74
0
 42
0.0000001
 43
0.0000001
 44
0.0000000001
 40
0.0
 40
0.0
 40
0.0
 40
0.0
 40
0.1250117117
 40
0.250032747
 40
0.3437502856
 40
0.4374859441
 40
0.6250097773
 40
0.7187232948
 40
0.8124718768
 40
1.0
 40
1.0
 40
1.0
 40
1.0
 10
29.0923504378
 20
46.0128205629
 30
0.0
 10
29.0919822646
 20
46.0242372668
 30
0.0
 10
29.0907284254
 20
46.0470525547
 30
0.0
 10
29.0887253459
 20
46.0783970812
 30
0.0
 10
29.0876409952
 20
46.1069342675
 30
0.0
 10
29.0876456299
 20
46.1412007609
 30
0.0
 10
29.0883973021
 20
46.1754614116
 30
0.0
 10
29.0875058235
 20
46.2097217291
 30
0.0
 10
29.0855911785
 20
46.2439323093
 30
0.0
 10
29.0839070781
 20
46.2695836793
 30
0.0
 10
29.0833328603
 20
46.2867089781
 30
0.0
  0
SPLINE
  5
3AC
100
AcDbEntity
  8
0
100
AcDbSpline
 62
7
  6
BYLAYER
 70
0
 71
3
 72
15
 73
11
 74
0
 42
0.0000001
 43
0.0000001
 44
0.0000000001
 40
0.0
 40
0.0
 40
0.0
 40
0.0
 40
0.125012945
 40
0.2500344954
 40
0.343753621
 40
0.4374878504
 40
0.6250133949
 40
0.7187262596
 40
0.8124734808
 40
1.0
 40
1.0
 40
1.0
 40
1.0
 10
9.3276358866
 20
46.2866945585
 30
0.0
 10
9.3272531122
 20
46.2752788321
 30
0.0
 10
9.3259969123
 20
46.2524650931
 30
0.0
 10
9.3240134745
 20
46.221120743
 30
0.0
 10
9.3229012694
 20
46.1925864529
 30
0.0
 10
9.3228677713
 20
46.158321267
 30
0.0
 10
9.323631287
 20
46.1240633984
 30
0.0
 10
9.3227979287
 20
46.0898033182
 30
0.0
 10
9.3208780519
 20
46.0555949287
 30
0.0
 10
9.3191804025
 20
46.0299455222
 30
0.0
 10
9.318628151
 20
46.0128205629
 30
0.0
  0
SPLINE
  5
3AD
100
AcDbEntity
  8
0
100
AcDbSpline
 62
7
  6
BYLAYER
 70
0
 71
3
 72
15
 73
11
 74
0
 42
0.0000001
 43
0.0000001
 44
0.0000000001
 40
0.0
 40
0.0
 40
0.0
 40
0.0
 40
0.1250129402
 40
0.2500347812
 40
0.343754148
 40
0.4374879603
 40
0.6250135042
 40
0.718726377
 40
0.8124734912
 40
1.0
 40
1.0
 40
1.0
 40
1.0
 10
29.0833327846
 20
46.2867091093
 30
0.0
 10
29.0837155792
 20
46.2752927671
 30
0.0
 10
29.0849712096
 20
46.2524777292
 30
0.0
 10
29.0869553303
 20
46.2211317078
 30
0.0
 10
29.0880754555
 20
46.1925962124
 30
0.0
 10
29.0881169296
 20
46.1583291351
 30
0.0
 10
29.0873515994
 20
46.1240695193
 30
0.0
 10
29.0881810148
 20
46.0898074981
 30
0.0
 10
29.0900998895
 20
46.0555971881
 30
0.0
 10
29.0917981672
 20
46.0299464457
 30
0.0
 10
29.0923504488
 20
46.0128205629
 30
0.0
  0
LINE
  5
3AE
100
AcDbEntity
  8
0
100
AcDbLine
 62
7
  6
BYLAYER
 10
10.262230906
 20
6.4028205924
 11
10.0559469976
 21
17.5028217849
  0
SPLINE
  5
3AF
100
AcDbEntity
  8
0
100
AcDbSpline
 62
7
  6
BYLAYER
 70
0
 71
3
 72
12
 73
8
 74
0
 42
0.0000001
 43
0.0000001
 44
0.0000000001
 40
0.0
 40
0.0
 40
0.0
 40
0.0
 40
0.2473152989
 40
0.4960652035
 40
0.7467808286
 40
0.8730501793
 40
1.0
 40
1.0
 40
1.0
 40
1.0
 10
17.425634736
 20
4.1627880839
 30
0.0
 10
16.8556979108
 20
4.2230176145
 30
0.0
 10
15.7162588452
 20
4.382815559
 30
0.0
 10
14.0213666931
 20
4.7381167191
 30
0.0
 10
12.6239547733
 20
5.1295017152
 30
0.0
 10
11.5159443033
 20
5.4988144994
 30
0.0
 10
10.9655122016
 20
5.7025228486
 30
0.0
 10
10.6912382076
 20
5.8089096653
 30
0.0
  0
SPLINE
  5
3B0
100
AcDbEntity
  8
0
100
AcDbSpline
 62
7
  6
BYLAYER
 70
0
 71
3
 72
21
 73
17
 74
0
 42
0.0000001
 43
0.0000001
 44
0.0000000001
 40
0.0
 40
0.0
 40
0.0
 40
0.0
 40
0.0341638758
 40
0.0681146013
 40
0.1018532057
 40
0.1353816141
 40
0.2018109044
 40
0.2674167858
 40
0.3322159941
 40
0.396229068
 40
0.4594799334
 40
0.5219951844
 40
0.6449307779
 40
0.7653401344
 40
0.8835649174
 40
1.0
 40
1.0
 40
1.0
 40
1.0
 10
23.9077253158
 20
4.2317791659
 30
0.0
 10
23.7899457426
 20
4.2206380139
 30
0.0
 10
23.5549887521
 20
4.1997878862
 30
0.0
 10
23.2032506457
 20
4.1735293793
 30
0.0
 10
22.8533755676
 20
4.1523460373
 30
0.0
 10
22.3909173864
 20
4.1302906274
 30
0.0
 10
21.8177214321
 20
4.1146335742
 30
0.0
 10
21.1360183324
 20
4.1156897378
 30
0.0
 10
20.462977086
 20
4.1357982793
 30
0.0
 10
19.7989751181
 20
4.1755704899
 30
0.0
 10
19.1443604602
 20
4.2348168585
 30
0.0
 10
18.2893297033
 20
4.3388312405
 30
0.0
 10
17.2443722318
 20
4.5165152169
 30
0.0
 10
16.0256705996
 20
4.8077338561
 30
0.0
 10
14.8512458029
 20
5.174995532
 30
0.0
 10
14.0940082592
 20
5.4720530985
 30
0.0
 10
13.7242547158
 20
5.6328416614
 30
0.0
  0
SPLINE
  5
3B1
100
AcDbEntity
  8
0
100
AcDbSpline
 62
7
  6
BYLAYER
 70
0
 71
3
 72
9
 73
5
 74
0
 42
0.0000001
 43
0.0000001
 44
0.0000000001
 40
0.0
 40
0.0
 40
0.0
 40
0.0
 40
0.2593823078
 40
1.0
 40
1.0
 40
1.0
 40
1.0
 10
10.2634648999
 20
6.3364276567
 30
0.0
 10
10.2642094319
 20
6.3103532458
 30
0.0
 10
10.2727111901
 20
6.2101689303
 30
0.0
 10
10.3032857581
 20
6.1110783431
 30
0.0
 10
10.3397887602
 20
6.0461557513
 30
0.0
  0
SPLINE
  5
3B2
100
AcDbEntity
  8
0
100
AcDbSpline
 62
7
  6
BYLAYER
 70
0
 71
3
 72
9
 73
5
 74
0
 42
0.0000001
 43
0.0000001
 44
0.0000000001
 40
0.0
 40
0.0
 40
0.0
 40
0.0
 40
0.2605763782
 40
1.0
 40
1.0
 40
1.0
 40
1.0
 10
10.3397887602
 20
6.0461557513
 30
0.0
 10
10.3454924695
 20
6.0360113915
 30
0.0
 10
10.3687077329
 20
5.9978605369
 30
0.0
 10
10.3973361803
 20
5.9628580553
 30
0.0
 10
10.4214252537
 20
5.9402679195
 30
0.0
  0
LINE
  5
3B3
100
AcDbEntity
  8
0
100
AcDbLine
 62
7
  6
BYLAYER
 10
27.4814511583
 20
32.3284710683
 11
27.4815367388
 21
32.3389933648
  0
LINE
  5
3B4
100
AcDbEntity
  8
0
100
AcDbLine
 62
7
  6
BYLAYER
 10
24.0487407987
 20
32.3389933648
 11
24.0488589119
 21
32.3284710683
  0
SPLINE
  5
3B5
100
AcDbEntity
  8
0
100
AcDbSpline
 62
7
  6
BYLAYER
 70
0
 71
3
 72
9
 73
5
 74
0
 42
0.0000001
 43
0.0000001
 44
0.0000000001
 40
0.0
 40
0.0
 40
0.0
 40
0.0
 40
0.4956275392
 40
1.0
 40
1.0
 40
1.0
 40
1.0
 10
24.104641932
 20
32.5276604597
 30
0.0
 10
24.0873512999
 20
32.4997549889
 30
0.0
 10
24.0589984671
 20
32.4389962926
 30
0.0
 10
24.0487407987
 20
32.3724006436
 30
0.0
 10
24.0487407987
 20
32.3389933648
 30
0.0
  0
SPLINE
  5
3B6
100
AcDbEntity
  8
0
100
AcDbSpline
 62
7
  6
BYLAYER
 70
0
 71
3
 72
15
 73
11
 74
0
 42
0.0000001
 43
0.0000001
 44
0.0000000001
 40
0.0
 40
0.0
 40
0.0
 40
0.0
 40
0.1125950955
 40
0.2308613482
 40
0.3536309483
 40
0.4795698235
 40
0.6077050018
 40
0.7373968771
 40
0.8682553522
 40
1.0
 40
1.0
 40
1.0
 40
1.0
 10
25.7673401462
 20
34.1528205919
 30
0.0
 10
25.6795820033
 20
34.1373026057
 30
0.0
 10
25.504760673
 20
34.0748586572
 30
0.0
 10
25.2682550322
 20
33.9228537373
 30
0.0
 10
25.0483012602
 20
33.732126569
 30
0.0
 10
24.8420994606
 20
33.5162343779
 30
0.0
 10
24.6466448053
 20
33.2835339825
 30
0.0
 10
24.4594770538
 20
33.0392814607
 30
0.0
 10
24.2788952998
 20
32.7866381596
 30
0.0
 10
24.1623095682
 20
32.6145399268
 30
0.0
 10
24.104641932
 20
32.5276604597
 30
0.0
  0
SPLINE
  5
3B7
100
AcDbEntity
  8
0
100
AcDbSpline
 62
7
  6
BYLAYER
 70
0
 71
3
 72
15
 73
11
 74
0
 42
0.0000001
 43
0.0000001
 44
0.0000000001
 40
0.0
 40
0.0
 40
0.0
 40
0.0
 40
0.130858896
 40
0.2609187996
 40
0.3898776901
 40
0.5173466662
 40
0.6427312118
 40
0.7652627029
 40
0.8842404482
 40
1.0
 40
1.0
 40
1.0
 40
1.0
 10
27.4408383823
 20
32.5276606758
 30
0.0
 10
27.3986366691
 20
32.6145727984
 30
0.0
 10
27.3120866777
 20
32.7867173886
 30
0.0
 10
27.1739368584
 20
33.0393351804
 30
0.0
 10
27.0261759369
 20
33.2835842994
 30
0.0
 10
26.8667435437
 20
33.5163142944
 30
0.0
 10
26.6925413436
 20
33.732362847
 30
0.0
 10
26.4994323154
 20
33.9235263573
 30
0.0
 10
26.2823682494
 20
34.0763094403
 30
0.0
 10
26.1167664881
 20
34.1375855491
 30
0.0
 10
26.0326672527
 20
34.1528205919
 30
0.0
  0
SPLINE
  5
3B8
100
AcDbEntity
  8
0
100
AcDbSpline
 62
7
  6
BYLAYER
 70
0
 71
3
 72
9
 73
5
 74
0
 42
0.0000001
 43
0.0000001
 44
0.0000000001
 40
0.0
 40
0.0
 40
0.0
 40
0.0
 40
0.2593868077
 40
1.0
 40
1.0
 40
1.0
 40
1.0
 10
8.5342706214
 20
6.3364195542
 30
0.0
 10
8.5350154425
 20
6.3103435886
 30
0.0
 10
8.5435238339
 20
6.2101554652
 30
0.0
 10
8.5741099738
 20
6.1110622955
 30
0.0
 10
8.6106250856
 20
6.0461433978
 30
0.0
  0
SPLINE
  5
3B9
100
AcDbEntity
  8
0
100
AcDbSpline
 62
7
  6
BYLAYER
 70
0
 71
3
 72
9
 73
5
 74
0
 42
0.0000001
 43
0.0000001
 44
0.0000000001
 40
0.0
 40
0.0
 40
0.0
 40
0.0
 40
0.2605759977
 40
1.0
 40
1.0
 40
1.0
 40
1.0
 10
8.6106250856
 20
6.0461433978
 30
0.0
 10
8.6163307654
 20
6.0359994758
 30
0.0
 10
8.6395542855
 20
5.9978508508
 30
0.0
 10
8.6681922723
 20
5.9628533238
 30
0.0
 10
8.6922864297
 20
5.940266091
 30
0.0
  0
LINE
  5
3BA
100
AcDbEntity
  8
0
100
AcDbLine
 62
7
  6
BYLAYER
 10
8.5342706214
 20
6.3364195542
 11
8.3266858176
 21
17.5028214744
  0
SPLINE
  5
3BB
100
AcDbEntity
  8
0
100
AcDbSpline
 62
7
  6
BYLAYER
 70
0
 71
3
 72
42
 73
38
 74
0
 42
0.0000001
 43
0.0000001
 44
0.0000000001
 40
0.0
 40
0.0
 40
0.0
 40
0.0
 40
0.0011437669
 40
0.0018018576
 40
0.0025073231
 40
0.0040184007
 40
0.0056463895
 40
0.0091082523
 40
0.0127195919
 40
0.020123013
 40
0.0276665113
 40
0.0352860339
 40
0.0429521126
 40
0.0506514898
 40
0.0583747206
 40
0.0738686013
 40
0.0894085397
 40
0.1049810272
 40
0.1205752426
 40
0.136186991
 40
0.151813154
 40
0.1830974106
 40
0.2144125273
 40
0.2457512081
 40
0.2771074774
 40
0.3084778195
 40
0.3398600144
 40
0.3712520887
 40
0.4340591237
 40
0.4968898002
 40
0.5597397244
 40
0.6226053411
 40
0.6854836121
 40
0.7483719289
 40
0.811268527
 40
0.8741725307
 40
1.0
 40
1.0
 40
1.0
 40
1.0
 10
7.3868444147
 20
19.237618295
 30
0.0
 10
7.382915097
 20
19.2374078999
 30
0.0
 10
7.3769306359
 20
19.2345104072
 30
0.0
 10
7.3705727579
 20
19.2287333335
 30
0.0
 10
7.3641416301
 20
19.221167721
 30
0.0
 10
7.3571922074
 20
19.2098463615
 30
0.0
 10
7.3477436968
 20
19.1891664401
 30
0.0
 10
7.3381863119
 20
19.1607332257
 30
0.0
 10
7.3256053295
 20
19.1125362105
 30
0.0
 10
7.3125829331
 20
19.0499931027
 30
0.0
 10
7.2999373677
 20
18.9733841331
 30
0.0
 10
7.2890548667
 20
18.8955961734
 30
0.0
 10
7.2794361163
 20
18.8171044498
 30
0.0
 10
7.2708410512
 20
18.7381359651
 30
0.0
 10
7.2604280927
 20
18.6322824274
 30
0.0
 10
7.2489176264
 20
18.4994382416
 30
0.0
 10
7.2369248047
 20
18.3395433172
 30
0.0
 10
7.2263458471
 20
18.1792036806
 30
0.0
 10
7.2167622937
 20
18.0185546769
 30
0.0
 10
7.208067793
 20
17.8576702699
 30
0.0
 10
7.1974795577
 20
17.6428329347
 30
0.0
 10
7.1858112734
 20
17.373961309
 30
0.0
 10
7.1736471359
 20
17.0510102181
 30
0.0
 10
7.163014647
 20
16.7277574838
 30
0.0
 10
7.1535885765
 20
16.4042776432
 30
0.0
 10
7.145191046
 20
16.0806198423
 30
0.0
 10
7.1376878743
 20
15.7568169745
 30
0.0
 10
7.1287177977
 20
15.3248674558
 30
0.0
 10
7.119173313
 20
14.7847146372
 30
0.0
 10
7.1098280516
 20
14.1363196362
 30
0.0
 10
7.1022665488
 20
13.4877000072
 30
0.0
 10
7.0962034133
 20
12.838901116
 30
0.0
 10
7.0914184338
 20
12.1899595726
 30
0.0
 10
7.08773472
 20
11.5409043475
 30
0.0
 10
7.0850233126
 20
10.891755843
 30
0.0
 10
7.0825783527
 20
10.0260731154
 30
0.0
 10
7.0819299022
 20
9.376772389
 30
0.0
 10
7.0819299022
 20
8.9438831765
 30
0.0
  0
SPLINE
  5
3BC
100
AcDbEntity
  8
0
100
AcDbSpline
 62
7
  6
BYLAYER
 70
0
 71
3
 72
44
 73
40
 74
0
 42
0.0000001
 43
0.0000001
 44
0.0000000001
 40
0.0
 40
0.0
 40
0.0
 40
0.0
 40
0.1251922945
 40
0.1877886289
 40
0.2503849797
 40
0.312981233
 40
0.3755772326
 40
0.438172752
 40
0.5007674583
 40
0.5633608422
 40
0.6259520948
 40
0.6572465639
 40
0.6885399316
 40
0.7198318537
 40
0.7511218442
 40
0.7824091886
 40
0.8136927943
 40
0.8449708768
 40
0.8606070084
 40
0.876240422
 40
0.8918702417
 40
0.9074951361
 40
0.9231129689
 40
0.9387199926
 40
0.9465175255
 40
0.9543091299
 40
0.962092314
 40
0.969862755
 40
0.9776119249
 40
0.981473534
 40
0.9853205653
 40
0.989143659
 40
0.9910409755
 40
0.9929228417
 40
0.9947808314
 40
0.9965990661
 40
0.9974857591
 40
0.9983517821
 40
1.0
 40
1.0
 40
1.0
 40
1.0
 10
12.402228876
 20
6.3364488977
 30
0.0
 10
12.3765665753
 20
6.8777245416
 30
0.0
 10
12.3368629824
 20
7.6895823255
 30
0.0
 10
12.2812148244
 20
8.7719221103
 30
0.0
 10
12.2379164413
 20
9.5835962497
 30
0.0
 10
12.1929058403
 20
10.3951758766
 30
0.0
 10
12.1459560805
 20
11.2066422421
 30
0.0
 10
12.0967983099
 20
12.0179713917
 30
0.0
 10
12.0450839654
 20
12.8291307231
 30
0.0
 10
11.990353
 20
13.6400740603
 30
0.0
 10
11.941711827
 20
14.3156342281
 30
0.0
 10
11.9005254945
 20
14.8558938102
 30
0.0
 10
11.8683421858
 20
15.2609682646
 30
0.0
 10
11.8346749279
 20
15.6659028829
 30
0.0
 10
11.7992778701
 20
16.0706641721
 30
0.0
 10
11.7618265263
 20
16.4752051382
 30
0.0
 10
11.7218760801
 20
16.8794559086
 30
0.0
 10
11.6859746762
 20
17.2160239167
 30
0.0
 10
11.6551942912
 20
17.4850015514
 30
0.0
 10
11.6308986381
 20
17.6865436083
 30
0.0
 10
11.6051600292
 20
17.8878580134
 30
0.0
 10
11.577658418
 20
18.088872454
 30
0.0
 10
11.5479335782
 20
18.2894717615
 30
0.0
 10
11.5207292156
 20
18.4561815014
 30
0.0
 10
11.4969060663
 20
18.5890960339
 30
0.0
 10
11.47777276
 20
18.6884386453
 30
0.0
 10
11.4570379616
 20
18.7873425862
 30
0.0
 10
11.4341882954
 20
18.8855934213
 30
0.0
 10
11.4126781713
 20
18.9667041404
 30
0.0
 10
11.39315311
 20
19.0307094805
 30
0.0
 10
11.3769948853
 20
19.0779463806
 30
0.0
 10
11.3617437795
 20
19.1164797279
 30
0.0
 10
11.3478998571
 20
19.146342072
 30
0.0
 10
11.3364997389
 20
19.1679339686
 30
0.0
 10
11.3237266138
 20
19.1883483617
 30
0.0
 10
11.3114234629
 20
19.2039013803
 30
0.0
 10
11.300120522
 20
19.214512542
 30
0.0
 10
11.2881792964
 20
19.2231148535
 30
0.0
 10
11.2773876649
 20
19.2269117115
 30
0.0
 10
11.2702593128
 20
19.2271996137
 30
0.0
  0
SPLINE
  5
3BD
100
AcDbEntity
  8
0
100
AcDbSpline
 62
7
  6
BYLAYER
 70
0
 71
3
 72
12
 73
8
 74
0
 42
0.0000001
 43
0.0000001
 44
0.0000000001
 40
0.0
 40
0.0
 40
0.0
 40
0.0
 40
0.2475212825
 40
0.4964572355
 40
0.7471622244
 40
0.8732958568
 40
1.0
 40
1.0
 40
1.0
 40
1.0
 10
14.5142433007
 20
4.3166910905
 30
0.0
 10
14.0439910961
 20
4.3887912231
 30
0.0
 10
13.1046402854
 20
4.5598536908
 30
0.0
 10
11.707527261
 20
4.8950084559
 30
0.0
 10
10.5543856509
 20
5.2392133714
 30
0.0
 10
9.6387607722
 20
5.5530657367
 30
0.0
 10
9.1834249829
 20
5.7230699686
 30
0.0
 10
8.956384955
 20
5.8111624655
 30
0.0
  0
LINE
  5
3BE
100
AcDbEntity
  8
0
100
AcDbLine
 62
7
  6
BYLAYER
 10
14.3621172289
 20
32.3284710683
 11
14.3622353422
 21
32.3389933648
  0
LINE
  5
3BF
100
AcDbEntity
  8
0
100
AcDbLine
 62
7
  6
BYLAYER
 10
10.929439402
 20
32.3389933648
 11
10.9295249825
 21
32.3284710683
  0
SPLINE
  5
3C0
100
AcDbEntity
  8
0
100
AcDbSpline
 62
7
  6
BYLAYER
 70
0
 71
3
 72
9
 73
5
 74
0
 42
0.0000001
 43
0.0000001
 44
0.0000000001
 40
0.0
 40
0.0
 40
0.0
 40
0.0
 40
0.5043750707
 40
1.0
 40
1.0
 40
1.0
 40
1.0
 10
14.3622353422
 20
32.3389933648
 30
0.0
 10
14.3622353422
 20
32.3724008592
 30
0.0
 10
14.3519776077
 20
32.4389966072
 30
0.0
 10
14.3236246333
 20
32.499755316
 30
0.0
 10
14.3063340705
 20
32.5276606758
 30
0.0
  0
SPLINE
  5
3C1
100
AcDbEntity
  8
0
100
AcDbSpline
 62
7
  6
BYLAYER
 70
0
 71
3
 72
15
 73
11
 74
0
 42
0.0000001
 43
0.0000001
 44
0.0000000001
 40
0.0
 40
0.0
 40
0.0
 40
0.0
 40
0.1157580602
 40
0.2347351969
 40
0.3572665958
 40
0.4826512903
 40
0.6101207857
 40
0.7390803013
 40
0.8691406588
 40
1.0
 40
1.0
 40
1.0
 40
1.0
 10
12.3783077124
 20
34.1528205919
 30
0.0
 10
12.2942096039
 20
34.1375856282
 30
0.0
 10
12.1286078894
 20
34.0763133829
 30
0.0
 10
11.9115487981
 20
33.9235257727
 30
0.0
 10
11.7184367811
 20
33.7323666031
 30
0.0
 10
11.5442339355
 20
33.5163177748
 30
0.0
 10
11.3848009212
 20
33.2835871939
 30
0.0
 10
11.237040342
 20
33.039336556
 30
0.0
 10
11.098889503
 20
32.7867181395
 30
0.0
 10
11.0123395035
 20
32.6145728559
 30
0.0
 10
10.9701376573
 20
32.5276604597
 30
0.0
  0
SPLINE
  5
3C2
100
AcDbEntity
  8
0
100
AcDbSpline
 62
7
  6
BYLAYER
 70
0
 71
3
 72
15
 73
11
 74
0
 42
0.0000001
 43
0.0000001
 44
0.0000000001
 40
0.0
 40
0.0
 40
0.0
 40
0.0
 40
0.1317442043
 40
0.2626022302
 40
0.3922935215
 40
0.5204282006
 40
0.6463668847
 40
0.769136525
 40
0.8874034016
 40
1.0
 40
1.0
 40
1.0
 40
1.0
 10
14.3063340705
 20
32.5276606758
 30
0.0
 10
14.2486666146
 20
32.6145398733
 30
0.0
 10
14.1320810223
 20
32.7866374042
 30
0.0
 10
13.9515003169
 20
33.0392801311
 30
0.0
 10
13.7643323794
 20
33.2835310651
 30
0.0
 10
13.568878363
 20
33.5162308373
 30
0.0
 10
13.3626772803
 20
33.7321227918
 30
0.0
 10
13.1427262318
 20
33.9228543913
 30
0.0
 10
12.9062157757
 20
34.0748547264
 30
0.0
 10
12.7313941481
 20
34.1373025149
 30
0.0
 10
12.6436347901
 20
34.1528205919
 30
0.0
  0
SPLINE
  5
3C3
100
AcDbEntity
  8
0
100
AcDbSpline
 62
7
  6
BYLAYER
 70
0
 71
3
 72
16
 73
12
 74
0
 42
0.0000001
 43
0.0000001
 44
0.0000000001
 40
0.0
 40
0.0
 40
0.0
 40
0.0
 40
0.2105169411
 40
0.3952400534
 40
0.5539094691
 40
0.6865395592
 40
0.7937251282
 40
0.8773517722
 40
0.9424899504
 40
0.9713790567
 40
1.0
 40
1.0
 40
1.0
 40
1.0
 10
7.3872757708
 20
20.4024320304
 30
0.0
 10
7.3638459536
 20
20.4024578646
 30
0.0
 10
7.3198491633
 20
20.4017643314
 30
0.0
 10
7.2582874775
 20
20.3980686671
 30
0.0
 10
7.2056311677
 20
20.3918915463
 30
0.0
 10
7.1620534606
 20
20.3833400369
 30
0.0
 10
7.1276334901
 20
20.372389832
 30
0.0
 10
7.1022474661
 20
20.3590253567
 30
0.0
 10
7.0880024238
 20
20.3444376399
 30
0.0
 10
7.0827336278
 20
20.331679168
 30
0.0
 10
7.0819264509
 20
20.3252446513
 30
0.0
 10
7.0819211859
 20
20.3220592403
 30
0.0
  0
SPLINE
  5
3C4
100
AcDbEntity
  8
0
100
AcDbSpline
 62
7
  6
BYLAYER
 70
0
 71
3
 72
19
 73
15
 74
0
 42
0.0000001
 43
0.0000001
 44
0.0000000001
 40
0.0
 40
0.0
 40
0.0
 40
0.0
 40
0.1192076989
 40
0.1827662075
 40
0.2482028473
 40
0.3150089218
 40
0.3826862003
 40
0.5185904686
 40
0.6518280382
 40
0.7162587377
 40
0.7786476927
 40
0.8386009194
 40
0.8957220077
 40
1.0
 40
1.0
 40
1.0
 40
1.0
 10
11.2702592966
 20
20.4002009661
 30
0.0
 10
11.3637853134
 20
20.4001699234
 30
0.0
 10
11.5071682403
 20
20.394243653
 30
0.0
 10
11.7014055784
 20
20.3805080166
 30
0.0
 10
11.8544489135
 20
20.3670925306
 30
0.0
 10
12.0104183836
 20
20.3503972217
 30
0.0
 10
12.2208303074
 20
20.3232857302
 30
0.0
 10
12.4818253733
 20
20.2814676312
 30
0.0
 10
12.7386085389
 20
20.2305570165
 30
0.0
 10
12.9373724781
 20
20.1844254825
 30
0.0
 10
13.0793645703
 20
20.1481792544
 30
0.0
 10
13.2150576939
 20
20.110550023
 30
0.0
 10
13.3814649552
 20
20.0609018634
 30
0.0
 10
13.5016176106
 20
20.0205134636
 30
0.0
 10
13.5778658129
 20
19.9908565524
 30
0.0
  0
SPLINE
  5
3C5
100
AcDbEntity
  8
0
100
AcDbSpline
 62
7
  6
BYLAYER
 70
0
 71
3
 72
19
 73
15
 74
0
 42
0.0000001
 43
0.0000001
 44
0.0000000001
 40
0.0
 40
0.0
 40
0.0
 40
0.0
 40
0.1046086771
 40
0.1617824155
 40
0.221705542
 40
0.2840347679
 40
0.3484100873
 40
0.4815660149
 40
0.6174273984
 40
0.6851068732
 40
0.7519162481
 40
0.8173315498
 40
0.8808414693
 40
1.0
 40
1.0
 40
1.0
 40
1.0
 10
13.5778658129
 20
19.9908565524
 30
0.0
 10
13.5019006399
 20
20.02214125
 30
0.0
 10
13.382761151
 20
20.0666175545
 30
0.0
 10
13.2168933595
 20
20.119650587
 30
0.0
 10
13.0812925436
 20
20.158068795
 30
0.0
 10
12.9392212262
 20
20.1941585559
 30
0.0
 10
12.7403021056
 20
20.2398359192
 30
0.0
 10
12.4833126672
 20
20.2903926188
 30
0.0
 10
12.2218795554
 20
20.330557397
 30
0.0
 10
12.0111957541
 20
20.3569443177
 30
0.0
 10
11.8550710847
 20
20.3735581372
 30
0.0
 10
11.7018768337
 20
20.3864720877
 30
0.0
 10
11.5073381189
 20
20.3975838549
 30
0.0
 10
11.363841074
 20
20.400187221
 30
0.0
 10
11.2702592966
 20
20.4002009661
 30
0.0
  0
SPLINE
  5
3C6
100
AcDbEntity
  8
0
100
AcDbSpline
 62
7
  6
BYLAYER
 70
0
 71
3
 72
11
 73
7
 74
0
 42
0.0000001
 43
0.0000001
 44
0.0000000001
 40
0.0
 40
0.0
 40
0.0
 40
0.0
 40
0.252315236
 40
0.5015350767
 40
0.7500100119
 40
1.0
 40
1.0
 40
1.0
 40
1.0
 10
13.8227186813
 20
19.7628203006
 30
0.0
 10
13.9870473006
 20
19.6797160657
 30
0.0
 10
14.3236111641
 20
19.5332898846
 30
0.0
 10
14.8491783451
 20
19.3758444939
 30
0.0
 10
15.3880788341
 20
19.2824935564
 30
0.0
 10
15.7522421314
 20
19.2625114188
 30
0.0
 10
15.9346923436
 20
19.2625059612
 30
0.0
  0
SPLINE
  5
3C7
100
AcDbEntity
  8
0
100
AcDbSpline
 62
7
  6
BYLAYER
 70
0
 71
3
 72
10
 73
6
 74
0
 42
0.0000001
 43
0.0000001
 44
0.0000000001
 40
0.0
 40
0.0
 40
0.0
 40
0.0
 40
0.5418650028
 40
0.7825076687
 40
1.0
 40
1.0
 40
1.0
 40
1.0
 10
13.15494544
 20
5.8220042916
 30
0.0
 10
13.259800122
 20
5.7943471161
 30
0.0
 10
13.4103084782
 20
5.7505776147
 30
0.0
 10
13.5991510078
 20
5.684217916
 30
0.0
 10
13.6843133371
 20
5.6501383002
 30
0.0
 10
13.7242547158
 20
5.6328416614
 30
0.0
  0
SPLINE
  5
3C8
100
AcDbEntity
  8
0
100
AcDbSpline
 62
7
  6
BYLAYER
 70
0
 71
3
 72
9
 73
5
 74
0
 42
0.0000001
 43
0.0000001
 44
0.0000000001
 40
0.0
 40
0.0
 40
0.0
 40
0.0
 40
0.5119763152
 40
1.0
 40
1.0
 40
1.0
 40
1.0
 10
12.7542599318
 20
5.9401737366
 30
0.0
 10
12.8219994002
 20
5.9179098201
 30
0.0
 10
12.9547462397
 20
5.875732637
 30
0.0
 10
13.0889694579
 20
5.8383407518
 30
0.0
 10
13.15494544
 20
5.8220042916
 30
0.0
  0
SPLINE
  5
3C9
100
AcDbEntity
  8
0
100
AcDbSpline
 62
7
  6
BYLAYER
 70
0
 71
3
 72
13
 73
9
 74
0
 42
0.0000001
 43
0.0000001
 44
0.0000000001
 40
0.0
 40
0.0
 40
0.0
 40
0.0
 40
0.1259896839
 40
0.2519769828
 40
0.377873623
 40
0.5035367584
 40
0.7532446887
 40
1.0
 40
1.0
 40
1.0
 40
1.0
 10
12.402228876
 20
6.3364488977
 30
0.0
 10
12.4039149307
 20
6.3133013195
 30
0.0
 10
12.4131750472
 20
6.2672679073
 30
0.0
 10
12.4419269813
 20
6.2033999861
 30
0.0
 10
12.4812262391
 20
6.1456784548
 30
0.0
 10
12.5432994479
 20
6.0770290295
 30
0.0
 10
12.6333888655
 20
6.0050417635
 30
0.0
 10
12.713230376
 20
5.9597383748
 30
0.0
 10
12.7542599318
 20
5.9401737366
 30
0.0
  0
ELLIPSE
  5
3CA
100
AcDbEntity
  8
0
100
AcDbEllipse
 62
7
  6
BYLAYER
 10
19.2054880704
 20
17.0928205924
 30
0.0
 11
-0.0
 21
162.8571428998
 31
0.0
 40
0.0875
 41
-1.4970452765
 42
-1.4896546856
  0
ELLIPSE
  5
3CB
100
AcDbEntity
  8
0
100
AcDbEllipse
 62
7
  6
BYLAYER
 10
19.2054880704
 20
17.0928205924
 30
0.0
 11
-0.0
 21
162.8571428998
 31
0.0
 40
0.0875
 41
1.4896546856
 42
1.4970452765
  0
ELLIPSE
  5
3CC
100
AcDbEntity
  8
0
100
AcDbEllipse
 62
7
  6
BYLAYER
 10
19.9137094628
 20
23.375573955
 30
0.0
 11
10.8218513724
 21
38.1558851298
 31
0.0
 40
0.2460158779
 41
-4.5307828036
 42
-4.4885751645
  0
ELLIPSE
  5
3CD
100
AcDbEntity
  8
0
100
AcDbEllipse
 62
7
  6
BYLAYER
 10
18.4970982781
 20
23.5057713201
 30
0.0
 11
-10.8244235791
 21
38.1649578147
 31
0.0
 40
0.2460158605
 41
-4.6680250813
 42
-4.6244924347
  0
ELLIPSE
  5
3CE
100
AcDbEntity
  8
0
100
AcDbEllipse
 62
7
  6
BYLAYER
 10
18.497271578
 20
23.371784242
 30
0.0
 11
-10.8217764989
 21
38.1556211395
 31
0.0
 40
0.2460158779
 41
-4.6702069846
 42
-4.6279996211
  0
ELLIPSE
  5
3CF
100
AcDbEntity
  8
0
100
AcDbEllipse
 62
7
  6
BYLAYER
 10
19.9138827628
 20
23.5095610334
 30
0.0
 11
10.8244984526
 21
38.165221805
 31
0.0
 40
0.2460158605
 41
1.7545843694
 42
1.7981173043
  0
ENDSEC
  0
SECTION
  2
OBJECTS
  0
DICTIONARY
  5
C
100
AcDbDictionary
280
0
281
1
  3
ACAD_GROUP
350
D
  3
ACAD_MLINESTYLE
350
17
  3
ACAD_LAYOUT
350
1A
  3
ACAD_PLOTSETTINGS
350
19
  3
ACAD_PLOTSTYLENAME
350
E
  0
DICTIONARY
  5
D
102
{ACAD_REACTORS
330
C
102
}
100
AcDbDictionary
280
0
281
1
  0
ACDBDICTIONARYWDFLT
  5
E
102
{ACAD_REACTORS
330
C
102
}
100
AcDbDictionary
281
1
  3
Normal
350
F
100
AcDbDictionaryWithDefault
340
F
  0
DICTIONARY
  5
17
102
{ACAD_REACTORS
330
C
102
}
100
AcDbDictionary
280
0
281
1
  3
Standard
350
18
  0
DICTIONARY
  5
19
102
{ACAD_REACTORS
330
C
102
}
100
AcDbDictionary
281
1
  0
DICTIONARY
  5
1A
102
{ACAD_REACTORS
330
C
102
}
100
AcDbDictionary
281
1
  3
Model
350
3D0
  3
Layout1
350
3D1
  0
ACDBPLACEHOLDER
  5
F
102
{ACAD_REACTORS
330
E
102
}
  0
MLINESTYLE
  5
18
102
{ACAD_REACTORS
330
17
102
}
100
AcDbMlineStyle
  2
STANDARD
 70
0
  3

 62
256
 51
90.0
 52
90.0
 71
2
 49
0.5
 62
256
  6
BYLAYER
 49
-0.5
 62
256
  6
BYLAYER
  0
LAYOUT
  5
3D0
102
{ACAD_REACTORS
330
1A
102
}
100
AcDbPlotSettings
  1

  2
none_device
  4

  6

 40
0.0
 41
0.0
 42
0.0
 43
0.0
 44
210.0
 45
297.0
 46
0.0
 47
0.0
 48
0.0
 49
0.0
140
0.0
141
0.0
142
1.0
143
1.0
 70
1024
 72
1
 73
0
 74
0
  7

 75
0
147
1.0
148
0.0
149
0.0
100
AcDbLayout
  1
Model
 70
0
 71
0
 10
0.0
 20
0.0
 11
210.0
 21
297.0
 12
0.0
 22
0.0
 32
0.0
 14
0.0
 24
0.0
 34
0.0
 15
0.0
 25
0.0
 35
0.0
146
0.0
 13
0.0
 23
0.0
 33
0.0
 16
1.0
 26
0.0
 36
0.0
 17
0.0
 27
1.0
 37
0.0
 76
0
330
210
345
0
346
0
  0
LAYOUT
  5
3D1
102
{ACAD_REACTORS
330
1A
102
}
100
AcDbPlotSettings
  1

  2
none_device
  4

  6

 40
0.0
 41
0.0
 42
0.0
 43
0.0
 44
210.0
 45
297.0
 46
0.0
 47
0.0
 48
0.0
 49
0.0
140
0.0
141
0.0
142
1.0
143
1.0
 70
0
 72
1
 73
0
 74
0
  7

 75
0
147
1.0
148
0.0
149
0.0
100
AcDbLayout
  1
Layout1
 70
0
 71
1
 10
0.0
 20
0.0
 11
210.0
 21
297.0
 12
0.0
 22
0.0
 32
0.0
 14
0.0
 24
0.0
 34
0.0
 15
0.0
 25
0.0
 35
0.0
146
0.0
 13
0.0
 23
0.0
 33
0.0
 16
1.0
 26
0.0
 36
0.0
 17
0.0
 27
1.0
 37
0.0
 76
0
330
211
345
0
346
0
  0
ENDSEC
  0
EOF
