999
DXF file: C:\Users\sesa63760\Dev\_Creo\CAD\MCADID0004352_3D-CAD\drw0001_4.dxf
999
Pro/ENGINEER 2019471 by Parametric Technology Corporation
  0
SECTION
  2
HEADER
  9
$ACADVER
  1
AC1024
  9
$DWGCODEPAGE
  3
ANSI_1252
  9
$EXTMAX
 10
48.324419442
 20
68.3445360679
 30
0.0
  9
$EXTMIN
 10
0.0
 20
0.0
 30
0.0
  9
$LIMMIN
 10
0.0
 20
0.0
  9
$LIMMAX
 10
48.324419442
 20
68.3445360679
  9
$VIEWCTR
 10
24.162209721
 20
34.172268034
  9
$VIEWSIZE
 40
68.3445360679
  9
$CLAYER
  8
0
  9
$LTSCALE
 40
4.45505124
  9
$CELTYPE
  6
BYLAYER
  9
$DIMSCALE
 40
1.0
  9
$DIMASZ
 40
0.5752907076
  9
$DIMEXO
 40
1.0
  9
$DIMDLI
 40
3.0780354022
  9
$DIMEXE
 40
1.0
  9
$DIMCEN
 40
0.7290083847
  9
$DIMLFAC
 40
1.0
  9
$DIMBLK
  1
_FILLED
  9
$DIMALT
 70
0
  9
$DIMALTF
 40
0.0393700787
  9
$DIMTXT
 40
0.8054069907
  9
$DIMTOL
 70
1
  9
$DIMLIM
 70
0
  9
$DIMTFAC
 40
1.0
  9
$DIMTP
 40
0.01
  9
$DIMTM
 40
0.01
  9
$DIMGAP
 40
0.625
  9
$DIMDSEP
 70
46
  9
$AUNITS
 70
0
  9
$PDMODE
 70
3
  9
$PDSIZE
 40
0.3125
  9
$HANDSEED
  5
254
  9
$TILEMODE
 70
1
  9
$MEASUREMENT
 70
1
  9
$INSUNITS
 70
4
  0
ENDSEC
  0
SECTION
  2
CLASSES
  0
CLASS
  1
ACDBDICTIONARYWDFLT
  2
AcDbDictionaryWithDefault
  3
AutoCAD 2000
 90
0
 91
1
280
0
281
0
  0
CLASS
  1
ACDBPLACEHOLDER
  2
AcDbPlaceHolder
  3
AutoCAD 2000
 90
0
 91
1
280
0
281
0
  0
CLASS
  1
LAYOUT
  2
AcDbLayout
  3
AutoCAD 2000
 90
0
 91
0
280
0
281
0
  0
ENDSEC
  0
SECTION
  2
TABLES
  0
TABLE
  2
VPORT
  5
8
100
AcDbSymbolTable
 70
2
  0
VPORT
  5
1F4
100
AcDbSymbolTableRecord
100
AcDbViewportTableRecord
  2
*ACTIVE
 70
0
 10
0.0
 20
0.0
 11
1.0
 21
1.0
 12
24.162209721
 22
34.172268034
 13
0.0
 23
0.0
 14
1.0
 24
1.0
 15
0.0
 25
0.0
 16
0.0
 26
0.0
 36
1.0
 17
0.0
 27
0.0
 37
0.0
 40
68.3445360679
 41
0.7070707071
 42
50.0
 43
0.0
 44
0.0
 50
0.0
 51
0.0
 71
0
 72
100
 73
1
 74
1
 75
0
 76
0
 77
0
 78
0
  0
ENDTAB
  0
TABLE
  2
LTYPE
  5
5
100
AcDbSymbolTable
 70
6
  0
LTYPE
  5
14
100
AcDbSymbolTableRecord
100
AcDbLinetypeTableRecord
  2
BYBLOCK
 70
0
  3

 72
65
 73
0
 40
0.0
  0
LTYPE
  5
15
100
AcDbSymbolTableRecord
100
AcDbLinetypeTableRecord
  2
BYLAYER
 70
0
  3

 72
65
 73
0
 40
0.0
  0
LTYPE
  5
16
100
AcDbSymbolTableRecord
100
AcDbLinetypeTableRecord
  2
CONTINUOUS
 70
64
  3
Solid line
 72
65
 73
0
 40
0.0
  0
LTYPE
  5
1F5
100
AcDbSymbolTableRecord
100
AcDbLinetypeTableRecord
  2
CENTER
 70
64
  3
____ _ ____ _ ____ _ ____ _ ____ _ ____ _ ____
 72
65
 73
4
 40
0.6
 49
0.375
 74
0
 49
-0.075
 74
0
 49
0.075
 74
0
 49
-0.075
 74
0
  0
LTYPE
  5
1F6
100
AcDbSymbolTableRecord
100
AcDbLinetypeTableRecord
  2
HIDDEN
 70
64
  3
- - - - - - - - - - - - - - - - - - - -
 72
65
 73
2
 40
0.2
 49
0.1
 74
0
 49
-0.1
 74
0
  0
LTYPE
  5
1F7
100
AcDbSymbolTableRecord
100
AcDbLinetypeTableRecord
  2
PHANTOM
 70
64
  3
_____ _ _ _____ _ _ _____ _ _ _____
 72
65
 73
6
 40
0.8
 49
0.45
 74
0
 49
-0.05
 74
0
 49
0.1
 74
0
 49
-0.05
 74
0
 49
0.1
 74
0
 49
-0.05
 74
0
  0
LTYPE
  5
1F8
100
AcDbSymbolTableRecord
100
AcDbLinetypeTableRecord
  2
DOT
 70
64
  3
. . . . . . . . . . . . . . . . . . . .
 72
65
 73
2
 40
0.2
 49
0.1
 74
0
 49
-0.1
 74
0
  0
LTYPE
  5
1F9
100
AcDbSymbolTableRecord
100
AcDbLinetypeTableRecord
  2
DASHED
 70
64
  3
- - - - - - - - - - - - - - - - - - - -
 72
65
 73
2
 40
0.2
 49
0.1
 74
0
 49
-0.1
 74
0
  0
ENDTAB
  0
TABLE
  2
LAYER
  5
2
100
AcDbSymbolTable
 70
36
  0
LAYER
  5
10
100
AcDbSymbolTableRecord
100
AcDbLayerTableRecord
  2
0
 70
0
 62
7
  6
CONTINUOUS
370
-3
390
F
  0
LAYER
  5
1FA
100
AcDbSymbolTableRecord
100
AcDbLayerTableRecord
  2
DEFAULT_1
 70
0
 62
7
  6
CENTER
370
-3
390
F
  0
LAYER
  5
1FB
100
AcDbSymbolTableRecord
100
AcDbLayerTableRecord
  2
DEFAULT_2
 70
0
 62
7
  6
HIDDEN
370
-3
390
F
  0
LAYER
  5
1FC
100
AcDbSymbolTableRecord
100
AcDbLayerTableRecord
  2
DEFAULT_3
 70
0
 62
7
  6
PHANTOM
370
-3
390
F
  0
LAYER
  5
1FD
100
AcDbSymbolTableRecord
100
AcDbLayerTableRecord
  2
00_COMPONENTS
 70
0
 62
7
  6
CONTINUOUS
370
-3
390
F
  0
LAYER
  5
1FE
100
AcDbSymbolTableRecord
100
AcDbLayerTableRecord
  2
01_1_DEFAULT_DATUMS
 70
0
 62
7
  6
CONTINUOUS
370
-3
390
F
  0
LAYER
  5
1FF
100
AcDbSymbolTableRecord
100
AcDbLayerTableRecord
  2
01_PLANES
 70
0
 62
7
  6
CONTINUOUS
370
-3
390
F
  0
LAYER
  5
200
100
AcDbSymbolTableRecord
100
AcDbLayerTableRecord
  2
02_COORD_SYS
 70
0
 62
7
  6
CONTINUOUS
370
-3
390
F
  0
LAYER
  5
201
100
AcDbSymbolTableRecord
100
AcDbLayerTableRecord
  2
03_AXES
 70
0
 62
7
  6
CONTINUOUS
370
-3
390
F
  0
LAYER
  5
202
100
AcDbSymbolTableRecord
100
AcDbLayerTableRecord
  2
04_POINTS
 70
0
 62
7
  6
CONTINUOUS
370
-3
390
F
  0
LAYER
  5
203
100
AcDbSymbolTableRecord
100
AcDbLayerTableRecord
  2
05_CURVES
 70
0
 62
7
  6
CONTINUOUS
370
-3
390
F
  0
LAYER
  5
204
100
AcDbSymbolTableRecord
100
AcDbLayerTableRecord
  2
06_SURFS
 70
0
 62
7
  6
CONTINUOUS
370
-3
390
F
  0
LAYER
  5
205
100
AcDbSymbolTableRecord
100
AcDbLayerTableRecord
  2
07_COSMETICS
 70
0
 62
7
  6
CONTINUOUS
370
-3
390
F
  0
LAYER
  5
206
100
AcDbSymbolTableRecord
100
AcDbLayerTableRecord
  2
10_NOTES
 70
0
 62
7
  6
CONTINUOUS
370
-3
390
F
  0
LAYER
  5
207
100
AcDbSymbolTableRecord
100
AcDbLayerTableRecord
  2
11_NOTES_PUB
 70
0
 62
7
  6
CONTINUOUS
370
-3
390
F
  0
LAYER
  5
208
100
AcDbSymbolTableRecord
100
AcDbLayerTableRecord
  2
13_REF_GTOL
 70
0
 62
7
  6
CONTINUOUS
370
-3
390
F
  0
LAYER
  5
209
100
AcDbSymbolTableRecord
100
AcDbLayerTableRecord
  2
16_MISC
 70
0
 62
7
  6
CONTINUOUS
370
-3
390
F
  0
LAYER
  5
20A
100
AcDbSymbolTableRecord
100
AcDbLayerTableRecord
  2
17_NO_PRINT
 70
0
 62
7
  6
CONTINUOUS
370
-3
390
F
  0
LAYER
  5
20B
100
AcDbSymbolTableRecord
100
AcDbLayerTableRecord
  2
18_DATUM_CAMS_JOINTS
 70
0
 62
7
  6
CONTINUOUS
370
-3
390
F
  0
LAYER
  5
20C
100
AcDbSymbolTableRecord
100
AcDbLayerTableRecord
  2
19_DATUM_FUNCTIONAL
 70
0
 62
7
  6
CONTINUOUS
370
-3
390
F
  0
LAYER
  5
20D
100
AcDbSymbolTableRecord
100
AcDbLayerTableRecord
  2
20_DATUM_KINEMATIC_SCHEME
 70
0
 62
7
  6
CONTINUOUS
370
-3
390
F
  0
ENDTAB
  0
TABLE
  2
STYLE
  5
3
100
AcDbSymbolTable
 70
1
  0
STYLE
  5
11
100
AcDbSymbolTableRecord
100
AcDbTextStyleTableRecord
  2
STANDARD
 70
0
 40
0.0
 41
1.0
 50
0.0
 71
0
 42
0.2
  3
ARIAL.TTF
  4

  0
STYLE
  5
20E
100
AcDbSymbolTableRecord
100
AcDbTextStyleTableRecord
  2
TEXTSTYLE_1
 70
0
 40
0.0
 41
0.8
 50
0.0
 71
0
 42
0.2
  3
gdt
  4

  0
ENDTAB
  0
TABLE
  2
VIEW
  5
6
100
AcDbSymbolTable
 70
0
  0
ENDTAB
  0
TABLE
  2
UCS
  5
7
100
AcDbSymbolTable
 70
0
  0
ENDTAB
  0
TABLE
  2
APPID
  5
9
100
AcDbSymbolTable
 70
1
  0
APPID
  5
20F
100
AcDbSymbolTableRecord
100
AcDbRegAppTableRecord
  2
ACAD
 70
0
  0
ENDTAB
  0
TABLE
  2
BLOCK_RECORD
  5
1
100
AcDbSymbolTable
 70
0
  0
BLOCK_RECORD
  5
210
100
AcDbSymbolTableRecord
100
AcDbBlockTableRecord
  2
*Model_Space
  0
BLOCK_RECORD
  5
211
100
AcDbSymbolTableRecord
100
AcDbBlockTableRecord
  2
*Paper_Space
  0
BLOCK_RECORD
  5
212
100
AcDbSymbolTableRecord
100
AcDbBlockTableRecord
  2
_FILLED
  0
ENDTAB
  0
TABLE
  2
DIMSTYLE
  5
A
100
AcDbSymbolTable
 70
1
100
AcDbDimStyleTable
 71
0
  0
DIMSTYLE
105
213
100
AcDbSymbolTableRecord
100
AcDbDimStyleTableRecord
  2
STANDARD
 70
0
  3

  4

 40
1.0
 41
0.5752907076
 42
1.0
 43
0.38
 44
1.0
 45
0.0
 46
0.0
 47
0.01
 48
0.01
140
0.8054069907
141
0.09
142
0.0
143
25.4
144
1.0
145
0.0
146
1.0
147
0.625
 71
1
 72
0
 73
0
 74
0
 75
0
 76
0
 77
1
 78
8
 79
2
170
0
171
1
172
0
173
0
174
0
175
0
176
0
177
0
178
0
270
2
179
2
271
2
272
2
273
2
274
2
275
0
280
0
281
0
282
0
283
1
284
8
285
0
286
0
287
3
288
0
340
11
278
46
341
212
342
212
343
212
344
212
  0
ENDTAB
  0
ENDSEC
  0
SECTION
  2
BLOCKS
  0
BLOCK
  5
20
100
AcDbEntity
  8
0
100
AcDbBlockBegin
  2
*Model_Space
 70
0
 10
0.0
 20
0.0
 30
0.0
  3
*Model_Space
  1

  0
ENDBLK
  5
21
100
AcDbEntity
  8
0
100
AcDbBlockEnd
  0
BLOCK
  5
1C
100
AcDbEntity
  8
0
100
AcDbBlockBegin
  2
*Paper_Space
 70
0
 10
0.0
 20
0.0
 30
0.0
  3
*Paper_Space
  1

  0
ENDBLK
  5
1D
100
AcDbEntity
  8
0
100
AcDbBlockEnd
  0
BLOCK
  5
214
100
AcDbEntity
  8
0
100
AcDbBlockBegin
  2
_FILLED
 70
64
 10
0.0
 20
0.0
  3
_FILLED
  1

  0
SOLID
  5
215
100
AcDbEntity
  8
0
  6
BYBLOCK
 62
0
100
AcDbTrace
 10
0.0
 20
0.0
 11
-1.0
 21
0.25
 12
-1.0
 22
-0.25
 13
-1.0
 23
-0.25
  0
ENDBLK
  5
216
100
AcDbEntity
  8
0
  6
BYBLOCK
 62
0
100
AcDbBlockEnd
  0
ENDSEC
  0
SECTION
  2
ENTITIES
  0
LINE
  5
217
100
AcDbEntity
  8
0
100
AcDbLine
 62
7
  6
BYLAYER
 10
5.3821015848
 20
32.8631401506
 11
5.3821015848
 21
33.1631354267
  0
LINE
  5
218
100
AcDbEntity
  8
0
100
AcDbLine
 62
7
  6
BYLAYER
 10
18.3821015848
 20
31.7131354267
 11
18.3821015848
 21
36.2131354267
  0
LINE
  5
219
100
AcDbEntity
  8
0
100
AcDbLine
 62
7
  6
BYLAYER
 10
19.1321015832
 20
30.9631354196
 11
19.1321015832
 21
36.9631354337
  0
LINE
  5
21A
100
AcDbEntity
  8
0
100
AcDbLine
 62
7
  6
BYLAYER
 10
19.1321015832
 20
36.9631354286
 11
18.3821015848
 21
36.2131354267
  0
LINE
  5
21B
100
AcDbEntity
  8
0
100
AcDbLine
 62
7
  6
BYLAYER
 10
18.3821015848
 20
31.7131354267
 11
19.1321015832
 21
30.9631354247
  0
LINE
  5
21C
100
AcDbEntity
  8
0
100
AcDbLine
 62
7
  6
BYLAYER
 10
40.0248359949
 20
29.3443332732
 11
38.7393671747
 21
29.3443332732
  0
LINE
  5
21D
100
AcDbEntity
  8
0
100
AcDbLine
 62
7
  6
BYLAYER
 10
19.1321015832
 20
30.9631354196
 11
23.1321016167
 21
30.9631354196
  0
LINE
  5
21E
100
AcDbEntity
  8
0
100
AcDbLine
 62
7
  6
BYLAYER
 10
25.6321015569
 20
30.963135409
 11
32.8408515848
 21
30.963135409
  0
LINE
  5
21F
100
AcDbEntity
  8
0
100
AcDbLine
 62
7
  6
BYLAYER
 10
33.3821015848
 20
30.963135409
 11
38.3821015848
 21
30.963135409
  0
LINE
  5
220
100
AcDbEntity
  8
0
100
AcDbLine
 62
7
  6
BYLAYER
 10
40.3821015848
 20
30.963135409
 11
42.8409015848
 21
30.963135409
  0
LINE
  5
221
100
AcDbEntity
  8
0
100
AcDbLine
 62
7
  6
BYLAYER
 10
42.8409015848
 20
30.9731354267
 11
42.8508516025
 21
30.9731354267
  0
LINE
  5
222
100
AcDbEntity
  8
0
100
AcDbLine
 62
7
  6
BYLAYER
 10
23.1321016167
 20
36.9631354337
 11
23.1321016167
 21
30.9631354196
  0
LINE
  5
223
100
AcDbEntity
  8
0
100
AcDbLine
 62
7
  6
BYLAYER
 10
40.0248359949
 20
31.6537343499
 11
38.7393671747
 21
31.6537343499
  0
LINE
  5
224
100
AcDbEntity
  8
0
100
AcDbLine
 62
7
  6
BYLAYER
 10
23.8821016189
 20
31.7131354105
 11
25.632101563
 21
31.7131354105
  0
LINE
  5
225
100
AcDbEntity
  8
0
100
AcDbLine
 62
7
  6
BYLAYER
 10
23.8821016189
 20
31.7131354105
 11
23.8821016189
 21
36.2131354428
  0
LINE
  5
226
100
AcDbEntity
  8
0
100
AcDbLine
 62
7
  6
BYLAYER
 10
18.3821015848
 20
32.8631354267
 11
5.3821015848
 21
32.8631354267
  0
LINE
  5
227
100
AcDbEntity
  8
0
100
AcDbLine
 62
7
  6
BYLAYER
 10
25.6321016059
 20
30.963135409
 11
25.6321015569
 21
36.9631354443
  0
LINE
  5
228
100
AcDbEntity
  8
0
100
AcDbLine
 62
7
  6
BYLAYER
 10
23.1321016167
 20
30.9631354146
 11
23.8821016189
 21
31.7131354127
  0
LINE
  5
229
100
AcDbEntity
  8
0
100
AcDbLine
 62
7
  6
BYLAYER
 10
18.3821015848
 20
35.0631354267
 11
6.1370850283
 21
35.0631354267
  0
LINE
  5
22A
100
AcDbEntity
  8
0
100
AcDbLine
 62
7
  6
BYLAYER
 10
23.8821016189
 20
36.2131354406
 11
23.1321016167
 21
36.9631354388
  0
LINE
  5
22B
100
AcDbEntity
  8
0
100
AcDbLine
 62
7
  6
BYLAYER
 10
25.632101563
 20
36.2131354428
 11
23.8821016189
 21
36.2131354428
  0
LINE
  5
22C
100
AcDbEntity
  8
0
100
AcDbLine
 62
7
  6
BYLAYER
 10
40.0248359949
 20
36.2725365034
 11
38.7393671747
 21
36.2725365034
  0
LINE
  5
22D
100
AcDbEntity
  8
0
100
AcDbLine
 62
7
  6
BYLAYER
 10
42.8409015848
 20
36.9531354267
 11
42.8508516025
 21
36.9531354267
  0
LINE
  5
22E
100
AcDbEntity
  8
0
100
AcDbLine
 62
7
  6
BYLAYER
 10
42.8409015848
 20
36.9631354443
 11
40.3821015848
 21
36.9631354443
  0
LINE
  5
22F
100
AcDbEntity
  8
0
100
AcDbLine
 62
7
  6
BYLAYER
 10
38.3821015848
 20
36.9631354443
 11
33.3821015848
 21
36.9631354443
  0
LINE
  5
230
100
AcDbEntity
  8
0
100
AcDbLine
 62
7
  6
BYLAYER
 10
32.8408515848
 20
36.9631354443
 11
25.6321015569
 21
36.9631354443
  0
LINE
  5
231
100
AcDbEntity
  8
0
100
AcDbLine
 62
7
  6
BYLAYER
 10
23.1321016167
 20
36.9631354337
 11
19.1321015832
 21
36.9631354337
  0
LINE
  5
232
100
AcDbEntity
  8
0
100
AcDbLine
 62
7
  6
BYLAYER
 10
40.0248359949
 20
38.5819375802
 11
38.7393671747
 21
38.5819375802
  0
LINE
  5
233
100
AcDbEntity
  8
0
100
AcDbLine
 62
7
  6
BYLAYER
 10
32.8408515848
 20
36.9631354443
 11
32.8408515848
 21
30.963135409
  0
LINE
  5
234
100
AcDbEntity
  8
0
100
AcDbLine
 62
7
  6
BYLAYER
 10
32.8408515848
 20
30.963135409
 11
33.3821015848
 21
31.504385409
  0
LINE
  5
235
100
AcDbEntity
  8
0
100
AcDbLine
 62
7
  6
BYLAYER
 10
33.3821015848
 20
36.4218854443
 11
32.8408515848
 21
36.9631354443
  0
LINE
  5
236
100
AcDbEntity
  8
0
100
AcDbLine
 62
7
  6
BYLAYER
 10
33.3821015848
 20
30.963135409
 11
33.3821015848
 21
36.9631354443
  0
LINE
  5
237
100
AcDbEntity
  8
0
100
AcDbLine
 62
7
  6
BYLAYER
 10
38.3821015848
 20
37.9631354267
 11
38.7393671747
 21
38.5819375802
  0
LINE
  5
238
100
AcDbEntity
  8
0
100
AcDbLine
 62
7
  6
BYLAYER
 10
38.7393671747
 20
29.3443332732
 11
38.3821015848
 21
29.9631354267
  0
LINE
  5
239
100
AcDbEntity
  8
0
100
AcDbLine
 62
7
  6
BYLAYER
 10
38.3821015848
 20
29.9631354267
 11
38.3821015848
 21
37.9631354267
  0
LINE
  5
23A
100
AcDbEntity
  8
0
100
AcDbLine
 62
7
  6
BYLAYER
 10
40.3821015848
 20
37.9631354267
 11
40.3821015848
 21
29.9631354267
  0
LINE
  5
23B
100
AcDbEntity
  8
0
100
AcDbLine
 62
7
  6
BYLAYER
 10
40.3821015848
 20
29.9631354267
 11
40.0248359949
 21
29.3443332732
  0
LINE
  5
23C
100
AcDbEntity
  8
0
100
AcDbLine
 62
7
  6
BYLAYER
 10
42.8508516025
 20
30.9731354267
 11
43.3821015848
 21
31.504385409
  0
LINE
  5
23D
100
AcDbEntity
  8
0
100
AcDbLine
 62
7
  6
BYLAYER
 10
43.3821015848
 20
36.4218854443
 11
42.8508516025
 21
36.9531354267
  0
LINE
  5
23E
100
AcDbEntity
  8
0
100
AcDbLine
 62
7
  6
BYLAYER
 10
40.0248359949
 20
38.5819375802
 11
40.3821015848
 21
37.9631354267
  0
LINE
  5
23F
100
AcDbEntity
  8
0
100
AcDbLine
 62
7
  6
BYLAYER
 10
42.8409015848
 20
36.9631103798
 11
42.8409015848
 21
30.9631603445
  0
LINE
  5
240
100
AcDbEntity
  8
0
100
AcDbLine
 62
7
  6
BYLAYER
 10
42.8508516025
 20
36.9531354267
 11
42.8508516025
 21
30.9731354267
  0
LINE
  5
241
100
AcDbEntity
  8
0
100
AcDbLine
 62
7
  6
BYLAYER
 10
43.3821015848
 20
36.4218854443
 11
43.3821015848
 21
31.504385409
  0
LINE
  5
242
100
AcDbEntity
  8
0
100
AcDbLine
 62
7
  6
BYLAYER
 10
44.197113501
 20
34.1611374418
 11
44.197113501
 21
33.7620789113
  0
ARC
  5
243
100
AcDbEntity
  8
0
100
AcDbCircle
 62
7
  6
BYLAYER
 10
40.6625489999
 20
34.164191942
 40
3.5345645011
100
AcDbArc
 50
0.0
 51
39.6984714946
  0
ARC
  5
244
100
AcDbEntity
  8
0
100
AcDbCircle
 62
7
  6
BYLAYER
 10
40.6625489999
 20
33.7620789113
 40
3.5345645011
100
AcDbArc
 50
320.3015285054
 51
360.0
  0
ARC
  5
245
100
AcDbEntity
  8
0
100
AcDbCircle
 62
7
  6
BYLAYER
 10
5.3821015848
 20
34.2631354267
 40
1.1
100
AcDbArc
 50
270.0
 51
46.6604211081
  0
SPLINE
  5
246
100
AcDbEntity
  8
0
100
AcDbSpline
 62
7
  6
BYLAYER
 70
0
 71
3
 72
14
 73
10
 74
0
 42
0.0000001
 43
0.0000001
 44
0.0000000001
 40
0.0
 40
0.0
 40
0.0
 40
0.0
 40
0.1199286093
 40
0.2404930608
 40
0.3622461737
 40
0.485641672
 40
0.610991295
 40
0.7384771918
 40
1.0
 40
1.0
 40
1.0
 40
1.0
 10
38.3821015848
 20
30.4990338115
 30
0.0
 10
38.3821015848
 20
30.5479128374
 30
0.0
 10
38.3862557485
 20
30.6459796556
 30
0.0
 10
38.4048197017
 20
30.7926066226
 30
0.0
 10
38.4353173826
 20
30.9386597268
 30
0.0
 10
38.477049282
 20
31.0839097458
 30
0.0
 10
38.5291571741
 20
31.2282354721
 30
0.0
 10
38.6119740591
 20
31.4209201064
 30
0.0
 10
38.6860730518
 20
31.5614262213
 30
0.0
 10
38.7393671747
 20
31.6537343499
 30
0.0
  0
SPLINE
  5
247
100
AcDbEntity
  8
0
100
AcDbSpline
 62
7
  6
BYLAYER
 70
0
 71
3
 72
13
 73
9
 74
0
 42
0.0000001
 43
0.0000001
 44
0.0000000001
 40
0.0
 40
0.0
 40
0.0
 40
0.0
 40
0.2499870333
 40
0.499964558
 40
0.6249712931
 40
0.7499798971
 40
0.8749942858
 40
1.0
 40
1.0
 40
1.0
 40
1.0
 10
40.0248359949
 20
36.2725365034
 30
0.0
 10
40.0790210295
 20
36.0848340377
 30
0.0
 10
40.1783466055
 20
35.7067268649
 30
0.0
 10
40.2736597379
 20
35.2272964369
 30
0.0
 10
40.329126377
 20
34.8404225227
 30
0.0
 10
40.3594998776
 20
34.5488310663
 30
0.0
 10
40.3779731452
 20
34.2562462576
 30
0.0
 10
40.3821015848
 20
34.0608284194
 30
0.0
 10
40.3821015848
 20
33.9631354267
 30
0.0
  0
SPLINE
  5
248
100
AcDbEntity
  8
0
100
AcDbSpline
 62
7
  6
BYLAYER
 70
0
 71
3
 72
13
 73
9
 74
0
 42
0.0000001
 43
0.0000001
 44
0.0000000001
 40
0.0
 40
0.0
 40
0.0
 40
0.0
 40
0.2499870333
 40
0.499964558
 40
0.6249712931
 40
0.7499798971
 40
0.8749942858
 40
1.0
 40
1.0
 40
1.0
 40
1.0
 10
38.7393671747
 20
31.6537343499
 30
0.0
 10
38.6851821402
 20
31.8414368157
 30
0.0
 10
38.5858565642
 20
32.2195439884
 30
0.0
 10
38.4905434317
 20
32.6989744164
 30
0.0
 10
38.4350767926
 20
33.0858483306
 30
0.0
 10
38.404703292
 20
33.377439787
 30
0.0
 10
38.3862300244
 20
33.6700245957
 30
0.0
 10
38.3821015848
 20
33.8654424339
 30
0.0
 10
38.3821015848
 20
33.9631354267
 30
0.0
  0
SPLINE
  5
249
100
AcDbEntity
  8
0
100
AcDbSpline
 62
7
  6
BYLAYER
 70
0
 71
3
 72
13
 73
9
 74
0
 42
0.0000001
 43
0.0000001
 44
0.0000000001
 40
0.0
 40
0.0
 40
0.0
 40
0.0
 40
0.1250057515
 40
0.2500202242
 40
0.3750288535
 40
0.5000355765
 40
0.7500130495
 40
1.0
 40
1.0
 40
1.0
 40
1.0
 10
38.3821015848
 20
33.9631354267
 30
0.0
 10
38.3821015848
 20
34.0608284487
 30
0.0
 10
38.3862301124
 20
34.2562463784
 30
0.0
 10
38.4047032495
 20
34.5488313128
 30
0.0
 10
38.4350770311
 20
34.840422816
 30
0.0
 10
38.4905433155
 20
35.2272967464
 30
0.0
 10
38.5858564665
 20
35.7067270699
 30
0.0
 10
38.685182158
 20
36.0848340996
 30
0.0
 10
38.7393671747
 20
36.2725365034
 30
0.0
  0
SPLINE
  5
24A
100
AcDbEntity
  8
0
100
AcDbSpline
 62
7
  6
BYLAYER
 70
0
 71
3
 72
14
 73
10
 74
0
 42
0.0000001
 43
0.0000001
 44
0.0000000001
 40
0.0
 40
0.0
 40
0.0
 40
0.0
 40
0.1199286093
 40
0.2404930608
 40
0.3622461737
 40
0.485641672
 40
0.610991295
 40
0.7384771918
 40
1.0
 40
1.0
 40
1.0
 40
1.0
 10
40.3821015848
 20
30.4990338115
 30
0.0
 10
40.3821015848
 20
30.4501547857
 30
0.0
 10
40.3779474211
 20
30.3520879674
 30
0.0
 10
40.359383468
 20
30.2054610005
 30
0.0
 10
40.328885787
 20
30.0594078962
 30
0.0
 10
40.2871538876
 20
29.9141578773
 30
0.0
 10
40.2350459955
 20
29.769832151
 30
0.0
 10
40.1522291106
 20
29.5771475166
 30
0.0
 10
40.0781301178
 20
29.4366414018
 30
0.0
 10
40.0248359949
 20
29.3443332732
 30
0.0
  0
SPLINE
  5
24B
100
AcDbEntity
  8
0
100
AcDbSpline
 62
7
  6
BYLAYER
 70
0
 71
3
 72
14
 73
10
 74
0
 42
0.0000001
 43
0.0000001
 44
0.0000000001
 40
0.0
 40
0.0
 40
0.0
 40
0.0
 40
0.2615228632
 40
0.3890087986
 40
0.5143584456
 40
0.6377539801
 40
0.7595070544
 40
0.8800714271
 40
1.0
 40
1.0
 40
1.0
 40
1.0
 10
38.7393671747
 20
36.2725365034
 30
0.0
 10
38.6860730409
 20
36.364844651
 30
0.0
 10
38.6119741369
 20
36.5053508547
 30
0.0
 10
38.5291572391
 20
36.6980355343
 30
0.0
 10
38.4770493143
 20
36.8423612842
 30
0.0
 10
38.4353171489
 20
36.9876112424
 30
0.0
 10
38.404819741
 20
37.1336643705
 30
0.0
 10
38.3862556615
 20
37.2802912531
 30
0.0
 10
38.3821015848
 20
37.378358031
 30
0.0
 10
38.3821015848
 20
37.4272370418
 30
0.0
  0
SPLINE
  5
24C
100
AcDbEntity
  8
0
100
AcDbSpline
 62
7
  6
BYLAYER
 70
0
 71
3
 72
14
 73
10
 74
0
 42
0.0000001
 43
0.0000001
 44
0.0000000001
 40
0.0
 40
0.0
 40
0.0
 40
0.0
 40
0.2615228632
 40
0.3890087986
 40
0.5143584456
 40
0.6377539801
 40
0.7595070544
 40
0.8800714271
 40
1.0
 40
1.0
 40
1.0
 40
1.0
 10
40.0248359949
 20
31.6537343499
 30
0.0
 10
40.0781301288
 20
31.5614262023
 30
0.0
 10
40.1522290327
 20
31.4209199986
 30
0.0
 10
40.2350459306
 20
31.228235319
 30
0.0
 10
40.2871538554
 20
31.0839095691
 30
0.0
 10
40.3288860207
 20
30.9386596109
 30
0.0
 10
40.3593834287
 20
30.7926064828
 30
0.0
 10
40.3779475081
 20
30.6459796002
 30
0.0
 10
40.3821015848
 20
30.5479128223
 30
0.0
 10
40.3821015848
 20
30.4990338115
 30
0.0
  0
SPLINE
  5
24D
100
AcDbEntity
  8
0
100
AcDbSpline
 62
7
  6
BYLAYER
 70
0
 71
3
 72
13
 73
9
 74
0
 42
0.0000001
 43
0.0000001
 44
0.0000000001
 40
0.0
 40
0.0
 40
0.0
 40
0.0
 40
0.1250057515
 40
0.2500202242
 40
0.3750288535
 40
0.5000355765
 40
0.7500130495
 40
1.0
 40
1.0
 40
1.0
 40
1.0
 10
40.3821015848
 20
33.9631354267
 30
0.0
 10
40.3821015848
 20
33.8654424047
 30
0.0
 10
40.3779730572
 20
33.670024475
 30
0.0
 10
40.3594999201
 20
33.3774395406
 30
0.0
 10
40.3291261386
 20
33.0858480374
 30
0.0
 10
40.2736598541
 20
32.698974107
 30
0.0
 10
40.1783467031
 20
32.2195437834
 30
0.0
 10
40.0790210116
 20
31.8414367537
 30
0.0
 10
40.0248359949
 20
31.6537343499
 30
0.0
  0
SPLINE
  5
24E
100
AcDbEntity
  8
0
100
AcDbSpline
 62
7
  6
BYLAYER
 70
0
 71
3
 72
14
 73
10
 74
0
 42
0.0000001
 43
0.0000001
 44
0.0000000001
 40
0.0
 40
0.0
 40
0.0
 40
0.0
 40
0.1199286093
 40
0.2404930608
 40
0.3622461737
 40
0.485641672
 40
0.610991295
 40
0.7384771918
 40
1.0
 40
1.0
 40
1.0
 40
1.0
 10
38.3821015848
 20
37.4272370418
 30
0.0
 10
38.3821015848
 20
37.4761160676
 30
0.0
 10
38.3862557485
 20
37.5741828859
 30
0.0
 10
38.4048197017
 20
37.7208098528
 30
0.0
 10
38.4353173826
 20
37.8668629571
 30
0.0
 10
38.477049282
 20
38.0121129761
 30
0.0
 10
38.5291571741
 20
38.1564387024
 30
0.0
 10
38.6119740591
 20
38.3491233367
 30
0.0
 10
38.6860730518
 20
38.4896294515
 30
0.0
 10
38.7393671747
 20
38.5819375802
 30
0.0
  0
SPLINE
  5
24F
100
AcDbEntity
  8
0
100
AcDbSpline
 62
7
  6
BYLAYER
 70
0
 71
3
 72
14
 73
10
 74
0
 42
0.0000001
 43
0.0000001
 44
0.0000000001
 40
0.0
 40
0.0
 40
0.0
 40
0.0
 40
0.2615228632
 40
0.3890087986
 40
0.5143584456
 40
0.6377539801
 40
0.7595070544
 40
0.8800714271
 40
1.0
 40
1.0
 40
1.0
 40
1.0
 10
40.0248359949
 20
38.5819375802
 30
0.0
 10
40.0781301288
 20
38.4896294326
 30
0.0
 10
40.1522290327
 20
38.3491232289
 30
0.0
 10
40.2350459306
 20
38.1564385493
 30
0.0
 10
40.2871538554
 20
38.0121127994
 30
0.0
 10
40.3288860207
 20
37.8668628412
 30
0.0
 10
40.3593834287
 20
37.7208097131
 30
0.0
 10
40.3779475081
 20
37.5741828305
 30
0.0
 10
40.3821015848
 20
37.4761160526
 30
0.0
 10
40.3821015848
 20
37.4272370418
 30
0.0
  0
SPLINE
  5
250
100
AcDbEntity
  8
0
100
AcDbSpline
 62
7
  6
BYLAYER
 70
0
 71
3
 72
14
 73
10
 74
0
 42
0.0000001
 43
0.0000001
 44
0.0000000001
 40
0.0
 40
0.0
 40
0.0
 40
0.0
 40
0.2615228632
 40
0.3890087986
 40
0.5143584456
 40
0.6377539801
 40
0.7595070544
 40
0.8800714271
 40
1.0
 40
1.0
 40
1.0
 40
1.0
 10
38.7393671747
 20
29.3443332732
 30
0.0
 10
38.6860730409
 20
29.4366414208
 30
0.0
 10
38.6119741369
 20
29.5771476245
 30
0.0
 10
38.5291572391
 20
29.7698323041
 30
0.0
 10
38.4770493143
 20
29.9141580539
 30
0.0
 10
38.4353171489
 20
30.0594080121
 30
0.0
 10
38.404819741
 20
30.2054611402
 30
0.0
 10
38.3862556615
 20
30.3520880229
 30
0.0
 10
38.3821015848
 20
30.4501548008
 30
0.0
 10
38.3821015848
 20
30.4990338115
 30
0.0
  0
SPLINE
  5
251
100
AcDbEntity
  8
0
100
AcDbSpline
 62
7
  6
BYLAYER
 70
0
 71
3
 72
14
 73
10
 74
0
 42
0.0000001
 43
0.0000001
 44
0.0000000001
 40
0.0
 40
0.0
 40
0.0
 40
0.0
 40
0.1199286093
 40
0.2404930608
 40
0.3622461737
 40
0.485641672
 40
0.610991295
 40
0.7384771918
 40
1.0
 40
1.0
 40
1.0
 40
1.0
 10
40.3821015848
 20
37.4272370418
 30
0.0
 10
40.3821015848
 20
37.378358016
 30
0.0
 10
40.3779474211
 20
37.2802911977
 30
0.0
 10
40.359383468
 20
37.1336642308
 30
0.0
 10
40.328885787
 20
36.9876111265
 30
0.0
 10
40.2871538876
 20
36.8423611075
 30
0.0
 10
40.2350459955
 20
36.6980353812
 30
0.0
 10
40.1522291106
 20
36.5053507469
 30
0.0
 10
40.0781301178
 20
36.3648446321
 30
0.0
 10
40.0248359949
 20
36.2725365034
 30
0.0
  0
ENDSEC
  0
SECTION
  2
OBJECTS
  0
DICTIONARY
  5
C
100
AcDbDictionary
280
0
281
1
  3
ACAD_GROUP
350
D
  3
ACAD_MLINESTYLE
350
17
  3
ACAD_LAYOUT
350
1A
  3
ACAD_PLOTSETTINGS
350
19
  3
ACAD_PLOTSTYLENAME
350
E
  0
DICTIONARY
  5
D
102
{ACAD_REACTORS
330
C
102
}
100
AcDbDictionary
280
0
281
1
  0
ACDBDICTIONARYWDFLT
  5
E
102
{ACAD_REACTORS
330
C
102
}
100
AcDbDictionary
281
1
  3
Normal
350
F
100
AcDbDictionaryWithDefault
340
F
  0
DICTIONARY
  5
17
102
{ACAD_REACTORS
330
C
102
}
100
AcDbDictionary
280
0
281
1
  3
Standard
350
18
  0
DICTIONARY
  5
19
102
{ACAD_REACTORS
330
C
102
}
100
AcDbDictionary
281
1
  0
DICTIONARY
  5
1A
102
{ACAD_REACTORS
330
C
102
}
100
AcDbDictionary
281
1
  3
Model
350
252
  3
Layout1
350
253
  0
ACDBPLACEHOLDER
  5
F
102
{ACAD_REACTORS
330
E
102
}
  0
MLINESTYLE
  5
18
102
{ACAD_REACTORS
330
17
102
}
100
AcDbMlineStyle
  2
STANDARD
 70
0
  3

 62
256
 51
90.0
 52
90.0
 71
2
 49
0.5
 62
256
  6
BYLAYER
 49
-0.5
 62
256
  6
BYLAYER
  0
LAYOUT
  5
252
102
{ACAD_REACTORS
330
1A
102
}
100
AcDbPlotSettings
  1

  2
none_device
  4

  6

 40
0.0
 41
0.0
 42
0.0
 43
0.0
 44
210.0
 45
297.0
 46
0.0
 47
0.0
 48
0.0
 49
0.0
140
0.0
141
0.0
142
1.0
143
1.0
 70
1024
 72
1
 73
0
 74
0
  7

 75
0
147
1.0
148
0.0
149
0.0
100
AcDbLayout
  1
Model
 70
0
 71
0
 10
0.0
 20
0.0
 11
210.0
 21
297.0
 12
0.0
 22
0.0
 32
0.0
 14
0.0
 24
0.0
 34
0.0
 15
0.0
 25
0.0
 35
0.0
146
0.0
 13
0.0
 23
0.0
 33
0.0
 16
1.0
 26
0.0
 36
0.0
 17
0.0
 27
1.0
 37
0.0
 76
0
330
210
345
0
346
0
  0
LAYOUT
  5
253
102
{ACAD_REACTORS
330
1A
102
}
100
AcDbPlotSettings
  1

  2
none_device
  4

  6

 40
0.0
 41
0.0
 42
0.0
 43
0.0
 44
210.0
 45
297.0
 46
0.0
 47
0.0
 48
0.0
 49
0.0
140
0.0
141
0.0
142
1.0
143
1.0
 70
0
 72
1
 73
0
 74
0
  7

 75
0
147
1.0
148
0.0
149
0.0
100
AcDbLayout
  1
Layout1
 70
0
 71
1
 10
0.0
 20
0.0
 11
210.0
 21
297.0
 12
0.0
 22
0.0
 32
0.0
 14
0.0
 24
0.0
 34
0.0
 15
0.0
 25
0.0
 35
0.0
146
0.0
 13
0.0
 23
0.0
 33
0.0
 16
1.0
 26
0.0
 36
0.0
 17
0.0
 27
1.0
 37
0.0
 76
0
330
211
345
0
346
0
  0
ENDSEC
  0
EOF
