999
DXF file: C:\Users\sesa63760\Dev\_Creo\CAD\MCADID0004252_3D-CAD\drw0001_6.dxf
999
Pro/ENGINEER 2019471 by Parametric Technology Corporation
  0
SECTION
  2
HEADER
  9
$ACADVER
  1
AC1024
  9
$DWGCODEPAGE
  3
ANSI_1252
  9
$EXTMAX
 10
1731.4209407993
 20
2448.7239019876
 30
0.0
  9
$EXTMIN
 10
0.0
 20
0.0
 30
0.0
  9
$LIMMIN
 10
0.0
 20
0.0
  9
$LIMMAX
 10
1731.4209407993
 20
2448.7239019876
  9
$VIEWCTR
 10
865.7104703997
 20
1224.3619509938
  9
$VIEWSIZE
 40
2448.7239019876
  9
$CLAYER
  8
0
  9
$LTSCALE
 40
159.6205210185
  9
$CELTYPE
  6
BYLAYER
  9
$DIMSCALE
 40
1.0
  9
$DIMASZ
 40
20.6121540571
  9
$DIMEXO
 40
1.0
  9
$DIMDLI
 40
110.2832690673
  9
$DIMEXE
 40
1.0
  9
$DIMCEN
 40
26.1197216212
  9
$DIMLFAC
 40
1.0
  9
$DIMBLK
  1
_FILLED
  9
$DIMALT
 70
0
  9
$DIMALTF
 40
0.0393700787
  9
$DIMTXT
 40
28.85701568
  9
$DIMTOL
 70
1
  9
$DIMLIM
 70
0
  9
$DIMTFAC
 40
1.0
  9
$DIMTP
 40
0.01
  9
$DIMTM
 40
0.01
  9
$DIMGAP
 40
0.625
  9
$DIMDSEP
 70
46
  9
$AUNITS
 70
0
  9
$PDMODE
 70
3
  9
$PDSIZE
 40
0.3125
  9
$HANDSEED
  5
335
  9
$TILEMODE
 70
1
  9
$MEASUREMENT
 70
1
  9
$INSUNITS
 70
4
  0
ENDSEC
  0
SECTION
  2
CLASSES
  0
CLASS
  1
ACDBDICTIONARYWDFLT
  2
AcDbDictionaryWithDefault
  3
AutoCAD 2000
 90
0
 91
1
280
0
281
0
  0
CLASS
  1
ACDBPLACEHOLDER
  2
AcDbPlaceHolder
  3
AutoCAD 2000
 90
0
 91
1
280
0
281
0
  0
CLASS
  1
LAYOUT
  2
AcDbLayout
  3
AutoCAD 2000
 90
0
 91
0
280
0
281
0
  0
ENDSEC
  0
SECTION
  2
TABLES
  0
TABLE
  2
VPORT
  5
8
100
AcDbSymbolTable
 70
2
  0
VPORT
  5
1F4
100
AcDbSymbolTableRecord
100
AcDbViewportTableRecord
  2
*ACTIVE
 70
0
 10
0.0
 20
0.0
 11
1.0
 21
1.0
 12
865.7104703997
 22
1224.3619509938
 13
0.0
 23
0.0
 14
1.0
 24
1.0
 15
0.0
 25
0.0
 16
0.0
 26
0.0
 36
1.0
 17
0.0
 27
0.0
 37
0.0
 40
2448.7239019876
 41
0.7070707071
 42
50.0
 43
0.0
 44
0.0
 50
0.0
 51
0.0
 71
0
 72
100
 73
1
 74
1
 75
0
 76
0
 77
0
 78
0
  0
ENDTAB
  0
TABLE
  2
LTYPE
  5
5
100
AcDbSymbolTable
 70
6
  0
LTYPE
  5
14
100
AcDbSymbolTableRecord
100
AcDbLinetypeTableRecord
  2
BYBLOCK
 70
0
  3

 72
65
 73
0
 40
0.0
  0
LTYPE
  5
15
100
AcDbSymbolTableRecord
100
AcDbLinetypeTableRecord
  2
BYLAYER
 70
0
  3

 72
65
 73
0
 40
0.0
  0
LTYPE
  5
16
100
AcDbSymbolTableRecord
100
AcDbLinetypeTableRecord
  2
CONTINUOUS
 70
64
  3
Solid line
 72
65
 73
0
 40
0.0
  0
LTYPE
  5
1F5
100
AcDbSymbolTableRecord
100
AcDbLinetypeTableRecord
  2
CENTER
 70
64
  3
____ _ ____ _ ____ _ ____ _ ____ _ ____ _ ____
 72
65
 73
4
 40
0.6
 49
0.375
 74
0
 49
-0.075
 74
0
 49
0.075
 74
0
 49
-0.075
 74
0
  0
LTYPE
  5
1F6
100
AcDbSymbolTableRecord
100
AcDbLinetypeTableRecord
  2
HIDDEN
 70
64
  3
- - - - - - - - - - - - - - - - - - - -
 72
65
 73
2
 40
0.2
 49
0.1
 74
0
 49
-0.1
 74
0
  0
LTYPE
  5
1F7
100
AcDbSymbolTableRecord
100
AcDbLinetypeTableRecord
  2
PHANTOM
 70
64
  3
_____ _ _ _____ _ _ _____ _ _ _____
 72
65
 73
6
 40
0.8
 49
0.45
 74
0
 49
-0.05
 74
0
 49
0.1
 74
0
 49
-0.05
 74
0
 49
0.1
 74
0
 49
-0.05
 74
0
  0
LTYPE
  5
1F8
100
AcDbSymbolTableRecord
100
AcDbLinetypeTableRecord
  2
DOT
 70
64
  3
. . . . . . . . . . . . . . . . . . . .
 72
65
 73
2
 40
0.2
 49
0.1
 74
0
 49
-0.1
 74
0
  0
LTYPE
  5
1F9
100
AcDbSymbolTableRecord
100
AcDbLinetypeTableRecord
  2
DASHED
 70
64
  3
- - - - - - - - - - - - - - - - - - - -
 72
65
 73
2
 40
0.2
 49
0.1
 74
0
 49
-0.1
 74
0
  0
ENDTAB
  0
TABLE
  2
LAYER
  5
2
100
AcDbSymbolTable
 70
36
  0
LAYER
  5
10
100
AcDbSymbolTableRecord
100
AcDbLayerTableRecord
  2
0
 70
0
 62
7
  6
CONTINUOUS
370
-3
390
F
  0
LAYER
  5
1FA
100
AcDbSymbolTableRecord
100
AcDbLayerTableRecord
  2
DEFAULT_1
 70
0
 62
7
  6
CENTER
370
-3
390
F
  0
LAYER
  5
1FB
100
AcDbSymbolTableRecord
100
AcDbLayerTableRecord
  2
DEFAULT_2
 70
0
 62
7
  6
HIDDEN
370
-3
390
F
  0
LAYER
  5
1FC
100
AcDbSymbolTableRecord
100
AcDbLayerTableRecord
  2
DEFAULT_3
 70
0
 62
7
  6
PHANTOM
370
-3
390
F
  0
LAYER
  5
1FD
100
AcDbSymbolTableRecord
100
AcDbLayerTableRecord
  2
00_COMPONENTS
 70
0
 62
7
  6
CONTINUOUS
370
-3
390
F
  0
LAYER
  5
1FE
100
AcDbSymbolTableRecord
100
AcDbLayerTableRecord
  2
01_1_DEFAULT_DATUMS
 70
0
 62
7
  6
CONTINUOUS
370
-3
390
F
  0
LAYER
  5
1FF
100
AcDbSymbolTableRecord
100
AcDbLayerTableRecord
  2
01_PLANES
 70
0
 62
7
  6
CONTINUOUS
370
-3
390
F
  0
LAYER
  5
200
100
AcDbSymbolTableRecord
100
AcDbLayerTableRecord
  2
02_COORD_SYS
 70
0
 62
7
  6
CONTINUOUS
370
-3
390
F
  0
LAYER
  5
201
100
AcDbSymbolTableRecord
100
AcDbLayerTableRecord
  2
03_AXES
 70
0
 62
7
  6
CONTINUOUS
370
-3
390
F
  0
LAYER
  5
202
100
AcDbSymbolTableRecord
100
AcDbLayerTableRecord
  2
04_POINTS
 70
0
 62
7
  6
CONTINUOUS
370
-3
390
F
  0
LAYER
  5
203
100
AcDbSymbolTableRecord
100
AcDbLayerTableRecord
  2
05_CURVES
 70
0
 62
7
  6
CONTINUOUS
370
-3
390
F
  0
LAYER
  5
204
100
AcDbSymbolTableRecord
100
AcDbLayerTableRecord
  2
06_SURFS
 70
0
 62
7
  6
CONTINUOUS
370
-3
390
F
  0
LAYER
  5
205
100
AcDbSymbolTableRecord
100
AcDbLayerTableRecord
  2
07_COSMETICS
 70
0
 62
7
  6
CONTINUOUS
370
-3
390
F
  0
LAYER
  5
206
100
AcDbSymbolTableRecord
100
AcDbLayerTableRecord
  2
10_NOTES
 70
0
 62
7
  6
CONTINUOUS
370
-3
390
F
  0
LAYER
  5
207
100
AcDbSymbolTableRecord
100
AcDbLayerTableRecord
  2
11_NOTES_PUB
 70
0
 62
7
  6
CONTINUOUS
370
-3
390
F
  0
LAYER
  5
208
100
AcDbSymbolTableRecord
100
AcDbLayerTableRecord
  2
13_REF_GTOL
 70
0
 62
7
  6
CONTINUOUS
370
-3
390
F
  0
LAYER
  5
209
100
AcDbSymbolTableRecord
100
AcDbLayerTableRecord
  2
16_MISC
 70
0
 62
7
  6
CONTINUOUS
370
-3
390
F
  0
LAYER
  5
20A
100
AcDbSymbolTableRecord
100
AcDbLayerTableRecord
  2
17_NO_PRINT
 70
0
 62
7
  6
CONTINUOUS
370
-3
390
F
  0
LAYER
  5
20B
100
AcDbSymbolTableRecord
100
AcDbLayerTableRecord
  2
18_DATUM_CAMS_JOINTS
 70
0
 62
7
  6
CONTINUOUS
370
-3
390
F
  0
LAYER
  5
20C
100
AcDbSymbolTableRecord
100
AcDbLayerTableRecord
  2
19_DATUM_FUNCTIONAL
 70
0
 62
7
  6
CONTINUOUS
370
-3
390
F
  0
LAYER
  5
20D
100
AcDbSymbolTableRecord
100
AcDbLayerTableRecord
  2
20_DATUM_KINEMATIC_SCHEME
 70
0
 62
7
  6
CONTINUOUS
370
-3
390
F
  0
LAYER
  5
20E
100
AcDbSymbolTableRecord
100
AcDbLayerTableRecord
  2
3
 70
0
 62
7
  6
CONTINUOUS
370
-3
390
F
  0
LAYER
  5
20F
100
AcDbSymbolTableRecord
100
AcDbLayerTableRecord
  2
4
 70
0
 62
7
  6
CONTINUOUS
370
-3
390
F
  0
ENDTAB
  0
TABLE
  2
STYLE
  5
3
100
AcDbSymbolTable
 70
1
  0
STYLE
  5
11
100
AcDbSymbolTableRecord
100
AcDbTextStyleTableRecord
  2
STANDARD
 70
0
 40
0.0
 41
1.0
 50
0.0
 71
0
 42
0.2
  3
ARIAL.TTF
  4

  0
STYLE
  5
210
100
AcDbSymbolTableRecord
100
AcDbTextStyleTableRecord
  2
TEXTSTYLE_1
 70
0
 40
0.0
 41
0.8
 50
0.0
 71
0
 42
0.2
  3
gdt
  4

  0
ENDTAB
  0
TABLE
  2
VIEW
  5
6
100
AcDbSymbolTable
 70
0
  0
ENDTAB
  0
TABLE
  2
UCS
  5
7
100
AcDbSymbolTable
 70
0
  0
ENDTAB
  0
TABLE
  2
APPID
  5
9
100
AcDbSymbolTable
 70
1
  0
APPID
  5
211
100
AcDbSymbolTableRecord
100
AcDbRegAppTableRecord
  2
ACAD
 70
0
  0
ENDTAB
  0
TABLE
  2
BLOCK_RECORD
  5
1
100
AcDbSymbolTable
 70
0
  0
BLOCK_RECORD
  5
212
100
AcDbSymbolTableRecord
100
AcDbBlockTableRecord
  2
*Model_Space
  0
BLOCK_RECORD
  5
213
100
AcDbSymbolTableRecord
100
AcDbBlockTableRecord
  2
*Paper_Space
  0
BLOCK_RECORD
  5
214
100
AcDbSymbolTableRecord
100
AcDbBlockTableRecord
  2
_FILLED
  0
ENDTAB
  0
TABLE
  2
DIMSTYLE
  5
A
100
AcDbSymbolTable
 70
1
100
AcDbDimStyleTable
 71
0
  0
DIMSTYLE
105
215
100
AcDbSymbolTableRecord
100
AcDbDimStyleTableRecord
  2
STANDARD
 70
0
  3

  4

 40
1.0
 41
20.6121540571
 42
1.0
 43
0.38
 44
1.0
 45
0.0
 46
0.0
 47
0.01
 48
0.01
140
28.85701568
141
0.09
142
0.0
143
25.4
144
1.0
145
0.0
146
1.0
147
0.625
 71
1
 72
0
 73
0
 74
0
 75
0
 76
0
 77
1
 78
8
 79
2
170
0
171
1
172
0
173
0
174
0
175
0
176
0
177
0
178
0
270
2
179
2
271
2
272
2
273
2
274
2
275
0
280
0
281
0
282
0
283
1
284
8
285
0
286
0
287
3
288
0
340
11
278
46
341
214
342
214
343
214
344
214
  0
ENDTAB
  0
ENDSEC
  0
SECTION
  2
BLOCKS
  0
BLOCK
  5
20
100
AcDbEntity
  8
0
100
AcDbBlockBegin
  2
*Model_Space
 70
0
 10
0.0
 20
0.0
 30
0.0
  3
*Model_Space
  1

  0
ENDBLK
  5
21
100
AcDbEntity
  8
0
100
AcDbBlockEnd
  0
BLOCK
  5
1C
100
AcDbEntity
  8
0
100
AcDbBlockBegin
  2
*Paper_Space
 70
0
 10
0.0
 20
0.0
 30
0.0
  3
*Paper_Space
  1

  0
ENDBLK
  5
1D
100
AcDbEntity
  8
0
100
AcDbBlockEnd
  0
BLOCK
  5
216
100
AcDbEntity
  8
0
100
AcDbBlockBegin
  2
_FILLED
 70
64
 10
0.0
 20
0.0
  3
_FILLED
  1

  0
SOLID
  5
217
100
AcDbEntity
  8
0
  6
BYBLOCK
 62
0
100
AcDbTrace
 10
0.0
 20
0.0
 11
-1.0
 21
0.25
 12
-1.0
 22
-0.25
 13
-1.0
 23
-0.25
  0
ENDBLK
  5
218
100
AcDbEntity
  8
0
  6
BYBLOCK
 62
0
100
AcDbBlockEnd
  0
ENDSEC
  0
SECTION
  2
ENTITIES
  0
LINE
  5
219
100
AcDbEntity
  8
0
100
AcDbLine
 62
7
  6
BYLAYER
 10
880.8843481255
 20
202.3119502866
 11
876.2845248232
 21
202.3119502866
  0
LINE
  5
21A
100
AcDbEntity
  8
0
100
AcDbLine
 62
7
  6
BYLAYER
 10
840.8843600043
 20
202.3119502866
 11
836.284536702
 21
202.3119502866
  0
LINE
  5
21B
100
AcDbEntity
  8
0
100
AcDbLine
 62
7
  6
BYLAYER
 10
835.9116584425
 20
202.4118401481
 11
829.0844407246
 21
202.4118401481
  0
LINE
  5
21C
100
AcDbEntity
  8
0
100
AcDbLine
 62
7
  6
BYLAYER
 10
841.2572467644
 20
202.4118401481
 11
875.9116465636
 21
202.4118401481
  0
LINE
  5
21D
100
AcDbEntity
  8
0
100
AcDbLine
 62
7
  6
BYLAYER
 10
881.2572348855
 20
202.4118401481
 11
882.0844407246
 21
202.4118401481
  0
LINE
  5
21E
100
AcDbEntity
  8
0
100
AcDbLine
 62
7
  6
BYLAYER
 10
859.7258889047
 20
202.9118401481
 11
851.4439570704
 21
202.9118401481
  0
LINE
  5
21F
100
AcDbEntity
  8
0
100
AcDbLine
 62
7
  6
BYLAYER
 10
881.8844407246
 20
203.3119502866
 11
875.2844407246
 21
203.3119502866
  0
LINE
  5
220
100
AcDbEntity
  8
0
100
AcDbLine
 62
7
  6
BYLAYER
 10
841.8844526034
 20
203.3119502866
 11
835.2844526034
 21
203.3119502866
  0
LINE
  5
221
100
AcDbEntity
  8
0
100
AcDbLine
 62
7
  6
BYLAYER
 10
883.0844407246
 20
203.4118401481
 11
881.8844407246
 21
203.4118401481
  0
LINE
  5
222
100
AcDbEntity
  8
0
100
AcDbLine
 62
7
  6
BYLAYER
 10
875.2844407246
 20
203.4118401481
 11
859.5844407246
 21
203.4118401548
  0
LINE
  5
223
100
AcDbEntity
  8
0
100
AcDbLine
 62
7
  6
BYLAYER
 10
851.5844407246
 20
203.4118401482
 11
841.8844526034
 21
203.4118401481
  0
LINE
  5
224
100
AcDbEntity
  8
0
100
AcDbLine
 62
7
  6
BYLAYER
 10
835.2844526034
 20
203.4118401481
 11
828.0844407246
 21
203.4118401481
  0
LINE
  5
225
100
AcDbEntity
  8
0
100
AcDbLine
 62
7
  6
BYLAYER
 10
834.6721254951
 20
204.4118401481
 11
835.2844526034
 21
204.4118401481
  0
LINE
  5
226
100
AcDbEntity
  8
0
100
AcDbLine
 62
7
  6
BYLAYER
 10
841.8844526034
 20
204.4118401481
 11
843.0844407246
 21
204.411840091
  0
LINE
  5
227
100
AcDbEntity
  8
0
100
AcDbLine
 62
7
  6
BYLAYER
 10
874.0844407246
 20
204.4118400792
 11
875.2844407246
 21
204.4118401481
  0
LINE
  5
228
100
AcDbEntity
  8
0
100
AcDbLine
 62
7
  6
BYLAYER
 10
881.8844407246
 20
204.4118401481
 11
883.0844407246
 21
204.4118400792
  0
LINE
  5
229
100
AcDbEntity
  8
0
100
AcDbLine
 62
7
  6
BYLAYER
 10
875.5844407246
 20
204.9118401481
 11
882.5844407246
 21
204.9118401481
  0
LINE
  5
22A
100
AcDbEntity
  8
0
100
AcDbLine
 62
7
  6
BYLAYER
 10
835.034687231
 20
204.9118401481
 11
841.5844407246
 21
204.9118401481
  0
LINE
  5
22B
100
AcDbEntity
  8
0
100
AcDbLine
 62
7
  6
BYLAYER
 10
883.0844407246
 20
205.4118401481
 11
875.5844407246
 21
205.4118401481
  0
LINE
  5
22C
100
AcDbEntity
  8
0
100
AcDbLine
 62
7
  6
BYLAYER
 10
841.5844407246
 20
205.4118401481
 11
833.1723590327
 21
205.4118401481
  0
LINE
  5
22D
100
AcDbEntity
  8
0
100
AcDbLine
 62
7
  6
BYLAYER
 10
828.0844407246
 20
219.9118401481
 11
859.5839419354
 21
219.9118401481
  0
LINE
  5
22E
100
AcDbEntity
  8
0
100
AcDbLine
 62
7
  6
BYLAYER
 10
859.5844407246
 20
219.9118401481
 11
883.0844407246
 21
219.9118401481
  0
LINE
  5
22F
100
AcDbEntity
  8
3
100
AcDbLine
 62
7
  6
BYLAYER
 10
828.076348596
 20
219.9119630951
 11
883.0839592503
 21
219.9119630951
  0
LINE
  5
230
100
AcDbEntity
  8
4
100
AcDbLine
 62
7
  6
BYLAYER
 10
928.3258608024
 20
247.2601254098
 11
883.3258608024
 21
247.2601254098
  0
LINE
  5
231
100
AcDbEntity
  8
4
100
AcDbLine
 62
7
  6
BYLAYER
 10
911.6258608024
 20
254.0101254098
 11
925.1258608024
 21
254.0101254098
  0
LINE
  5
232
100
AcDbEntity
  8
4
100
AcDbLine
 62
7
  6
BYLAYER
 10
883.3258608024
 20
254.2601254098
 11
883.0839592503
 21
254.2601254098
  0
LINE
  5
233
100
AcDbEntity
  8
4
100
AcDbLine
 62
7
  6
BYLAYER
 10
883.3258608024
 20
260.2601254098
 11
883.0839592503
 21
260.2601254098
  0
LINE
  5
234
100
AcDbEntity
  8
4
100
AcDbLine
 62
7
  6
BYLAYER
 10
925.1258608024
 20
260.5101254098
 11
911.6258608024
 21
260.5101254098
  0
LINE
  5
235
100
AcDbEntity
  8
4
100
AcDbLine
 62
7
  6
BYLAYER
 10
911.6258608024
 20
284.0101254098
 11
925.1258608024
 21
284.0101254098
  0
LINE
  5
236
100
AcDbEntity
  8
4
100
AcDbLine
 62
7
  6
BYLAYER
 10
883.3258608024
 20
284.2601254098
 11
883.0839592503
 21
284.2601254098
  0
LINE
  5
237
100
AcDbEntity
  8
4
100
AcDbLine
 62
7
  6
BYLAYER
 10
883.3258608024
 20
290.2601254098
 11
883.0839592503
 21
290.2601254098
  0
LINE
  5
238
100
AcDbEntity
  8
4
100
AcDbLine
 62
7
  6
BYLAYER
 10
925.1258608024
 20
290.5101254098
 11
911.6258608024
 21
290.5101254098
  0
LINE
  5
239
100
AcDbEntity
  8
4
100
AcDbLine
 62
7
  6
BYLAYER
 10
883.3258608024
 20
297.2601254098
 11
928.3258608024
 21
297.2601254098
  0
LINE
  5
23A
100
AcDbEntity
  8
0
100
AcDbLine
 62
7
  6
BYLAYER
 10
839.5841994232
 20
2246.411951701
 11
839.0841984394
 21
2245.9119508972
  0
LINE
  5
23B
100
AcDbEntity
  8
0
100
AcDbLine
 62
7
  6
BYLAYER
 10
837.8341999874
 20
2242.4119502866
 11
837.3341999874
 21
2241.9119502866
  0
LINE
  5
23C
100
AcDbEntity
  8
0
100
AcDbLine
 62
7
  6
BYLAYER
 10
837.8341999874
 20
2237.4119502866
 11
837.3341999874
 21
2236.9119502866
  0
LINE
  5
23D
100
AcDbEntity
  8
0
100
AcDbLine
 62
7
  6
BYLAYER
 10
852.8341999874
 20
2236.1119502866
 11
852.6341999874
 21
2235.9119502866
  0
LINE
  5
23E
100
AcDbEntity
  8
0
100
AcDbLine
 62
7
  6
BYLAYER
 10
860.3341999874
 20
2242.4119502866
 11
859.8341999874
 21
2241.9119502866
  0
LINE
  5
23F
100
AcDbEntity
  8
3
100
AcDbLine
 62
7
  6
BYLAYER
 10
828.0839419354
 20
2218.4119630951
 11
828.0839419354
 21
219.9119630951
  0
LINE
  5
240
100
AcDbEntity
  8
0
100
AcDbLine
 62
7
  6
BYLAYER
 10
828.0841999874
 20
2234.9119502866
 11
828.0841999874
 21
2218.4119502866
  0
LINE
  5
241
100
AcDbEntity
  8
0
100
AcDbLine
 62
7
  6
BYLAYER
 10
828.0844407246
 20
219.9118401481
 11
828.0844407246
 21
203.4118401481
  0
LINE
  5
242
100
AcDbEntity
  8
3
100
AcDbLine
 62
7
  6
BYLAYER
 10
828.0880520775
 20
219.9119630951
 11
828.084969735
 21
1869.9119630951
  0
LINE
  5
243
100
AcDbEntity
  8
3
100
AcDbLine
 62
7
  6
BYLAYER
 10
829.5344996796
 20
219.9119630951
 11
829.5344996796
 21
2218.4119630951
  0
LINE
  5
244
100
AcDbEntity
  8
0
100
AcDbLine
 62
7
  6
BYLAYER
 10
829.5347577316
 20
2218.4119502866
 11
829.5347577316
 21
2234.9119502866
  0
LINE
  5
245
100
AcDbEntity
  8
0
100
AcDbLine
 62
7
  6
BYLAYER
 10
829.5349984688
 20
203.4118401481
 11
829.5349984688
 21
219.9118401481
  0
LINE
  5
246
100
AcDbEntity
  8
0
100
AcDbLine
 62
7
  6
BYLAYER
 10
833.1721182956
 20
2234.9119502866
 11
833.1721182956
 21
2232.9119502866
  0
LINE
  5
247
100
AcDbEntity
  8
0
100
AcDbLine
 62
7
  6
BYLAYER
 10
833.1723590327
 20
205.4118401481
 11
833.1723590327
 21
203.4118401481
  0
LINE
  5
248
100
AcDbEntity
  8
3
100
AcDbLine
 62
7
  6
BYLAYER
 10
833.7372801029
 20
2218.4119630951
 11
833.7372801029
 21
219.9119630951
  0
LINE
  5
249
100
AcDbEntity
  8
0
100
AcDbLine
 62
7
  6
BYLAYER
 10
833.7375381548
 20
2232.9119502866
 11
833.7375381548
 21
2218.4119502866
  0
LINE
  5
24A
100
AcDbEntity
  8
0
100
AcDbLine
 62
7
  6
BYLAYER
 10
833.737778892
 20
219.9118401481
 11
833.737778892
 21
205.4118401481
  0
LINE
  5
24B
100
AcDbEntity
  8
0
100
AcDbLine
 62
7
  6
BYLAYER
 10
835.0841999874
 20
2233.9119502866
 11
835.0841999874
 21
2234.9119502866
  0
LINE
  5
24C
100
AcDbEntity
  8
0
100
AcDbLine
 62
7
  6
BYLAYER
 10
835.0844407246
 20
203.4118401481
 11
835.0844407246
 21
204.4118401481
  0
LINE
  5
24D
100
AcDbEntity
  8
0
100
AcDbLine
 62
7
  6
BYLAYER
 10
835.2841999874
 20
2233.5135491633
 11
835.2841999874
 21
2235.0119502866
  0
LINE
  5
24E
100
AcDbEntity
  8
0
100
AcDbLine
 62
7
  6
BYLAYER
 10
835.2844526034
 20
204.8102531503
 11
835.2844526034
 21
203.3119502866
  0
LINE
  5
24F
100
AcDbEntity
  8
3
100
AcDbLine
 62
7
  6
BYLAYER
 10
836.4844913818
 20
219.9119630951
 11
836.4844913818
 21
2218.4119630951
  0
LINE
  5
250
100
AcDbEntity
  8
0
100
AcDbLine
 62
7
  6
BYLAYER
 10
836.4847494338
 20
2218.4119502866
 11
836.4847494338
 21
2233.4119502866
  0
LINE
  5
251
100
AcDbEntity
  8
0
100
AcDbLine
 62
7
  6
BYLAYER
 10
836.484990171
 20
204.9118401481
 11
836.484990171
 21
219.9118401481
  0
LINE
  5
252
100
AcDbEntity
  8
0
100
AcDbLine
 62
7
  6
BYLAYER
 10
837.3341999874
 20
2236.0119502866
 11
837.3341999874
 21
2241.9119502866
  0
LINE
  5
253
100
AcDbEntity
  8
0
100
AcDbLine
 62
7
  6
BYLAYER
 10
839.0841999874
 20
2238.4119502866
 11
839.0841999874
 21
2245.9119493492
  0
LINE
  5
254
100
AcDbEntity
  8
0
100
AcDbLine
 62
7
  6
BYLAYER
 10
839.5841999874
 20
2237.4119502866
 11
839.5841999874
 21
2238.4119502866
  0
LINE
  5
255
100
AcDbEntity
  8
0
100
AcDbLine
 62
7
  6
BYLAYER
 10
841.5841999146
 20
2233.4119502866
 11
841.5841999146
 21
2232.9119502866
  0
LINE
  5
256
100
AcDbEntity
  8
0
100
AcDbLine
 62
7
  6
BYLAYER
 10
841.5844406571
 20
205.4118401481
 11
841.5844406571
 21
204.9118401481
  0
LINE
  5
257
100
AcDbEntity
  8
0
100
AcDbLine
 62
7
  6
BYLAYER
 10
841.8841999874
 20
2233.5161327219
 11
841.8841999874
 21
2235.0119502866
  0
LINE
  5
258
100
AcDbEntity
  8
0
100
AcDbLine
 62
7
  6
BYLAYER
 10
841.8844526034
 20
204.8077774032
 11
841.8844526034
 21
203.3119502866
  0
LINE
  5
259
100
AcDbEntity
  8
0
100
AcDbLine
 62
7
  6
BYLAYER
 10
842.0841999874
 20
2234.9119502866
 11
842.0841999874
 21
2233.9119502866
  0
LINE
  5
25A
100
AcDbEntity
  8
0
100
AcDbLine
 62
7
  6
BYLAYER
 10
842.0844407246
 20
204.4118401481
 11
842.0844407246
 21
203.4118401481
  0
LINE
  5
25B
100
AcDbEntity
  8
0
100
AcDbLine
 62
7
  6
BYLAYER
 10
843.0841999874
 20
2233.9119502866
 11
843.0841999874
 21
2235.9119502866
  0
LINE
  5
25C
100
AcDbEntity
  8
0
100
AcDbLine
 62
7
  6
BYLAYER
 10
843.0844407246
 20
202.4118401481
 11
843.0844407246
 21
204.4118401481
  0
LINE
  5
25D
100
AcDbEntity
  8
0
100
AcDbLine
 62
7
  6
BYLAYER
 10
850.5841999874
 20
2238.4119502866
 11
850.5841999874
 21
2237.4119502866
  0
LINE
  5
25E
100
AcDbEntity
  8
3
100
AcDbLine
 62
7
  6
BYLAYER
 10
851.0839419354
 20
2218.4119630951
 11
851.0839419354
 21
219.9119630951
  0
LINE
  5
25F
100
AcDbEntity
  8
0
100
AcDbLine
 62
7
  6
BYLAYER
 10
851.0841999874
 20
2234.9119502866
 11
851.0841999874
 21
2218.4119502866
  0
LINE
  5
260
100
AcDbEntity
  8
0
100
AcDbLine
 62
7
  6
BYLAYER
 10
851.0841999874
 20
2238.4119502866
 11
851.0841999874
 21
2245.9119493492
  0
LINE
  5
261
100
AcDbEntity
  8
0
100
AcDbLine
 62
7
  6
BYLAYER
 10
851.0844407246
 20
219.9118401481
 11
851.0844407246
 21
203.4118401481
  0
LINE
  5
262
100
AcDbEntity
  8
3
100
AcDbLine
 62
7
  6
BYLAYER
 10
851.5839419354
 20
219.9119630951
 11
851.5839419354
 21
2218.4119630951
  0
LINE
  5
263
100
AcDbEntity
  8
0
100
AcDbLine
 62
7
  6
BYLAYER
 10
851.5841999874
 20
2218.4119502866
 11
851.5841999874
 21
2234.9119502866
  0
LINE
  5
264
100
AcDbEntity
  8
0
100
AcDbLine
 62
7
  6
BYLAYER
 10
851.5844407246
 20
203.4118401482
 11
851.5844407246
 21
219.9118401481
  0
LINE
  5
265
100
AcDbEntity
  8
0
100
AcDbLine
 62
7
  6
BYLAYER
 10
852.8341999874
 20
2235.9119502866
 11
852.8341999874
 21
2241.9119502866
  0
LINE
  5
266
100
AcDbEntity
  8
3
100
AcDbLine
 62
7
  6
BYLAYER
 10
859.5839419354
 20
2218.4119630951
 11
859.5839419354
 21
219.9119630951
  0
LINE
  5
267
100
AcDbEntity
  8
0
100
AcDbLine
 62
7
  6
BYLAYER
 10
859.5841999874
 20
2234.9119502866
 11
859.5841999874
 21
2218.4119502866
  0
LINE
  5
268
100
AcDbEntity
  8
0
100
AcDbLine
 62
7
  6
BYLAYER
 10
859.5844407246
 20
219.9118401481
 11
859.5844407246
 21
203.4118401482
  0
LINE
  5
269
100
AcDbEntity
  8
0
100
AcDbLine
 62
7
  6
BYLAYER
 10
859.8341999874
 20
2235.9119502866
 11
859.8341999874
 21
2241.9119502866
  0
LINE
  5
26A
100
AcDbEntity
  8
3
100
AcDbLine
 62
7
  6
BYLAYER
 10
860.0839419354
 20
219.9119630951
 11
860.0839419354
 21
2218.4119630951
  0
LINE
  5
26B
100
AcDbEntity
  8
0
100
AcDbLine
 62
7
  6
BYLAYER
 10
860.0841999874
 20
2218.4119502866
 11
860.0841999874
 21
2234.9119502866
  0
LINE
  5
26C
100
AcDbEntity
  8
0
100
AcDbLine
 62
7
  6
BYLAYER
 10
860.0844407246
 20
203.4118401481
 11
860.0844407246
 21
219.9118401481
  0
LINE
  5
26D
100
AcDbEntity
  8
0
100
AcDbLine
 62
7
  6
BYLAYER
 10
863.4579399874
 20
2243.6119502866
 11
863.4579399874
 21
2242.4119502866
  0
LINE
  5
26E
100
AcDbEntity
  8
0
100
AcDbLine
 62
7
  6
BYLAYER
 10
871.7079399874
 20
2243.6119502866
 11
871.7079399874
 21
2242.4119502866
  0
LINE
  5
26F
100
AcDbEntity
  8
0
100
AcDbLine
 62
7
  6
BYLAYER
 10
874.0841999874
 20
2235.9119502866
 11
874.0841999874
 21
2233.9119502866
  0
LINE
  5
270
100
AcDbEntity
  8
0
100
AcDbLine
 62
7
  6
BYLAYER
 10
874.0844407246
 20
204.4118401481
 11
874.0844407246
 21
202.4118401481
  0
LINE
  5
271
100
AcDbEntity
  8
0
100
AcDbLine
 62
7
  6
BYLAYER
 10
875.0841999874
 20
2233.9119502866
 11
875.0841999874
 21
2234.9119502866
  0
LINE
  5
272
100
AcDbEntity
  8
0
100
AcDbLine
 62
7
  6
BYLAYER
 10
875.0844407246
 20
203.4118401481
 11
875.0844407246
 21
204.4118401481
  0
LINE
  5
273
100
AcDbEntity
  8
0
100
AcDbLine
 62
7
  6
BYLAYER
 10
875.2841999874
 20
2233.5160172811
 11
875.2841999874
 21
2235.0119502866
  0
LINE
  5
274
100
AcDbEntity
  8
0
100
AcDbLine
 62
7
  6
BYLAYER
 10
875.2844407246
 20
204.8076577133
 11
875.2844407246
 21
203.3119502866
  0
LINE
  5
275
100
AcDbEntity
  8
0
100
AcDbLine
 62
7
  6
BYLAYER
 10
875.3341999874
 20
2235.9119502866
 11
875.3341999874
 21
2241.9119502866
  0
LINE
  5
276
100
AcDbEntity
  8
0
100
AcDbLine
 62
7
  6
BYLAYER
 10
875.5842000599
 20
2232.9119502866
 11
875.5842000599
 21
2233.4119502866
  0
LINE
  5
277
100
AcDbEntity
  8
0
100
AcDbLine
 62
7
  6
BYLAYER
 10
875.5844407974
 20
204.9118401481
 11
875.5844407974
 21
205.4118401481
  0
LINE
  5
278
100
AcDbEntity
  8
3
100
AcDbLine
 62
7
  6
BYLAYER
 10
879.0839592503
 20
2218.4119630951
 11
879.0839592503
 21
219.9119630951
  0
LINE
  5
279
100
AcDbEntity
  8
0
100
AcDbLine
 62
7
  6
BYLAYER
 10
879.0841999874
 20
2233.4119502866
 11
879.0841999874
 21
2218.4119502866
  0
LINE
  5
27A
100
AcDbEntity
  8
0
100
AcDbLine
 62
7
  6
BYLAYER
 10
879.0844407246
 20
219.9118401481
 11
879.0844407246
 21
204.9118401481
  0
LINE
  5
27B
100
AcDbEntity
  8
0
100
AcDbLine
 62
7
  6
BYLAYER
 10
881.8841999874
 20
2233.4119502866
 11
881.8841999874
 21
2235.0119502866
  0
LINE
  5
27C
100
AcDbEntity
  8
0
100
AcDbLine
 62
7
  6
BYLAYER
 10
881.8844407246
 20
204.9119502866
 11
881.8844407246
 21
203.3119502866
  0
LINE
  5
27D
100
AcDbEntity
  8
0
100
AcDbLine
 62
7
  6
BYLAYER
 10
882.0841999874
 20
2235.9119502866
 11
882.0841999891
 21
2233.9119502866
  0
LINE
  5
27E
100
AcDbEntity
  8
0
100
AcDbLine
 62
7
  6
BYLAYER
 10
882.0844407263
 20
204.4118401481
 11
882.0844407246
 21
202.4118401481
  0
LINE
  5
27F
100
AcDbEntity
  8
3
100
AcDbLine
 62
7
  6
BYLAYER
 10
883.0839592503
 20
219.9119630951
 11
883.0839592503
 21
2218.4119630951
  0
LINE
  5
280
100
AcDbEntity
  8
0
100
AcDbLine
 62
7
  6
BYLAYER
 10
883.0841999874
 20
2218.4119502866
 11
883.0841999874
 21
2234.9119502866
  0
LINE
  5
281
100
AcDbEntity
  8
0
100
AcDbLine
 62
7
  6
BYLAYER
 10
883.0844407246
 20
203.4118401481
 11
883.0844407246
 21
219.9118401481
  0
LINE
  5
282
100
AcDbEntity
  8
0
100
AcDbLine
 62
7
  6
BYLAYER
 10
883.0844392482
 20
204.4118112266
 11
883.0844407254
 21
205.3280341453
  0
LINE
  5
283
100
AcDbEntity
  8
4
100
AcDbLine
 62
7
  6
BYLAYER
 10
883.3258608024
 20
2193.5950278707
 11
883.3258608024
 21
2143.5950278707
  0
LINE
  5
284
100
AcDbEntity
  8
4
100
AcDbLine
 62
7
  6
BYLAYER
 10
883.3258608024
 20
1244.5442662496
 11
883.3258608024
 21
1194.5442662496
  0
LINE
  5
285
100
AcDbEntity
  8
4
100
AcDbLine
 62
7
  6
BYLAYER
 10
883.3258608024
 20
297.2601254098
 11
883.3258608024
 21
247.2601254098
  0
LINE
  5
286
100
AcDbEntity
  8
4
100
AcDbLine
 62
7
  6
BYLAYER
 10
928.3258608024
 20
1194.5442662496
 11
883.3258608024
 21
1194.5442662496
  0
LINE
  5
287
100
AcDbEntity
  8
4
100
AcDbLine
 62
7
  6
BYLAYER
 10
911.6258608024
 20
1201.2942662496
 11
925.1258608024
 21
1201.2942662496
  0
LINE
  5
288
100
AcDbEntity
  8
4
100
AcDbLine
 62
7
  6
BYLAYER
 10
883.3258608024
 20
1201.5442662496
 11
883.0839592503
 21
1201.5442662496
  0
LINE
  5
289
100
AcDbEntity
  8
4
100
AcDbLine
 62
7
  6
BYLAYER
 10
883.3258608024
 20
1207.5442662496
 11
883.0839592503
 21
1207.5442662496
  0
LINE
  5
28A
100
AcDbEntity
  8
4
100
AcDbLine
 62
7
  6
BYLAYER
 10
925.1258608024
 20
1207.7942662496
 11
911.6258608024
 21
1207.7942662496
  0
LINE
  5
28B
100
AcDbEntity
  8
4
100
AcDbLine
 62
7
  6
BYLAYER
 10
911.6258608024
 20
1231.2942662496
 11
925.1258608024
 21
1231.2942662496
  0
LINE
  5
28C
100
AcDbEntity
  8
4
100
AcDbLine
 62
7
  6
BYLAYER
 10
883.3258608024
 20
1231.5442662496
 11
883.0839592503
 21
1231.5442662496
  0
LINE
  5
28D
100
AcDbEntity
  8
4
100
AcDbLine
 62
7
  6
BYLAYER
 10
890.3258608024
 20
247.2601254098
 11
890.3258608024
 21
297.2601254098
  0
LINE
  5
28E
100
AcDbEntity
  8
4
100
AcDbLine
 62
7
  6
BYLAYER
 10
890.3258608024
 20
1194.5442662496
 11
890.3258608024
 21
1244.5442662496
  0
LINE
  5
28F
100
AcDbEntity
  8
4
100
AcDbLine
 62
7
  6
BYLAYER
 10
890.3258608024
 20
2143.5950278707
 11
890.3258608024
 21
2193.5950278707
  0
LINE
  5
290
100
AcDbEntity
  8
4
100
AcDbLine
 62
7
  6
BYLAYER
 10
933.3258608024
 20
2188.5950278707
 11
933.3258608024
 21
2148.5950278707
  0
LINE
  5
291
100
AcDbEntity
  8
4
100
AcDbLine
 62
7
  6
BYLAYER
 10
933.3258608024
 20
1239.5442662496
 11
933.3258608024
 21
1199.5442662496
  0
LINE
  5
292
100
AcDbEntity
  8
4
100
AcDbLine
 62
7
  6
BYLAYER
 10
933.3258608024
 20
292.2601254098
 11
933.3258608024
 21
252.2601254098
  0
LINE
  5
293
100
AcDbEntity
  8
4
100
AcDbLine
 62
7
  6
BYLAYER
 10
883.3258608024
 20
1237.5442662496
 11
883.0839592503
 21
1237.5442662496
  0
LINE
  5
294
100
AcDbEntity
  8
4
100
AcDbLine
 62
7
  6
BYLAYER
 10
925.1258608024
 20
1237.7942662496
 11
911.6258608024
 21
1237.7942662496
  0
LINE
  5
295
100
AcDbEntity
  8
4
100
AcDbLine
 62
7
  6
BYLAYER
 10
883.3258608024
 20
1244.5442662496
 11
928.3258608024
 21
1244.5442662496
  0
LINE
  5
296
100
AcDbEntity
  8
0
100
AcDbLine
 62
7
  6
BYLAYER
 10
837.4341999874
 20
2236.0119502866
 11
837.3341999874
 21
2236.1119502866
  0
LINE
  5
297
100
AcDbEntity
  8
0
100
AcDbLine
 62
7
  6
BYLAYER
 10
852.8341999874
 20
2236.9119502866
 11
852.3341999874
 21
2237.4119502866
  0
LINE
  5
298
100
AcDbEntity
  8
0
100
AcDbLine
 62
7
  6
BYLAYER
 10
852.8341999874
 20
2241.9119502866
 11
852.3341999874
 21
2242.4119502866
  0
LINE
  5
299
100
AcDbEntity
  8
0
100
AcDbLine
 62
7
  6
BYLAYER
 10
851.0842015354
 20
2245.9119508972
 11
850.5842005517
 21
2246.411951701
  0
LINE
  5
29A
100
AcDbEntity
  8
0
100
AcDbLine
 62
7
  6
BYLAYER
 10
875.3341999874
 20
2241.9119502866
 11
874.8341999874
 21
2242.4119502866
  0
LINE
  5
29B
100
AcDbEntity
  8
4
100
AcDbLine
 62
7
  6
BYLAYER
 10
928.3258608024
 20
2143.5950278707
 11
883.3258608024
 21
2143.5950278707
  0
LINE
  5
29C
100
AcDbEntity
  8
4
100
AcDbLine
 62
7
  6
BYLAYER
 10
911.6258608024
 20
2150.3450278707
 11
925.1258608024
 21
2150.3450278707
  0
LINE
  5
29D
100
AcDbEntity
  8
4
100
AcDbLine
 62
7
  6
BYLAYER
 10
883.3258608024
 20
2150.5950278707
 11
883.0839592503
 21
2150.5950278707
  0
LINE
  5
29E
100
AcDbEntity
  8
4
100
AcDbLine
 62
7
  6
BYLAYER
 10
883.3258608024
 20
2156.5950278707
 11
883.0839592503
 21
2156.5950278707
  0
LINE
  5
29F
100
AcDbEntity
  8
4
100
AcDbLine
 62
7
  6
BYLAYER
 10
925.1258608024
 20
2156.8450278707
 11
911.6258608024
 21
2156.8450278707
  0
LINE
  5
2A0
100
AcDbEntity
  8
4
100
AcDbLine
 62
7
  6
BYLAYER
 10
911.6258608024
 20
2180.3450278707
 11
925.1258608024
 21
2180.3450278707
  0
LINE
  5
2A1
100
AcDbEntity
  8
4
100
AcDbLine
 62
7
  6
BYLAYER
 10
883.3258608024
 20
2180.5950278707
 11
883.0839592503
 21
2180.5950278707
  0
LINE
  5
2A2
100
AcDbEntity
  8
4
100
AcDbLine
 62
7
  6
BYLAYER
 10
883.3258608024
 20
2186.5950278707
 11
883.0839592503
 21
2186.5950278707
  0
LINE
  5
2A3
100
AcDbEntity
  8
4
100
AcDbLine
 62
7
  6
BYLAYER
 10
925.1258608024
 20
2186.8450278707
 11
911.6258608024
 21
2186.8450278707
  0
LINE
  5
2A4
100
AcDbEntity
  8
4
100
AcDbLine
 62
7
  6
BYLAYER
 10
883.3258608024
 20
2193.5950278707
 11
928.3258608024
 21
2193.5950278707
  0
LINE
  5
2A5
100
AcDbEntity
  8
0
100
AcDbLine
 62
7
  6
BYLAYER
 10
828.0841999874
 20
2218.4119502866
 11
883.0841999874
 21
2218.4119502866
  0
LINE
  5
2A6
100
AcDbEntity
  8
3
100
AcDbLine
 62
7
  6
BYLAYER
 10
828.0672207801
 20
2218.4119630951
 11
883.0839592503
 21
2218.4119630951
  0
LINE
  5
2A7
100
AcDbEntity
  8
0
100
AcDbLine
 62
7
  6
BYLAYER
 10
867.6006018959
 20
2231.9119502866
 11
859.5841999874
 21
2231.9119502866
  0
LINE
  5
2A8
100
AcDbEntity
  8
0
100
AcDbLine
 62
7
  6
BYLAYER
 10
845.0677980789
 20
2231.9119502866
 11
853.0841999874
 21
2231.9119502866
  0
LINE
  5
2A9
100
AcDbEntity
  8
0
100
AcDbLine
 62
7
  6
BYLAYER
 10
867.600386013
 20
2231.9231633695
 11
859.6894964721
 21
2231.9231633695
  0
LINE
  5
2AA
100
AcDbEntity
  8
0
100
AcDbLine
 62
7
  6
BYLAYER
 10
845.0680137825
 20
2231.9231445376
 11
852.9789909585
 21
2231.9231445376
  0
LINE
  5
2AB
100
AcDbEntity
  8
0
100
AcDbLine
 62
7
  6
BYLAYER
 10
867.6008177788
 20
2232.9007372037
 11
859.4789035028
 21
2232.9007372037
  0
LINE
  5
2AC
100
AcDbEntity
  8
0
100
AcDbLine
 62
7
  6
BYLAYER
 10
845.0675823753
 20
2232.9007560356
 11
853.1894090163
 21
2232.9007560356
  0
LINE
  5
2AD
100
AcDbEntity
  8
0
100
AcDbLine
 62
7
  6
BYLAYER
 10
833.1721182956
 20
2232.9119502866
 11
841.5841999874
 21
2232.9119502866
  0
LINE
  5
2AE
100
AcDbEntity
  8
0
100
AcDbLine
 62
7
  6
BYLAYER
 10
875.5841999874
 20
2232.9119502866
 11
883.0841999874
 21
2232.9119502866
  0
LINE
  5
2AF
100
AcDbEntity
  8
0
100
AcDbLine
 62
7
  6
BYLAYER
 10
835.0344464949
 20
2233.4119502866
 11
841.5841999874
 21
2233.4119502866
  0
LINE
  5
2B0
100
AcDbEntity
  8
0
100
AcDbLine
 62
7
  6
BYLAYER
 10
875.5841999874
 20
2233.4119502866
 11
882.5841999874
 21
2233.4119502866
  0
LINE
  5
2B1
100
AcDbEntity
  8
0
100
AcDbLine
 62
7
  6
BYLAYER
 10
883.0841999874
 20
2233.9119503555
 11
881.8841999874
 21
2233.9119502866
  0
LINE
  5
2B2
100
AcDbEntity
  8
0
100
AcDbLine
 62
7
  6
BYLAYER
 10
875.2841999874
 20
2233.9119502866
 11
874.0841999874
 21
2233.9119503556
  0
LINE
  5
2B3
100
AcDbEntity
  8
0
100
AcDbLine
 62
7
  6
BYLAYER
 10
843.0841999874
 20
2233.9119503555
 11
841.8841999874
 21
2233.9119502866
  0
LINE
  5
2B4
100
AcDbEntity
  8
0
100
AcDbLine
 62
7
  6
BYLAYER
 10
835.2841999874
 20
2233.9119502866
 11
834.6718847786
 21
2233.9119502866
  0
LINE
  5
2B5
100
AcDbEntity
  8
0
100
AcDbLine
 62
7
  6
BYLAYER
 10
828.0841999874
 20
2234.9119502866
 11
835.2841999874
 21
2234.9119502866
  0
LINE
  5
2B6
100
AcDbEntity
  8
0
100
AcDbLine
 62
7
  6
BYLAYER
 10
841.8841999874
 20
2234.9119502866
 11
851.5841999874
 21
2234.91195028
  0
LINE
  5
2B7
100
AcDbEntity
  8
0
100
AcDbLine
 62
7
  6
BYLAYER
 10
859.5841999874
 20
2234.9119502866
 11
875.2841999874
 21
2234.9119502866
  0
LINE
  5
2B8
100
AcDbEntity
  8
0
100
AcDbLine
 62
7
  6
BYLAYER
 10
881.8841999874
 20
2234.9119502866
 11
883.0841999874
 21
2234.9119502866
  0
LINE
  5
2B9
100
AcDbEntity
  8
0
100
AcDbLine
 62
7
  6
BYLAYER
 10
835.2841999874
 20
2235.0119502866
 11
841.8841999874
 21
2235.0119502866
  0
LINE
  5
2BA
100
AcDbEntity
  8
0
100
AcDbLine
 62
7
  6
BYLAYER
 10
875.2841999874
 20
2235.0119502866
 11
881.8841999874
 21
2235.0119502866
  0
LINE
  5
2BB
100
AcDbEntity
  8
0
100
AcDbLine
 62
7
  6
BYLAYER
 10
851.4427518073
 20
2235.4119502866
 11
859.7246836415
 21
2235.4119502866
  0
LINE
  5
2BC
100
AcDbEntity
  8
0
100
AcDbLine
 62
7
  6
BYLAYER
 10
882.0841999874
 20
2235.9119502866
 11
881.2574051909
 21
2235.9119502866
  0
LINE
  5
2BD
100
AcDbEntity
  8
0
100
AcDbLine
 62
7
  6
BYLAYER
 10
829.0841999874
 20
2235.9119502866
 11
835.9109947839
 21
2235.9119502866
  0
LINE
  5
2BE
100
AcDbEntity
  8
0
100
AcDbLine
 62
7
  6
BYLAYER
 10
841.2574051909
 20
2235.9119502866
 11
875.9109947839
 21
2235.9119502866
  0
LINE
  5
2BF
100
AcDbEntity
  8
0
100
AcDbLine
 62
7
  6
BYLAYER
 10
836.284284086
 20
2236.0119502866
 11
840.8841073883
 21
2236.0119502866
  0
LINE
  5
2C0
100
AcDbEntity
  8
0
100
AcDbLine
 62
7
  6
BYLAYER
 10
876.284284086
 20
2236.0119502866
 11
880.8841073883
 21
2236.0119502866
  0
LINE
  5
2C1
100
AcDbEntity
  8
0
100
AcDbLine
 62
7
  6
BYLAYER
 10
852.8341999874
 20
2236.1119502866
 11
837.3341999874
 21
2236.1119502866
  0
LINE
  5
2C2
100
AcDbEntity
  8
0
100
AcDbLine
 62
7
  6
BYLAYER
 10
837.3341999874
 20
2236.9119502866
 11
852.8341999874
 21
2236.9119502866
  0
LINE
  5
2C3
100
AcDbEntity
  8
0
100
AcDbLine
 62
7
  6
BYLAYER
 10
875.3341356906
 20
2237.4119502866
 11
859.8342642842
 21
2237.4119502866
  0
LINE
  5
2C4
100
AcDbEntity
  8
0
100
AcDbLine
 62
7
  6
BYLAYER
 10
837.3342642842
 20
2237.4119502866
 11
852.8341356906
 21
2237.4119502866
  0
LINE
  5
2C5
100
AcDbEntity
  8
0
100
AcDbLine
 62
7
  6
BYLAYER
 10
851.0841934041
 20
2238.4119502866
 11
839.0842065708
 21
2238.4119502866
  0
LINE
  5
2C6
100
AcDbEntity
  8
0
100
AcDbLine
 62
7
  6
BYLAYER
 10
875.3341999874
 20
2240.4119502866
 11
859.8341999874
 21
2240.4119502866
  0
LINE
  5
2C7
100
AcDbEntity
  8
0
100
AcDbLine
 62
7
  6
BYLAYER
 10
852.8341999874
 20
2240.4119502866
 11
851.0841999874
 21
2240.4119502866
  0
LINE
  5
2C8
100
AcDbEntity
  8
0
100
AcDbLine
 62
7
  6
BYLAYER
 10
839.0841999874
 20
2240.4119502866
 11
837.3341999874
 21
2240.4119502866
  0
LINE
  5
2C9
100
AcDbEntity
  8
0
100
AcDbLine
 62
7
  6
BYLAYER
 10
837.3341999874
 20
2241.9119502866
 11
839.0841999874
 21
2241.9119502866
  0
LINE
  5
2CA
100
AcDbEntity
  8
0
100
AcDbLine
 62
7
  6
BYLAYER
 10
851.0841999874
 20
2241.9119502866
 11
852.8341999874
 21
2241.9119502866
  0
LINE
  5
2CB
100
AcDbEntity
  8
0
100
AcDbLine
 62
7
  6
BYLAYER
 10
859.8341999874
 20
2241.9119502866
 11
875.3341999874
 21
2241.9119502866
  0
LINE
  5
2CC
100
AcDbEntity
  8
0
100
AcDbLine
 62
7
  6
BYLAYER
 10
837.8341999874
 20
2242.4119502866
 11
839.0841999874
 21
2242.4119502866
  0
LINE
  5
2CD
100
AcDbEntity
  8
0
100
AcDbLine
 62
7
  6
BYLAYER
 10
851.0841999874
 20
2242.4119502866
 11
852.3341999874
 21
2242.4119502866
  0
LINE
  5
2CE
100
AcDbEntity
  8
0
100
AcDbLine
 62
7
  6
BYLAYER
 10
860.3341999874
 20
2242.4119502866
 11
874.8341999874
 21
2242.4119502866
  0
LINE
  5
2CF
100
AcDbEntity
  8
0
100
AcDbLine
 62
7
  6
BYLAYER
 10
863.4579399874
 20
2243.6119502866
 11
871.7079399874
 21
2243.6119502866
  0
LINE
  5
2D0
100
AcDbEntity
  8
0
100
AcDbLine
 62
7
  6
BYLAYER
 10
863.7578796195
 20
2243.9119502866
 11
871.4079618787
 21
2243.9119502866
  0
LINE
  5
2D1
100
AcDbEntity
  8
0
100
AcDbLine
 62
7
  6
BYLAYER
 10
839.0841999874
 20
2245.9119493492
 11
851.0841999874
 21
2245.9119493492
  0
LINE
  5
2D2
100
AcDbEntity
  8
0
100
AcDbLine
 62
7
  6
BYLAYER
 10
839.5841994232
 20
2246.4119502866
 11
850.5842005517
 21
2246.4119502866
  0
ARC
  5
2D3
100
AcDbEntity
  8
0
100
AcDbCircle
 62
7
  6
BYLAYER
 10
840.8844526034
 20
203.3119502866
 40
1.0
100
AcDbArc
 50
270.0
 51
360.0
  0
ARC
  5
2D4
100
AcDbEntity
  8
0
100
AcDbCircle
 62
7
  6
BYLAYER
 10
836.2844526034
 20
203.3119502866
 40
1.0
100
AcDbArc
 50
180.0
 51
270.0
  0
ARC
  5
2D5
100
AcDbEntity
  8
0
100
AcDbCircle
 62
7
  6
BYLAYER
 10
850.5844407246
 20
203.4118401481
 40
1.0
100
AcDbArc
 50
270.0
 51
360.0
  0
ARC
  5
2D6
100
AcDbEntity
  8
0
100
AcDbCircle
 62
7
  6
BYLAYER
 10
834.0844407246
 20
203.4118401481
 40
1.0
100
AcDbArc
 50
270.0000000004
 51
359.9999999998
  0
ARC
  5
2D7
100
AcDbEntity
  8
0
100
AcDbCircle
 62
7
  6
BYLAYER
 10
843.0844407246
 20
203.4118401481
 40
1.0
100
AcDbArc
 50
180.0
 51
270.0
  0
ARC
  5
2D8
100
AcDbEntity
  8
0
100
AcDbCircle
 62
7
  6
BYLAYER
 10
829.0844407246
 20
203.4118401481
 40
1.0
100
AcDbArc
 50
180.0000000002
 51
270.0000000009
  0
ARC
  5
2D9
100
AcDbEntity
  8
0
100
AcDbCircle
 62
7
  6
BYLAYER
 10
835.5844407246
 20
204.4118401481
 40
0.5
100
AcDbArc
 50
90.0
 51
180.0
  0
ARC
  5
2DA
100
AcDbEntity
  8
0
100
AcDbCircle
 62
7
  6
BYLAYER
 10
841.5844407246
 20
204.4118401481
 40
0.5
100
AcDbArc
 50
0.0
 51
90.0
  0
ARC
  5
2DB
100
AcDbEntity
  8
0
100
AcDbCircle
 62
7
  6
BYLAYER
 10
855.3576376411
 20
190.8373117877
 40
25.9492027617
100
AcDbArc
 50
146.3763608958
 51
146.9196802524
  0
ARC
  5
2DC
100
AcDbEntity
  8
0
100
AcDbCircle
 62
7
  6
BYLAYER
 10
876.2844407246
 20
203.3119502866
 40
1.0
100
AcDbArc
 50
180.0
 51
270.0
  0
ARC
  5
2DD
100
AcDbEntity
  8
0
100
AcDbCircle
 62
7
  6
BYLAYER
 10
874.0844407246
 20
203.4118401481
 40
1.0
100
AcDbArc
 50
270.0
 51
360.0
  0
ARC
  5
2DE
100
AcDbEntity
  8
0
100
AcDbCircle
 62
7
  6
BYLAYER
 10
860.5844407246
 20
203.4118401481
 40
1.0
100
AcDbArc
 50
179.9999999984
 51
270.0
  0
ARC
  5
2DF
100
AcDbEntity
  8
0
100
AcDbCircle
 62
7
  6
BYLAYER
 10
875.5844407246
 20
204.4118401481
 40
0.5
100
AcDbArc
 50
90.0
 51
180.0
  0
ARC
  5
2E0
100
AcDbEntity
  8
0
100
AcDbCircle
 62
7
  6
BYLAYER
 10
840.8841999874
 20
2235.0119502866
 40
1.0
100
AcDbArc
 50
0.0
 51
90.0
  0
ARC
  5
2E1
100
AcDbEntity
  8
0
100
AcDbCircle
 62
7
  6
BYLAYER
 10
836.2841999874
 20
2235.0119502866
 40
1.0
100
AcDbArc
 50
90.0
 51
180.0
  0
ARC
  5
2E2
100
AcDbEntity
  8
0
100
AcDbCircle
 62
7
  6
BYLAYER
 10
843.0841999874
 20
2234.9119502866
 40
1.0
100
AcDbArc
 50
90.0
 51
180.0
  0
ARC
  5
2E3
100
AcDbEntity
  8
0
100
AcDbCircle
 62
7
  6
BYLAYER
 10
850.5841999874
 20
2234.9119502866
 40
1.0
100
AcDbArc
 50
0.0
 51
90.0
  0
ARC
  5
2E4
100
AcDbEntity
  8
0
100
AcDbCircle
 62
7
  6
BYLAYER
 10
829.0841999874
 20
2234.9119502866
 40
1.0
100
AcDbArc
 50
90.0000000017
 51
180.0000000003
  0
ARC
  5
2E5
100
AcDbEntity
  8
0
100
AcDbCircle
 62
7
  6
BYLAYER
 10
834.0841999874
 20
2234.9119502866
 40
1.0
100
AcDbArc
 50
0.0
 51
90.0
  0
ARC
  5
2E6
100
AcDbEntity
  8
0
100
AcDbCircle
 62
7
  6
BYLAYER
 10
835.5841999874
 20
2233.9119502866
 40
0.5
100
AcDbArc
 50
180.0
 51
270.0
  0
ARC
  5
2E7
100
AcDbEntity
  8
0
100
AcDbCircle
 62
7
  6
BYLAYER
 10
841.5841999874
 20
2233.9119502866
 40
0.5
100
AcDbArc
 50
270.0
 51
360.0
  0
ARC
  5
2E8
100
AcDbEntity
  8
0
100
AcDbCircle
 62
7
  6
BYLAYER
 10
876.2841999874
 20
2235.0119502866
 40
1.0
100
AcDbArc
 50
90.0
 51
180.0
  0
ARC
  5
2E9
100
AcDbEntity
  8
0
100
AcDbCircle
 62
7
  6
BYLAYER
 10
874.0841999874
 20
2234.9119502866
 40
1.0
100
AcDbArc
 50
0.0
 51
90.0
  0
ARC
  5
2EA
100
AcDbEntity
  8
0
100
AcDbCircle
 62
7
  6
BYLAYER
 10
860.5841999874
 20
2234.9119502866
 40
1.0
100
AcDbArc
 50
90.0
 51
180.0000000008
  0
ARC
  5
2EB
100
AcDbEntity
  8
0
100
AcDbCircle
 62
7
  6
BYLAYER
 10
875.5841999874
 20
2233.9119502866
 40
0.5
100
AcDbArc
 50
180.0
 51
270.0
  0
ARC
  5
2EC
100
AcDbEntity
  8
0
100
AcDbCircle
 62
7
  6
BYLAYER
 10
853.0841999874
 20
2232.4119502866
 40
0.5
100
AcDbArc
 50
257.8531473856
 51
77.8531473856
  0
ARC
  5
2ED
100
AcDbEntity
  8
0
100
AcDbCircle
 62
7
  6
BYLAYER
 10
859.5841999874
 20
2232.4119502866
 40
0.5
100
AcDbArc
 50
102.1803352402
 51
282.1803352402
  0
ARC
  5
2EE
100
AcDbEntity
  8
0
100
AcDbCircle
 62
7
  6
BYLAYER
 10
855.3573973818
 20
2247.4864789609
 40
25.9492033335
100
AcDbArc
 50
213.0803197524
 51
213.623639097
  0
ARC
  5
2EF
100
AcDbEntity
  8
0
100
AcDbCircle
 62
7
  6
BYLAYER
 10
863.7579399874
 20
2243.6119502866
 40
0.3
100
AcDbArc
 50
90.0
 51
180.0
  0
ARC
  5
2F0
100
AcDbEntity
  8
0
100
AcDbCircle
 62
7
  6
BYLAYER
 10
871.4079399874
 20
2243.6119502866
 40
0.3
100
AcDbArc
 50
0.0
 51
90.0
  0
ARC
  5
2F1
100
AcDbEntity
  8
4
100
AcDbCircle
 62
7
  6
BYLAYER
 10
928.3258608024
 20
292.2601254098
 40
5.0
100
AcDbArc
 50
0.0
 51
90.0
  0
ARC
  5
2F2
100
AcDbEntity
  8
4
100
AcDbCircle
 62
7
  6
BYLAYER
 10
928.3258608024
 20
252.2601254098
 40
5.0
100
AcDbArc
 50
270.0
 51
360.0
  0
ARC
  5
2F3
100
AcDbEntity
  8
4
100
AcDbCircle
 62
7
  6
BYLAYER
 10
928.3258608024
 20
1199.5442662496
 40
5.0
100
AcDbArc
 50
270.0000000001
 51
360.0
  0
ARC
  5
2F4
100
AcDbEntity
  8
4
100
AcDbCircle
 62
7
  6
BYLAYER
 10
925.1258608024
 20
287.2601254098
 40
3.25
100
AcDbArc
 50
270.0
 51
90.0
  0
ARC
  5
2F5
100
AcDbEntity
  8
4
100
AcDbCircle
 62
7
  6
BYLAYER
 10
911.6258608024
 20
287.2601254098
 40
3.25
100
AcDbArc
 50
90.0
 51
270.0
  0
ARC
  5
2F6
100
AcDbEntity
  8
4
100
AcDbCircle
 62
7
  6
BYLAYER
 10
911.6258608024
 20
257.2601254098
 40
3.25
100
AcDbArc
 50
90.0
 51
270.0
  0
ARC
  5
2F7
100
AcDbEntity
  8
4
100
AcDbCircle
 62
7
  6
BYLAYER
 10
925.1258608024
 20
257.2601254098
 40
3.25
100
AcDbArc
 50
270.0
 51
90.0
  0
ARC
  5
2F8
100
AcDbEntity
  8
4
100
AcDbCircle
 62
7
  6
BYLAYER
 10
911.6258608024
 20
1204.5442662496
 40
3.25
100
AcDbArc
 50
90.0
 51
270.0
  0
ARC
  5
2F9
100
AcDbEntity
  8
4
100
AcDbCircle
 62
7
  6
BYLAYER
 10
925.1258608024
 20
1204.5442662496
 40
3.25
100
AcDbArc
 50
270.0
 51
90.0
  0
ARC
  5
2FA
100
AcDbEntity
  8
0
100
AcDbCircle
 62
7
  6
BYLAYER
 10
880.8844407246
 20
203.3119502866
 40
1.0
100
AcDbArc
 50
270.0
 51
360.0
  0
ARC
  5
2FB
100
AcDbEntity
  8
0
100
AcDbCircle
 62
7
  6
BYLAYER
 10
882.0844407246
 20
203.4118401481
 40
1.0
100
AcDbArc
 50
270.0
 51
359.9999999999
  0
ARC
  5
2FC
100
AcDbEntity
  8
0
100
AcDbCircle
 62
7
  6
BYLAYER
 10
882.5844407246
 20
205.4118401481
 40
0.5
100
AcDbArc
 50
270.0
 51
360.0
  0
ARC
  5
2FD
100
AcDbEntity
  8
4
100
AcDbCircle
 62
7
  6
BYLAYER
 10
928.3258608024
 20
1239.5442662496
 40
5.0
100
AcDbArc
 50
0.0
 51
90.0
  0
ARC
  5
2FE
100
AcDbEntity
  8
4
100
AcDbCircle
 62
7
  6
BYLAYER
 10
928.3258608024
 20
2188.5950278707
 40
5.0
100
AcDbArc
 50
0.0
 51
90.0
  0
ARC
  5
2FF
100
AcDbEntity
  8
4
100
AcDbCircle
 62
7
  6
BYLAYER
 10
928.3258608024
 20
2148.5950278707
 40
5.0
100
AcDbArc
 50
270.0
 51
360.0
  0
ARC
  5
300
100
AcDbEntity
  8
4
100
AcDbCircle
 62
7
  6
BYLAYER
 10
925.1258608024
 20
1234.5442662496
 40
3.25
100
AcDbArc
 50
270.0
 51
90.0
  0
ARC
  5
301
100
AcDbEntity
  8
4
100
AcDbCircle
 62
7
  6
BYLAYER
 10
911.6258608024
 20
1234.5442662496
 40
3.25
100
AcDbArc
 50
90.0
 51
270.0
  0
ARC
  5
302
100
AcDbEntity
  8
4
100
AcDbCircle
 62
7
  6
BYLAYER
 10
925.1258608024
 20
2183.5950278707
 40
3.25
100
AcDbArc
 50
270.0
 51
90.0
  0
ARC
  5
303
100
AcDbEntity
  8
4
100
AcDbCircle
 62
7
  6
BYLAYER
 10
911.6258608024
 20
2183.5950278707
 40
3.25
100
AcDbArc
 50
90.0
 51
270.0
  0
ARC
  5
304
100
AcDbEntity
  8
4
100
AcDbCircle
 62
7
  6
BYLAYER
 10
911.6258608024
 20
2153.5950278707
 40
3.25
100
AcDbArc
 50
90.0
 51
270.0
  0
ARC
  5
305
100
AcDbEntity
  8
4
100
AcDbCircle
 62
7
  6
BYLAYER
 10
925.1258608024
 20
2153.5950278707
 40
3.25
100
AcDbArc
 50
270.0
 51
90.0
  0
ARC
  5
306
100
AcDbEntity
  8
0
100
AcDbCircle
 62
7
  6
BYLAYER
 10
880.8841999874
 20
2235.0119502866
 40
1.0
100
AcDbArc
 50
0.0
 51
90.0
  0
ARC
  5
307
100
AcDbEntity
  8
0
100
AcDbCircle
 62
7
  6
BYLAYER
 10
882.0841999874
 20
2234.9119502866
 40
1.0
100
AcDbArc
 50
0.0
 51
90.0
  0
ARC
  5
308
100
AcDbEntity
  8
0
100
AcDbCircle
 62
7
  6
BYLAYER
 10
882.5841999874
 20
2232.9119502866
 40
0.5
100
AcDbArc
 50
0.0
 51
90.0
  0
SPLINE
  5
309
100
AcDbEntity
  8
0
100
AcDbSpline
 62
7
  6
BYLAYER
 70
0
 71
3
 72
11
 73
7
 74
0
 42
0.0000001
 43
0.0000001
 44
0.0000000001
 40
0.0
 40
0.0
 40
0.0
 40
0.0
 40
0.2478324097
 40
0.4979557222
 40
0.7486362922
 40
1.0
 40
1.0
 40
1.0
 40
1.0
 10
843.0844407246
 20
204.4118401481
 30
0.0
 10
843.0844404563
 20
204.575961568
 30
0.0
 10
842.9522809081
 20
204.9060402259
 30
0.0
 10
842.5647639035
 20
205.2325686304
 30
0.0
 10
842.0861976579
 20
205.4053143594
 30
0.0
 10
841.750900667
 20
205.4118401559
 30
0.0
 10
841.5844407246
 20
205.4118401481
 30
0.0
  0
SPLINE
  5
30A
100
AcDbEntity
  8
0
100
AcDbSpline
 62
7
  6
BYLAYER
 70
0
 71
3
 72
11
 73
7
 74
0
 42
0.0000001
 43
0.0000001
 44
0.0000000001
 40
0.0
 40
0.0
 40
0.0
 40
0.0
 40
0.3404385698
 40
0.6266185405
 40
0.8401374976
 40
1.0
 40
1.0
 40
1.0
 40
1.0
 10
860.0844421478
 20
203.4118401481
 30
0.0
 10
860.0844421482
 20
203.27523913
 30
0.0
 10
860.1093036621
 20
203.0225913399
 30
0.0
 10
860.2170532324
 20
202.700328012
 30
0.0
 10
860.3715334973
 20
202.4774233028
 30
0.0
 10
860.5202988183
 20
202.4118546414
 30
0.0
 10
860.5844436654
 20
202.4118401477
 30
0.0
  0
SPLINE
  5
30B
100
AcDbEntity
  8
0
100
AcDbSpline
 62
7
  6
BYLAYER
 70
0
 71
3
 72
11
 73
7
 74
0
 42
0.0000001
 43
0.0000001
 44
0.0000000001
 40
0.0
 40
0.0
 40
0.0
 40
0.0
 40
0.1598605771
 40
0.3733762137
 40
0.6595504004
 40
1.0
 40
1.0
 40
1.0
 40
1.0
 10
850.5844386903
 20
202.4118401478
 30
0.0
 10
850.6485827715
 20
202.4118532782
 30
0.0
 10
850.797346181
 20
202.4774223564
 30
0.0
 10
850.9518254953
 20
202.7003210278
 30
0.0
 10
851.0595781045
 20
203.0225847336
 30
0.0
 10
851.0844395388
 20
203.275234691
 30
0.0
 10
851.0844401838
 20
203.4118401481
 30
0.0
  0
SPLINE
  5
30C
100
AcDbEntity
  8
0
100
AcDbSpline
 62
7
  6
BYLAYER
 70
0
 71
3
 72
11
 73
7
 74
0
 42
0.0000001
 43
0.0000001
 44
0.0000000001
 40
0.0
 40
0.0
 40
0.0
 40
0.0
 40
0.2478327053
 40
0.4979558062
 40
0.7486361583
 40
1.0
 40
1.0
 40
1.0
 40
1.0
 10
874.0844407246
 20
204.4118401481
 30
0.0
 10
874.0844411601
 20
204.5759617636
 30
0.0
 10
874.2166006384
 20
204.9060404775
 30
0.0
 10
874.6041177514
 20
205.2325686545
 30
0.0
 10
875.0826837417
 20
205.4053143746
 30
0.0
 10
875.4179806938
 20
205.4118401895
 30
0.0
 10
875.5844407246
 20
205.4118401481
 30
0.0
  0
SPLINE
  5
30D
100
AcDbEntity
  8
0
100
AcDbSpline
 62
7
  6
BYLAYER
 70
0
 71
3
 72
13
 73
9
 74
0
 42
0.0000001
 43
0.0000001
 44
0.0000000001
 40
0.0
 40
0.0
 40
0.0
 40
0.0
 40
0.263683202
 40
0.5741154223
 40
0.7239646888
 40
0.8563112027
 40
0.9572588386
 40
1.0
 40
1.0
 40
1.0
 40
1.0
 10
882.0844407129
 20
204.4118401481
 30
0.0
 10
882.0844408679
 20
204.4751341628
 30
0.0
 10
882.1786709993
 20
204.5975350348
 30
0.0
 10
882.3060221506
 20
204.7072872291
 30
0.0
 10
882.4167268301
 20
204.7978400292
 30
0.0
 10
882.4922166257
 20
204.8505218607
 30
0.0
 10
882.5424455356
 20
204.8934325802
 30
0.0
 10
882.578072936
 20
204.9037959634
 30
0.0
 10
882.5844407163
 20
204.9118401453
 30
0.0
  0
SPLINE
  5
30E
100
AcDbEntity
  8
0
100
AcDbSpline
 62
7
  6
BYLAYER
 70
0
 71
3
 72
11
 73
7
 74
0
 42
0.0000001
 43
0.0000001
 44
0.0000000001
 40
0.0
 40
0.0
 40
0.0
 40
0.0
 40
0.6609774156
 40
0.7828338934
 40
0.8793721578
 40
1.0
 40
1.0
 40
1.0
 40
1.0
 10
833.1723590327
 20
203.4118401481
 30
0.0
 10
833.1723590327
 20
203.1746573168
 30
0.0
 10
833.1907448912
 20
202.8905639404
 30
0.0
 10
833.2892383781
 20
202.587097495
 30
0.0
 10
833.3389001603
 20
202.4805169835
 30
0.0
 10
833.4037944863
 20
202.4118401481
 30
0.0
 10
833.4470801606
 20
202.4118401481
 30
0.0
  0
SPLINE
  5
30F
100
AcDbEntity
  8
0
100
AcDbSpline
 62
7
  6
BYLAYER
 70
0
 71
3
 72
9
 73
5
 74
0
 42
0.0000001
 43
0.0000001
 44
0.0000000001
 40
0.0
 40
0.0
 40
0.0
 40
0.0
 40
0.5196726509
 40
1.0
 40
1.0
 40
1.0
 40
1.0
 10
833.7499219414
 20
205.2062972384
 30
0.0
 10
833.9656362212
 20
205.1297940502
 30
0.0
 10
834.3867269831
 20
205.004606206
 30
0.0
 10
834.8231373815
 20
204.9118406452
 30
0.0
 10
835.0346871418
 20
204.9118401481
 30
0.0
  0
SPLINE
  5
310
100
AcDbEntity
  8
0
100
AcDbSpline
 62
7
  6
BYLAYER
 70
0
 71
3
 72
8
 73
4
 74
0
 42
0.0000001
 43
0.0000001
 44
0.0000000001
 40
0.0
 40
0.0
 40
0.0
 40
0.0
 40
1.0
 40
1.0
 40
1.0
 40
1.0
 10
833.737778892
 20
205.4118401481
 30
0.0
 10
833.737778892
 20
205.3432064519
 30
0.0
 10
833.7414837717
 20
205.2744104424
 30
0.0
 10
833.7499220008
 20
205.2062974441
 30
0.0
  0
SPLINE
  5
311
100
AcDbEntity
  8
0
100
AcDbSpline
 62
7
  6
BYLAYER
 70
0
 71
3
 72
10
 73
6
 74
0
 42
0.0000001
 43
0.0000001
 44
0.0000000001
 40
0.0
 40
0.0
 40
0.0
 40
0.0
 40
0.5485257156
 40
0.7949517469
 40
1.0
 40
1.0
 40
1.0
 40
1.0
 10
834.6721254942
 20
204.4118401481
 30
0.0
 10
834.6721255074
 20
204.5348923995
 30
0.0
 10
834.7200619139
 20
204.7227533503
 30
0.0
 10
834.8861481258
 20
204.8831075673
 30
0.0
 10
834.9886881108
 20
204.9118401485
 30
0.0
 10
835.0346871378
 20
204.9118401481
 30
0.0
  0
SPLINE
  5
312
100
AcDbEntity
  8
0
100
AcDbSpline
 62
7
  6
BYLAYER
 70
0
 71
3
 72
10
 73
6
 74
0
 42
0.0000001
 43
0.0000001
 44
0.0000000001
 40
0.0
 40
0.0
 40
0.0
 40
0.0
 40
0.2114258548
 40
0.4596612947
 40
1.0
 40
1.0
 40
1.0
 40
1.0
 10
834.6721254951
 20
204.4118401481
 30
0.0
 10
834.585724492
 20
204.4118407346
 30
0.0
 10
834.4004303845
 20
204.4675951095
 30
0.0
 10
834.0414901288
 20
204.6609768138
 30
0.0
 10
833.7812843348
 20
204.855882193
 30
0.0
 10
833.6146385904
 20
205.0007547401
 30
0.0
  0
SPLINE
  5
313
100
AcDbEntity
  8
0
100
AcDbSpline
 62
7
  6
BYLAYER
 70
0
 71
3
 72
8
 73
4
 74
0
 42
0.0000001
 43
0.0000001
 44
0.0000000001
 40
0.0
 40
0.0
 40
0.0
 40
0.0
 40
1.0
 40
1.0
 40
1.0
 40
1.0
 10
833.6146384965
 20
205.0007546321
 30
0.0
 10
833.4627524631
 20
205.1328228464
 30
0.0
 10
833.3160728185
 20
205.2709226887
 30
0.0
 10
833.1723589384
 20
205.4118400441
 30
0.0
  0
SPLINE
  5
314
100
AcDbEntity
  8
0
100
AcDbSpline
 62
7
  6
BYLAYER
 70
0
 71
3
 72
8
 73
4
 74
0
 42
0.0000001
 43
0.0000001
 44
0.0000000001
 40
0.0
 40
0.0
 40
0.0
 40
0.0
 40
1.0
 40
1.0
 40
1.0
 40
1.0
 10
833.1723590327
 20
205.4118401481
 30
0.0
 10
833.3641603554
 20
205.3413363588
 30
0.0
 10
833.5564351272
 20
205.2720345069
 30
0.0
 10
833.7499220008
 20
205.2062974441
 30
0.0
  0
SPLINE
  5
315
100
AcDbEntity
  8
0
100
AcDbSpline
 62
7
  6
BYLAYER
 70
0
 71
3
 72
11
 73
7
 74
0
 42
0.0000001
 43
0.0000001
 44
0.0000000001
 40
0.0
 40
0.0
 40
0.0
 40
0.0
 40
0.120571506
 40
0.2170399303
 40
0.3388564874
 40
1.0
 40
1.0
 40
1.0
 40
1.0
 10
829.8097195967
 20
202.4118401481
 30
0.0
 10
829.7664540433
 20
202.4118401481
 30
0.0
 10
829.7015836979
 20
202.4804547899
 30
0.0
 10
829.6519258979
 20
202.5869785246
 30
0.0
 10
829.5533845075
 20
202.8904498468
 30
0.0
 10
829.5349984688
 20
203.1745971968
 30
0.0
 10
829.5349984688
 20
203.4118401481
 30
0.0
  0
SPLINE
  5
316
100
AcDbEntity
  8
0
100
AcDbSpline
 62
7
  6
BYLAYER
 70
0
 71
3
 72
8
 73
4
 74
0
 42
0.0000001
 43
0.0000001
 44
0.0000000001
 40
0.0
 40
0.0
 40
0.0
 40
0.0
 40
1.0
 40
1.0
 40
1.0
 40
1.0
 10
833.1721181634
 20
2232.9119504324
 30
0.0
 10
833.3158320819
 20
2233.0528677492
 30
0.0
 10
833.4625116892
 20
2233.1909676299
 30
0.0
 10
833.6143977217
 20
2233.3230358459
 30
0.0
  0
SPLINE
  5
317
100
AcDbEntity
  8
0
100
AcDbSpline
 62
7
  6
BYLAYER
 70
0
 71
3
 72
8
 73
4
 74
0
 42
0.0000001
 43
0.0000001
 44
0.0000000001
 40
0.0
 40
0.0
 40
0.0
 40
0.0
 40
1.0
 40
1.0
 40
1.0
 40
1.0
 10
833.1721182956
 20
2232.9119502866
 30
0.0
 10
833.3639196353
 20
2232.9824540295
 30
0.0
 10
833.5561943864
 20
2233.0517559383
 30
0.0
 10
833.7496812636
 20
2233.1174929906
 30
0.0
  0
SPLINE
  5
318
100
AcDbEntity
  8
0
100
AcDbSpline
 62
7
  6
BYLAYER
 70
0
 71
3
 72
10
 73
6
 74
0
 42
0.0000001
 43
0.0000001
 44
0.0000000001
 40
0.0
 40
0.0
 40
0.0
 40
0.0
 40
0.2114262679
 40
0.4596614222
 40
1.0
 40
1.0
 40
1.0
 40
1.0
 10
834.6718847786
 20
2233.9119502866
 30
0.0
 10
834.5854836059
 20
2233.9119497042
 30
0.0
 10
834.4001894569
 20
2233.8561952126
 30
0.0
 10
834.0412492328
 20
2233.6628134815
 30
0.0
 10
833.7810435467
 20
2233.467908224
 30
0.0
 10
833.6143978532
 20
2233.3230356946
 30
0.0
  0
SPLINE
  5
319
100
AcDbEntity
  8
0
100
AcDbSpline
 62
7
  6
BYLAYER
 70
0
 71
3
 72
10
 73
6
 74
0
 42
0.0000001
 43
0.0000001
 44
0.0000000001
 40
0.0
 40
0.0
 40
0.0
 40
0.0
 40
0.2050482569
 40
0.451474289
 40
1.0
 40
1.0
 40
1.0
 40
1.0
 10
835.0344464186
 20
2233.4119502866
 30
0.0
 10
834.9884473908
 20
2233.4119502863
 30
0.0
 10
834.8859074045
 20
2233.4406828673
 30
0.0
 10
834.7198211922
 20
2233.6010370847
 30
0.0
 10
834.6718847884
 20
2233.7888980362
 30
0.0
 10
834.6718847774
 20
2233.9119502866
 30
0.0
  0
SPLINE
  5
31A
100
AcDbEntity
  8
0
100
AcDbSpline
 62
7
  6
BYLAYER
 70
0
 71
3
 72
9
 73
5
 74
0
 42
0.0000001
 43
0.0000001
 44
0.0000000001
 40
0.0
 40
0.0
 40
0.0
 40
0.0
 40
0.480327371
 40
1.0
 40
1.0
 40
1.0
 40
1.0
 10
835.034446398
 20
2233.4119502866
 30
0.0
 10
834.822896629
 20
2233.4119497918
 30
0.0
 10
834.3864862324
 20
2233.3191842309
 30
0.0
 10
833.9653954699
 20
2233.1939963946
 30
0.0
 10
833.7496812011
 20
2233.1174932071
 30
0.0
  0
SPLINE
  5
31B
100
AcDbEntity
  8
0
100
AcDbSpline
 62
7
  6
BYLAYER
 70
0
 71
3
 72
8
 73
4
 74
0
 42
0.0000001
 43
0.0000001
 44
0.0000000001
 40
0.0
 40
0.0
 40
0.0
 40
0.0
 40
1.0
 40
1.0
 40
1.0
 40
1.0
 10
833.7496812636
 20
2233.1174929906
 30
0.0
 10
833.7412430345
 20
2233.0493799923
 30
0.0
 10
833.7375381548
 20
2232.9805839828
 30
0.0
 10
833.7375381548
 20
2232.9119502866
 30
0.0
  0
SPLINE
  5
31C
100
AcDbEntity
  8
0
100
AcDbSpline
 62
7
  6
BYLAYER
 70
0
 71
3
 72
11
 73
7
 74
0
 42
0.0000001
 43
0.0000001
 44
0.0000000001
 40
0.0
 40
0.0
 40
0.0
 40
0.0
 40
0.3404385908
 40
0.6266185619
 40
0.8401375074
 40
1.0
 40
1.0
 40
1.0
 40
1.0
 10
851.0841986797
 20
2234.9119502866
 30
0.0
 10
851.0841986793
 20
2235.0485513154
 30
0.0
 10
851.059337162
 20
2235.3011991185
 30
0.0
 10
850.9515875833
 20
2235.6234624533
 30
0.0
 10
850.7971073113
 20
2235.8463671557
 30
0.0
 10
850.6483419888
 20
2235.9119357991
 30
0.0
 10
850.5841971445
 20
2235.9119502871
 30
0.0
  0
SPLINE
  5
31D
100
AcDbEntity
  8
0
100
AcDbSpline
 62
7
  6
BYLAYER
 70
0
 71
3
 72
11
 73
7
 74
0
 42
0.0000001
 43
0.0000001
 44
0.0000000001
 40
0.0
 40
0.0
 40
0.0
 40
0.0
 40
0.1598605678
 40
0.3733761936
 40
0.6595503807
 40
1.0
 40
1.0
 40
1.0
 40
1.0
 10
860.5842019293
 20
2235.911950287
 30
0.0
 10
860.5200578509
 20
2235.9119371619
 30
0.0
 10
860.3712944399
 20
2235.8463681007
 30
0.0
 10
860.216815119
 20
2235.6234694357
 30
0.0
 10
860.1090625018
 20
2235.3012057235
 30
0.0
 10
860.0842010643
 20
2235.0485557538
 30
0.0
 10
860.0842004194
 20
2234.9119502867
 30
0.0
  0
SPLINE
  5
31E
100
AcDbEntity
  8
0
100
AcDbSpline
 62
7
  6
BYLAYER
 70
0
 71
3
 72
13
 73
9
 74
0
 42
0.0000001
 43
0.0000001
 44
0.0000000001
 40
0.0
 40
0.0
 40
0.0
 40
0.0
 40
0.0427411614
 40
0.1436887974
 40
0.2760353114
 40
0.425884578
 40
0.7363167985
 40
1.0
 40
1.0
 40
1.0
 40
1.0
 10
882.58419998
 20
2233.4119502895
 30
0.0
 10
882.5778319535
 20
2233.4199942764
 30
0.0
 10
882.5422050764
 20
2233.4303580739
 30
0.0
 10
882.4919757587
 20
2233.4732684705
 30
0.0
 10
882.4164861377
 20
2233.5259504404
 30
0.0
 10
882.305781387
 20
2233.616503184
 30
0.0
 10
882.1784302723
 20
2233.7262554071
 30
0.0
 10
882.0842001324
 20
2233.8486562721
 30
0.0
 10
882.0841999775
 20
2233.9119502866
 30
0.0
  0
SPLINE
  5
31F
100
AcDbEntity
  8
0
100
AcDbSpline
 62
7
  6
BYLAYER
 70
0
 71
3
 72
11
 73
7
 74
0
 42
0.0000001
 43
0.0000001
 44
0.0000000001
 40
0.0
 40
0.0
 40
0.0
 40
0.0
 40
0.2478325037
 40
0.497955658
 40
0.7486362695
 40
1.0
 40
1.0
 40
1.0
 40
1.0
 10
874.0841999874
 20
2233.9119502866
 30
0.0
 10
874.0842004231
 20
2233.7478288044
 30
0.0
 10
874.2163597494
 20
2233.4177501845
 30
0.0
 10
874.60387684
 20
2233.091221822
 30
0.0
 10
875.0824429881
 20
2232.9184760848
 30
0.0
 10
875.41774003
 20
2232.9119502452
 30
0.0
 10
875.5841999874
 20
2232.9119502866
 30
0.0
  0
SPLINE
  5
320
100
AcDbEntity
  8
0
100
AcDbSpline
 62
7
  6
BYLAYER
 70
0
 71
3
 72
11
 73
7
 74
0
 42
0.0000001
 43
0.0000001
 44
0.0000000001
 40
0.0
 40
0.0
 40
0.0
 40
0.0
 40
0.2478327053
 40
0.4979558062
 40
0.7486361583
 40
1.0
 40
1.0
 40
1.0
 40
1.0
 10
843.0841999874
 20
2233.9119502866
 30
0.0
 10
843.0841995518
 20
2233.7478286711
 30
0.0
 10
842.9520400737
 20
2233.4177499572
 30
0.0
 10
842.5645229605
 20
2233.0912217802
 30
0.0
 10
842.0859569703
 20
2232.9184760602
 30
0.0
 10
841.7506600182
 20
2232.9119502452
 30
0.0
 10
841.5841999874
 20
2232.9119502866
 30
0.0
  0
SPLINE
  5
321
100
AcDbEntity
  8
0
100
AcDbSpline
 62
7
  6
BYLAYER
 70
0
 71
3
 72
11
 73
7
 74
0
 42
0.0000001
 43
0.0000001
 44
0.0000000001
 40
0.0
 40
0.0
 40
0.0
 40
0.0
 40
0.6609774156
 40
0.7828338934
 40
0.8793721578
 40
1.0
 40
1.0
 40
1.0
 40
1.0
 10
829.5347577316
 20
2234.9119502866
 30
0.0
 10
829.5347577316
 20
2235.1491331179
 30
0.0
 10
829.55314359
 20
2235.4332264944
 30
0.0
 10
829.651637077
 20
2235.7366929398
 30
0.0
 10
829.7012988592
 20
2235.8432734512
 30
0.0
 10
829.7661931852
 20
2235.9119502866
 30
0.0
 10
829.8094788595
 20
2235.9119502866
 30
0.0
  0
SPLINE
  5
322
100
AcDbEntity
  8
0
100
AcDbSpline
 62
7
  6
BYLAYER
 70
0
 71
3
 72
11
 73
7
 74
0
 42
0.0000001
 43
0.0000001
 44
0.0000000001
 40
0.0
 40
0.0
 40
0.0
 40
0.0
 40
0.120571506
 40
0.2170399303
 40
0.3388564874
 40
1.0
 40
1.0
 40
1.0
 40
1.0
 10
833.4468394235
 20
2235.9119502866
 30
0.0
 10
833.4035738701
 20
2235.9119502866
 30
0.0
 10
833.3387035247
 20
2235.8433356448
 30
0.0
 10
833.2890457247
 20
2235.7368119101
 30
0.0
 10
833.1905043343
 20
2235.433340588
 30
0.0
 10
833.1721182956
 20
2235.1491932379
 30
0.0
 10
833.1721182956
 20
2234.9119502866
 30
0.0
  0
SPLINE
  5
323
100
AcDbEntity
  8
0
100
AcDbSpline
 62
7
  6
BYLAYER
 70
0
 71
3
 72
16
 73
12
 74
0
 42
0.0000001
 43
0.0000001
 44
0.0000000001
 40
0.0
 40
0.0
 40
0.0
 40
0.0
 40
0.0660819509
 40
0.1837076052
 40
0.3386899351
 40
0.5123359223
 40
0.6837013925
 40
0.8321172397
 40
0.9396824817
 40
0.9934236715
 40
1.0
 40
1.0
 40
1.0
 40
1.0
 10
845.1008175995
 20
2232.9007560356
 30
0.0
 10
845.1010254461
 20
2232.8789360151
 30
0.0
 10
845.101200298
 20
2232.818282714
 30
0.0
 10
845.1014672898
 20
2232.7063652164
 30
0.0
 10
845.1015858489
 20
2232.5594378053
 30
0.0
 10
845.1016965254
 20
2232.392468509
 30
0.0
 10
845.1014063936
 20
2232.236233606
 30
0.0
 10
845.1018926302
 20
2232.075291829
 30
0.0
 10
845.1001676432
 20
2232.018132347
 30
0.0
 10
845.1020716089
 20
2231.8974539141
 30
0.0
 10
845.1004068767
 20
2231.9209730578
 30
0.0
 10
845.1003861923
 20
2231.9231445376
 30
0.0
  0
SPLINE
  5
324
100
AcDbEntity
  8
0
100
AcDbSpline
 62
7
  6
BYLAYER
 70
0
 71
3
 72
16
 73
12
 74
0
 42
0.0000001
 43
0.0000001
 44
0.0000000001
 40
0.0
 40
0.0
 40
0.0
 40
0.0
 40
0.0660819509
 40
0.1837076052
 40
0.3386899351
 40
0.5123359223
 40
0.6837013925
 40
0.8321172397
 40
0.9396824817
 40
0.9934236715
 40
1.0
 40
1.0
 40
1.0
 40
1.0
 10
845.0675823753
 20
2232.9007560356
 30
0.0
 10
845.0673745287
 20
2232.8789360151
 30
0.0
 10
845.0671996769
 20
2232.818282714
 30
0.0
 10
845.066932685
 20
2232.7063652164
 30
0.0
 10
845.0668141259
 20
2232.5594378053
 30
0.0
 10
845.0667034494
 20
2232.392468509
 30
0.0
 10
845.0669935812
 20
2232.236233606
 30
0.0
 10
845.0665073446
 20
2232.075291829
 30
0.0
 10
845.0682323316
 20
2232.018132347
 30
0.0
 10
845.0663283659
 20
2231.8974539141
 30
0.0
 10
845.0679930981
 20
2231.9209730578
 30
0.0
 10
845.0680137825
 20
2231.9231445376
 30
0.0
  0
SPLINE
  5
325
100
AcDbEntity
  8
0
100
AcDbSpline
 62
7
  6
BYLAYER
 70
0
 71
3
 72
16
 73
12
 74
0
 42
0.0000001
 43
0.0000001
 44
0.0000000001
 40
0.0
 40
0.0
 40
0.0
 40
0.0
 40
0.0660819509
 40
0.1837076052
 40
0.3386899351
 40
0.5123359223
 40
0.6837013925
 40
0.8321172397
 40
0.9396824817
 40
0.9934236715
 40
1.0
 40
1.0
 40
1.0
 40
1.0
 10
845.1008175995
 20
2232.9007560356
 30
0.0
 10
845.1010254461
 20
2232.8789360151
 30
0.0
 10
845.101200298
 20
2232.818282714
 30
0.0
 10
845.1014672898
 20
2232.7063652164
 30
0.0
 10
845.1015858489
 20
2232.5594378053
 30
0.0
 10
845.1016965254
 20
2232.392468509
 30
0.0
 10
845.1014063936
 20
2232.236233606
 30
0.0
 10
845.1018926302
 20
2232.075291829
 30
0.0
 10
845.1001676432
 20
2232.018132347
 30
0.0
 10
845.1020716089
 20
2231.8974539141
 30
0.0
 10
845.1004068767
 20
2231.9209730578
 30
0.0
 10
845.1003861923
 20
2231.9231445376
 30
0.0
  0
SPLINE
  5
326
100
AcDbEntity
  8
0
100
AcDbSpline
 62
7
  6
BYLAYER
 70
0
 71
3
 72
16
 73
12
 74
0
 42
0.0000001
 43
0.0000001
 44
0.0000000001
 40
0.0
 40
0.0
 40
0.0
 40
0.0
 40
0.0660819509
 40
0.1837076052
 40
0.3386899351
 40
0.5123359223
 40
0.6837013925
 40
0.8321172397
 40
0.9396824817
 40
0.9934236715
 40
1.0
 40
1.0
 40
1.0
 40
1.0
 10
845.0675823753
 20
2232.9007560356
 30
0.0
 10
845.0673745287
 20
2232.8789360151
 30
0.0
 10
845.0671996769
 20
2232.818282714
 30
0.0
 10
845.066932685
 20
2232.7063652164
 30
0.0
 10
845.0668141259
 20
2232.5594378053
 30
0.0
 10
845.0667034494
 20
2232.392468509
 30
0.0
 10
845.0669935812
 20
2232.236233606
 30
0.0
 10
845.0665073446
 20
2232.075291829
 30
0.0
 10
845.0682323316
 20
2232.018132347
 30
0.0
 10
845.0663283659
 20
2231.8974539141
 30
0.0
 10
845.0679930981
 20
2231.9209730578
 30
0.0
 10
845.0680137825
 20
2231.9231445376
 30
0.0
  0
SPLINE
  5
327
100
AcDbEntity
  8
0
100
AcDbSpline
 62
7
  6
BYLAYER
 70
0
 71
3
 72
16
 73
12
 74
0
 42
0.0000001
 43
0.0000001
 44
0.0000000001
 40
0.0
 40
0.0
 40
0.0
 40
0.0
 40
0.066109371
 40
0.1837553808
 40
0.338748546
 40
0.5123945412
 40
0.6837491914
 40
0.8321446955
 40
0.9396825251
 40
0.9933925399
 40
1.0
 40
1.0
 40
1.0
 40
1.0
 10
867.567582196
 20
2232.9007372037
 30
0.0
 10
867.5673744388
 20
2232.8789075901
 30
0.0
 10
867.5671994955
 20
2232.8182370235
 30
0.0
 10
867.5669326247
 20
2232.7062974168
 30
0.0
 10
867.5668139926
 20
2232.5593560127
 30
0.0
 10
867.5667037698
 20
2232.3923831122
 30
0.0
 10
867.5669925504
 20
2232.2361521789
 30
0.0
 10
867.5665105858
 20
2232.0752352713
 30
0.0
 10
867.5682257233
 20
2232.0180710722
 30
0.0
 10
867.5663361778
 20
2231.8974438604
 30
0.0
 10
867.567993197
 20
2231.9209815563
 30
0.0
 10
867.5680139618
 20
2231.9231633695
 30
0.0
  0
SPLINE
  5
328
100
AcDbEntity
  8
0
100
AcDbSpline
 62
7
  6
BYLAYER
 70
0
 71
3
 72
16
 73
12
 74
0
 42
0.0000001
 43
0.0000001
 44
0.0000000001
 40
0.0
 40
0.0
 40
0.0
 40
0.0
 40
0.066109371
 40
0.1837553808
 40
0.338748546
 40
0.5123945412
 40
0.6837491914
 40
0.8321446955
 40
0.9396825251
 40
0.9933925399
 40
1.0
 40
1.0
 40
1.0
 40
1.0
 10
867.6008177788
 20
2232.9007372037
 30
0.0
 10
867.6010255361
 20
2232.8789075901
 30
0.0
 10
867.6012004793
 20
2232.8182370235
 30
0.0
 10
867.6014673501
 20
2232.7062974168
 30
0.0
 10
867.6015859822
 20
2232.5593560127
 30
0.0
 10
867.601696205
 20
2232.3923831122
 30
0.0
 10
867.6014074245
 20
2232.2361521789
 30
0.0
 10
867.601889389
 20
2232.0752352713
 30
0.0
 10
867.6001742515
 20
2232.0180710722
 30
0.0
 10
867.602063797
 20
2231.8974438604
 30
0.0
 10
867.6004067778
 20
2231.9209815563
 30
0.0
 10
867.600386013
 20
2231.9231633695
 30
0.0
  0
SPLINE
  5
329
100
AcDbEntity
  8
0
100
AcDbSpline
 62
7
  6
BYLAYER
 70
0
 71
3
 72
16
 73
12
 74
0
 42
0.0000001
 43
0.0000001
 44
0.0000000001
 40
0.0
 40
0.0
 40
0.0
 40
0.0
 40
0.0661715043
 40
0.1838636386
 40
0.3388813558
 40
0.5125273691
 40
0.6838575011
 40
0.8322069082
 40
0.9396826219
 40
0.9933219952
 40
1.0
 40
1.0
 40
1.0
 40
1.0
 10
867.5675817897
 20
2232.9006944699
 30
0.0
 10
867.5673742344
 20
2232.8788431194
 30
0.0
 10
867.5671990852
 20
2232.8181334337
 30
0.0
 10
867.5669324874
 20
2232.7061437378
 30
0.0
 10
867.5668136932
 20
2232.5591706403
 30
0.0
 10
867.5667044854
 20
2232.3921895942
 30
0.0
 10
867.5669902519
 20
2232.235967669
 30
0.0
 10
867.5665178227
 20
2232.0751071516
 30
0.0
 10
867.5682109832
 20
2232.0179322609
 30
0.0
 10
867.5663536156
 20
2231.8974211489
 30
0.0
 10
867.5679934217
 20
2231.9210008728
 30
0.0
 10
867.5680143681
 20
2231.9232061034
 30
0.0
  0
SPLINE
  5
32A
100
AcDbEntity
  8
0
100
AcDbSpline
 62
7
  6
BYLAYER
 70
0
 71
3
 72
16
 73
12
 74
0
 42
0.0000001
 43
0.0000001
 44
0.0000000001
 40
0.0
 40
0.0
 40
0.0
 40
0.0
 40
0.0661715043
 40
0.1838636386
 40
0.3388813558
 40
0.5125273691
 40
0.6838575011
 40
0.8322069082
 40
0.9396826219
 40
0.9933219952
 40
1.0
 40
1.0
 40
1.0
 40
1.0
 10
867.6008181851
 20
2232.9006944699
 30
0.0
 10
867.6010257404
 20
2232.8788431194
 30
0.0
 10
867.6012008896
 20
2232.8181334337
 30
0.0
 10
867.6014674875
 20
2232.7061437378
 30
0.0
 10
867.6015862817
 20
2232.5591706403
 30
0.0
 10
867.6016954895
 20
2232.3921895942
 30
0.0
 10
867.6014097229
 20
2232.235967669
 30
0.0
 10
867.6018821522
 20
2232.0751071516
 30
0.0
 10
867.6001889916
 20
2232.0179322609
 30
0.0
 10
867.6020463592
 20
2231.8974211489
 30
0.0
 10
867.6004065531
 20
2231.9210008728
 30
0.0
 10
867.6003856067
 20
2231.9232061034
 30
0.0
  0
SPLINE
  5
32B
100
AcDbEntity
  8
0
100
AcDbSpline
 62
7
  6
BYLAYER
 70
0
 71
3
 72
16
 73
12
 74
0
 42
0.0000001
 43
0.0000001
 44
0.0000000001
 40
0.0
 40
0.0
 40
0.0
 40
0.0
 40
0.0660819509
 40
0.1837076052
 40
0.3386899351
 40
0.5123359223
 40
0.6837013925
 40
0.8321172397
 40
0.9396824817
 40
0.9934236715
 40
1.0
 40
1.0
 40
1.0
 40
1.0
 10
845.1008175995
 20
2232.9007560356
 30
0.0
 10
845.1010254461
 20
2232.8789360151
 30
0.0
 10
845.101200298
 20
2232.818282714
 30
0.0
 10
845.1014672898
 20
2232.7063652164
 30
0.0
 10
845.1015858489
 20
2232.5594378053
 30
0.0
 10
845.1016965254
 20
2232.392468509
 30
0.0
 10
845.1014063936
 20
2232.236233606
 30
0.0
 10
845.1018926302
 20
2232.075291829
 30
0.0
 10
845.1001676432
 20
2232.018132347
 30
0.0
 10
845.1020716089
 20
2231.8974539141
 30
0.0
 10
845.1004068767
 20
2231.9209730578
 30
0.0
 10
845.1003861923
 20
2231.9231445376
 30
0.0
  0
SPLINE
  5
32C
100
AcDbEntity
  8
0
100
AcDbSpline
 62
7
  6
BYLAYER
 70
0
 71
3
 72
16
 73
12
 74
0
 42
0.0000001
 43
0.0000001
 44
0.0000000001
 40
0.0
 40
0.0
 40
0.0
 40
0.0
 40
0.0660819509
 40
0.1837076052
 40
0.3386899351
 40
0.5123359223
 40
0.6837013925
 40
0.8321172397
 40
0.9396824817
 40
0.9934236715
 40
1.0
 40
1.0
 40
1.0
 40
1.0
 10
845.0675823753
 20
2232.9007560356
 30
0.0
 10
845.0673745287
 20
2232.8789360151
 30
0.0
 10
845.0671996769
 20
2232.818282714
 30
0.0
 10
845.066932685
 20
2232.7063652164
 30
0.0
 10
845.0668141259
 20
2232.5594378053
 30
0.0
 10
845.0667034494
 20
2232.392468509
 30
0.0
 10
845.0669935812
 20
2232.236233606
 30
0.0
 10
845.0665073446
 20
2232.075291829
 30
0.0
 10
845.0682323316
 20
2232.018132347
 30
0.0
 10
845.0663283659
 20
2231.8974539141
 30
0.0
 10
845.0679930981
 20
2231.9209730578
 30
0.0
 10
845.0680137825
 20
2231.9231445376
 30
0.0
  0
SPLINE
  5
32D
100
AcDbEntity
  8
0
100
AcDbSpline
 62
7
  6
BYLAYER
 70
0
 71
3
 72
16
 73
12
 74
0
 42
0.0000001
 43
0.0000001
 44
0.0000000001
 40
0.0
 40
0.0
 40
0.0
 40
0.0
 40
0.0660819509
 40
0.1837076052
 40
0.3386899351
 40
0.5123359223
 40
0.6837013925
 40
0.8321172397
 40
0.9396824817
 40
0.9934236715
 40
1.0
 40
1.0
 40
1.0
 40
1.0
 10
845.1008175995
 20
2232.9007560356
 30
0.0
 10
845.1010254461
 20
2232.8789360151
 30
0.0
 10
845.101200298
 20
2232.818282714
 30
0.0
 10
845.1014672898
 20
2232.7063652164
 30
0.0
 10
845.1015858489
 20
2232.5594378053
 30
0.0
 10
845.1016965254
 20
2232.392468509
 30
0.0
 10
845.1014063936
 20
2232.236233606
 30
0.0
 10
845.1018926302
 20
2232.075291829
 30
0.0
 10
845.1001676432
 20
2232.018132347
 30
0.0
 10
845.1020716089
 20
2231.8974539141
 30
0.0
 10
845.1004068767
 20
2231.9209730578
 30
0.0
 10
845.1003861923
 20
2231.9231445376
 30
0.0
  0
SPLINE
  5
32E
100
AcDbEntity
  8
0
100
AcDbSpline
 62
7
  6
BYLAYER
 70
0
 71
3
 72
16
 73
12
 74
0
 42
0.0000001
 43
0.0000001
 44
0.0000000001
 40
0.0
 40
0.0
 40
0.0
 40
0.0
 40
0.0660819509
 40
0.1837076052
 40
0.3386899351
 40
0.5123359223
 40
0.6837013925
 40
0.8321172397
 40
0.9396824817
 40
0.9934236715
 40
1.0
 40
1.0
 40
1.0
 40
1.0
 10
845.0675823753
 20
2232.9007560356
 30
0.0
 10
845.0673745287
 20
2232.8789360151
 30
0.0
 10
845.0671996769
 20
2232.818282714
 30
0.0
 10
845.066932685
 20
2232.7063652164
 30
0.0
 10
845.0668141259
 20
2232.5594378053
 30
0.0
 10
845.0667034494
 20
2232.392468509
 30
0.0
 10
845.0669935812
 20
2232.236233606
 30
0.0
 10
845.0665073446
 20
2232.075291829
 30
0.0
 10
845.0682323316
 20
2232.018132347
 30
0.0
 10
845.0663283659
 20
2231.8974539141
 30
0.0
 10
845.0679930981
 20
2231.9209730578
 30
0.0
 10
845.0680137825
 20
2231.9231445376
 30
0.0
  0
SPLINE
  5
32F
100
AcDbEntity
  8
0
100
AcDbSpline
 62
7
  6
BYLAYER
 70
0
 71
3
 72
16
 73
12
 74
0
 42
0.0000001
 43
0.0000001
 44
0.0000000001
 40
0.0
 40
0.0
 40
0.0
 40
0.0
 40
0.066109371
 40
0.1837553808
 40
0.338748546
 40
0.5123945412
 40
0.6837491914
 40
0.8321446955
 40
0.9396825251
 40
0.9933925399
 40
1.0
 40
1.0
 40
1.0
 40
1.0
 10
867.567582196
 20
2232.9007372037
 30
0.0
 10
867.5673744388
 20
2232.8789075901
 30
0.0
 10
867.5671994955
 20
2232.8182370235
 30
0.0
 10
867.5669326247
 20
2232.7062974168
 30
0.0
 10
867.5668139926
 20
2232.5593560127
 30
0.0
 10
867.5667037698
 20
2232.3923831122
 30
0.0
 10
867.5669925504
 20
2232.2361521789
 30
0.0
 10
867.5665105858
 20
2232.0752352713
 30
0.0
 10
867.5682257233
 20
2232.0180710722
 30
0.0
 10
867.5663361778
 20
2231.8974438604
 30
0.0
 10
867.567993197
 20
2231.9209815563
 30
0.0
 10
867.5680139618
 20
2231.9231633695
 30
0.0
  0
SPLINE
  5
330
100
AcDbEntity
  8
0
100
AcDbSpline
 62
7
  6
BYLAYER
 70
0
 71
3
 72
16
 73
12
 74
0
 42
0.0000001
 43
0.0000001
 44
0.0000000001
 40
0.0
 40
0.0
 40
0.0
 40
0.0
 40
0.066109371
 40
0.1837553808
 40
0.338748546
 40
0.5123945412
 40
0.6837491914
 40
0.8321446955
 40
0.9396825251
 40
0.9933925399
 40
1.0
 40
1.0
 40
1.0
 40
1.0
 10
867.6008177788
 20
2232.9007372037
 30
0.0
 10
867.6010255361
 20
2232.8789075901
 30
0.0
 10
867.6012004793
 20
2232.8182370235
 30
0.0
 10
867.6014673501
 20
2232.7062974168
 30
0.0
 10
867.6015859822
 20
2232.5593560127
 30
0.0
 10
867.601696205
 20
2232.3923831122
 30
0.0
 10
867.6014074245
 20
2232.2361521789
 30
0.0
 10
867.601889389
 20
2232.0752352713
 30
0.0
 10
867.6001742515
 20
2232.0180710722
 30
0.0
 10
867.602063797
 20
2231.8974438604
 30
0.0
 10
867.6004067778
 20
2231.9209815563
 30
0.0
 10
867.600386013
 20
2231.9231633695
 30
0.0
  0
SPLINE
  5
331
100
AcDbEntity
  8
0
100
AcDbSpline
 62
7
  6
BYLAYER
 70
0
 71
3
 72
16
 73
12
 74
0
 42
0.0000001
 43
0.0000001
 44
0.0000000001
 40
0.0
 40
0.0
 40
0.0
 40
0.0
 40
0.0661715043
 40
0.1838636386
 40
0.3388813558
 40
0.5125273691
 40
0.6838575011
 40
0.8322069082
 40
0.9396826219
 40
0.9933219952
 40
1.0
 40
1.0
 40
1.0
 40
1.0
 10
867.5675817897
 20
2232.9006944699
 30
0.0
 10
867.5673742344
 20
2232.8788431194
 30
0.0
 10
867.5671990852
 20
2232.8181334337
 30
0.0
 10
867.5669324874
 20
2232.7061437378
 30
0.0
 10
867.5668136932
 20
2232.5591706403
 30
0.0
 10
867.5667044854
 20
2232.3921895942
 30
0.0
 10
867.5669902519
 20
2232.235967669
 30
0.0
 10
867.5665178227
 20
2232.0751071516
 30
0.0
 10
867.5682109832
 20
2232.0179322609
 30
0.0
 10
867.5663536156
 20
2231.8974211489
 30
0.0
 10
867.5679934217
 20
2231.9210008728
 30
0.0
 10
867.5680143681
 20
2231.9232061034
 30
0.0
  0
SPLINE
  5
332
100
AcDbEntity
  8
0
100
AcDbSpline
 62
7
  6
BYLAYER
 70
0
 71
3
 72
16
 73
12
 74
0
 42
0.0000001
 43
0.0000001
 44
0.0000000001
 40
0.0
 40
0.0
 40
0.0
 40
0.0
 40
0.0661715043
 40
0.1838636386
 40
0.3388813558
 40
0.5125273691
 40
0.6838575011
 40
0.8322069082
 40
0.9396826219
 40
0.9933219952
 40
1.0
 40
1.0
 40
1.0
 40
1.0
 10
867.6008181851
 20
2232.9006944699
 30
0.0
 10
867.6010257404
 20
2232.8788431194
 30
0.0
 10
867.6012008896
 20
2232.8181334337
 30
0.0
 10
867.6014674875
 20
2232.7061437378
 30
0.0
 10
867.6015862817
 20
2232.5591706403
 30
0.0
 10
867.6016954895
 20
2232.3921895942
 30
0.0
 10
867.6014097229
 20
2232.235967669
 30
0.0
 10
867.6018821522
 20
2232.0751071516
 30
0.0
 10
867.6001889916
 20
2232.0179322609
 30
0.0
 10
867.6020463592
 20
2231.8974211489
 30
0.0
 10
867.6004065531
 20
2231.9210008728
 30
0.0
 10
867.6003856067
 20
2231.9232061034
 30
0.0
  0
ENDSEC
  0
SECTION
  2
OBJECTS
  0
DICTIONARY
  5
C
100
AcDbDictionary
280
0
281
1
  3
ACAD_GROUP
350
D
  3
ACAD_MLINESTYLE
350
17
  3
ACAD_LAYOUT
350
1A
  3
ACAD_PLOTSETTINGS
350
19
  3
ACAD_PLOTSTYLENAME
350
E
  0
DICTIONARY
  5
D
102
{ACAD_REACTORS
330
C
102
}
100
AcDbDictionary
280
0
281
1
  0
ACDBDICTIONARYWDFLT
  5
E
102
{ACAD_REACTORS
330
C
102
}
100
AcDbDictionary
281
1
  3
Normal
350
F
100
AcDbDictionaryWithDefault
340
F
  0
DICTIONARY
  5
17
102
{ACAD_REACTORS
330
C
102
}
100
AcDbDictionary
280
0
281
1
  3
Standard
350
18
  0
DICTIONARY
  5
19
102
{ACAD_REACTORS
330
C
102
}
100
AcDbDictionary
281
1
  0
DICTIONARY
  5
1A
102
{ACAD_REACTORS
330
C
102
}
100
AcDbDictionary
281
1
  3
Model
350
333
  3
Layout1
350
334
  0
ACDBPLACEHOLDER
  5
F
102
{ACAD_REACTORS
330
E
102
}
  0
MLINESTYLE
  5
18
102
{ACAD_REACTORS
330
17
102
}
100
AcDbMlineStyle
  2
STANDARD
 70
0
  3

 62
256
 51
90.0
 52
90.0
 71
2
 49
0.5
 62
256
  6
BYLAYER
 49
-0.5
 62
256
  6
BYLAYER
  0
LAYOUT
  5
333
102
{ACAD_REACTORS
330
1A
102
}
100
AcDbPlotSettings
  1

  2
none_device
  4

  6

 40
0.0
 41
0.0
 42
0.0
 43
0.0
 44
210.0
 45
297.0
 46
0.0
 47
0.0
 48
0.0
 49
0.0
140
0.0
141
0.0
142
1.0
143
1.0
 70
1024
 72
1
 73
0
 74
0
  7

 75
0
147
1.0
148
0.0
149
0.0
100
AcDbLayout
  1
Model
 70
0
 71
0
 10
0.0
 20
0.0
 11
210.0
 21
297.0
 12
0.0
 22
0.0
 32
0.0
 14
0.0
 24
0.0
 34
0.0
 15
0.0
 25
0.0
 35
0.0
146
0.0
 13
0.0
 23
0.0
 33
0.0
 16
1.0
 26
0.0
 36
0.0
 17
0.0
 27
1.0
 37
0.0
 76
0
330
212
345
0
346
0
  0
LAYOUT
  5
334
102
{ACAD_REACTORS
330
1A
102
}
100
AcDbPlotSettings
  1

  2
none_device
  4

  6

 40
0.0
 41
0.0
 42
0.0
 43
0.0
 44
210.0
 45
297.0
 46
0.0
 47
0.0
 48
0.0
 49
0.0
140
0.0
141
0.0
142
1.0
143
1.0
 70
0
 72
1
 73
0
 74
0
  7

 75
0
147
1.0
148
0.0
149
0.0
100
AcDbLayout
  1
Layout1
 70
0
 71
1
 10
0.0
 20
0.0
 11
210.0
 21
297.0
 12
0.0
 22
0.0
 32
0.0
 14
0.0
 24
0.0
 34
0.0
 15
0.0
 25
0.0
 35
0.0
146
0.0
 13
0.0
 23
0.0
 33
0.0
 16
1.0
 26
0.0
 36
0.0
 17
0.0
 27
1.0
 37
0.0
 76
0
330
213
345
0
346
0
  0
ENDSEC
  0
EOF
