999
DXF file: C:\Users\sesa63760\Dev\_Creo\CAD\MCADID0004838_3D-CAD\drw0001_1.dxf
999
Pro/ENGINEER 2019471 by Parametric Technology Corporation
  0
SECTION
  2
HEADER
  9
$ACADVER
  1
AC1024
  9
$DWGCODEPAGE
  3
ANSI_1252
  9
$EXTMAX
 10
63.8057127088
 20
90.2395079738
 30
0.0
  9
$EXTMIN
 10
0.0
 20
0.0
 30
0.0
  9
$LIMMIN
 10
0.0
 20
0.0
  9
$LIMMAX
 10
63.8057127088
 20
90.2395079738
  9
$VIEWCTR
 10
31.9028563544
 20
45.1197539869
  9
$VIEWSIZE
 40
90.2395079738
  9
$CLAYER
  8
0
  9
$LTSCALE
 40
5.8822790383
  9
$CELTYPE
  6
BYLAYER
  9
$DIMSCALE
 40
1.0
  9
$DIMASZ
 40
0.759591818
  9
$DIMEXO
 40
1.0
  9
$DIMDLI
 40
4.0641200628
  9
$DIMEXE
 40
1.0
  9
$DIMCEN
 40
0.9625547517
  9
$DIMLFAC
 40
1.0
  9
$DIMBLK
  1
_FILLED
  9
$DIMALT
 70
0
  9
$DIMALTF
 40
0.0393700787
  9
$DIMTXT
 40
1.0634285451
  9
$DIMTOL
 70
1
  9
$DIMLIM
 70
0
  9
$DIMTFAC
 40
1.0
  9
$DIMTP
 40
0.01
  9
$DIMTM
 40
0.01
  9
$DIMGAP
 40
0.625
  9
$DIMDSEP
 70
46
  9
$AUNITS
 70
0
  9
$PDMODE
 70
3
  9
$PDSIZE
 40
0.3125
  9
$HANDSEED
  5
350
  9
$TILEMODE
 70
1
  9
$MEASUREMENT
 70
1
  9
$INSUNITS
 70
4
  0
ENDSEC
  0
SECTION
  2
CLASSES
  0
CLASS
  1
ACDBDICTIONARYWDFLT
  2
AcDbDictionaryWithDefault
  3
AutoCAD 2000
 90
0
 91
1
280
0
281
0
  0
CLASS
  1
ACDBPLACEHOLDER
  2
AcDbPlaceHolder
  3
AutoCAD 2000
 90
0
 91
1
280
0
281
0
  0
CLASS
  1
LAYOUT
  2
AcDbLayout
  3
AutoCAD 2000
 90
0
 91
0
280
0
281
0
  0
ENDSEC
  0
SECTION
  2
TABLES
  0
TABLE
  2
VPORT
  5
8
100
AcDbSymbolTable
 70
2
  0
VPORT
  5
1F4
100
AcDbSymbolTableRecord
100
AcDbViewportTableRecord
  2
*ACTIVE
 70
0
 10
0.0
 20
0.0
 11
1.0
 21
1.0
 12
31.9028563544
 22
45.1197539869
 13
0.0
 23
0.0
 14
1.0
 24
1.0
 15
0.0
 25
0.0
 16
0.0
 26
0.0
 36
1.0
 17
0.0
 27
0.0
 37
0.0
 40
90.2395079738
 41
0.7070707071
 42
50.0
 43
0.0
 44
0.0
 50
0.0
 51
0.0
 71
0
 72
100
 73
1
 74
1
 75
0
 76
0
 77
0
 78
0
  0
ENDTAB
  0
TABLE
  2
LTYPE
  5
5
100
AcDbSymbolTable
 70
6
  0
LTYPE
  5
14
100
AcDbSymbolTableRecord
100
AcDbLinetypeTableRecord
  2
BYBLOCK
 70
0
  3

 72
65
 73
0
 40
0.0
  0
LTYPE
  5
15
100
AcDbSymbolTableRecord
100
AcDbLinetypeTableRecord
  2
BYLAYER
 70
0
  3

 72
65
 73
0
 40
0.0
  0
LTYPE
  5
16
100
AcDbSymbolTableRecord
100
AcDbLinetypeTableRecord
  2
CONTINUOUS
 70
64
  3
Solid line
 72
65
 73
0
 40
0.0
  0
LTYPE
  5
1F5
100
AcDbSymbolTableRecord
100
AcDbLinetypeTableRecord
  2
CENTER
 70
64
  3
____ _ ____ _ ____ _ ____ _ ____ _ ____ _ ____
 72
65
 73
4
 40
0.6
 49
0.375
 74
0
 49
-0.075
 74
0
 49
0.075
 74
0
 49
-0.075
 74
0
  0
LTYPE
  5
1F6
100
AcDbSymbolTableRecord
100
AcDbLinetypeTableRecord
  2
HIDDEN
 70
64
  3
- - - - - - - - - - - - - - - - - - - -
 72
65
 73
2
 40
0.2
 49
0.1
 74
0
 49
-0.1
 74
0
  0
LTYPE
  5
1F7
100
AcDbSymbolTableRecord
100
AcDbLinetypeTableRecord
  2
PHANTOM
 70
64
  3
_____ _ _ _____ _ _ _____ _ _ _____
 72
65
 73
6
 40
0.8
 49
0.45
 74
0
 49
-0.05
 74
0
 49
0.1
 74
0
 49
-0.05
 74
0
 49
0.1
 74
0
 49
-0.05
 74
0
  0
LTYPE
  5
1F8
100
AcDbSymbolTableRecord
100
AcDbLinetypeTableRecord
  2
DOT
 70
64
  3
. . . . . . . . . . . . . . . . . . . .
 72
65
 73
2
 40
0.2
 49
0.1
 74
0
 49
-0.1
 74
0
  0
LTYPE
  5
1F9
100
AcDbSymbolTableRecord
100
AcDbLinetypeTableRecord
  2
DASHED
 70
64
  3
- - - - - - - - - - - - - - - - - - - -
 72
65
 73
2
 40
0.2
 49
0.1
 74
0
 49
-0.1
 74
0
  0
ENDTAB
  0
TABLE
  2
LAYER
  5
2
100
AcDbSymbolTable
 70
36
  0
LAYER
  5
10
100
AcDbSymbolTableRecord
100
AcDbLayerTableRecord
  2
0
 70
0
 62
7
  6
CONTINUOUS
370
-3
390
F
  0
LAYER
  5
1FA
100
AcDbSymbolTableRecord
100
AcDbLayerTableRecord
  2
DEFAULT_1
 70
0
 62
7
  6
CENTER
370
-3
390
F
  0
LAYER
  5
1FB
100
AcDbSymbolTableRecord
100
AcDbLayerTableRecord
  2
DEFAULT_2
 70
0
 62
7
  6
HIDDEN
370
-3
390
F
  0
LAYER
  5
1FC
100
AcDbSymbolTableRecord
100
AcDbLayerTableRecord
  2
DEFAULT_3
 70
0
 62
7
  6
PHANTOM
370
-3
390
F
  0
LAYER
  5
1FD
100
AcDbSymbolTableRecord
100
AcDbLayerTableRecord
  2
00_COMPONENTS
 70
0
 62
7
  6
CONTINUOUS
370
-3
390
F
  0
LAYER
  5
1FE
100
AcDbSymbolTableRecord
100
AcDbLayerTableRecord
  2
01_1_DEFAULT_DATUMS
 70
0
 62
7
  6
CONTINUOUS
370
-3
390
F
  0
LAYER
  5
1FF
100
AcDbSymbolTableRecord
100
AcDbLayerTableRecord
  2
01_PLANES
 70
0
 62
7
  6
CONTINUOUS
370
-3
390
F
  0
LAYER
  5
200
100
AcDbSymbolTableRecord
100
AcDbLayerTableRecord
  2
02_COORD_SYS
 70
0
 62
7
  6
CONTINUOUS
370
-3
390
F
  0
LAYER
  5
201
100
AcDbSymbolTableRecord
100
AcDbLayerTableRecord
  2
03_AXES
 70
0
 62
7
  6
CONTINUOUS
370
-3
390
F
  0
LAYER
  5
202
100
AcDbSymbolTableRecord
100
AcDbLayerTableRecord
  2
04_POINTS
 70
0
 62
7
  6
CONTINUOUS
370
-3
390
F
  0
LAYER
  5
203
100
AcDbSymbolTableRecord
100
AcDbLayerTableRecord
  2
05_CURVES
 70
0
 62
7
  6
CONTINUOUS
370
-3
390
F
  0
LAYER
  5
204
100
AcDbSymbolTableRecord
100
AcDbLayerTableRecord
  2
06_SURFS
 70
0
 62
7
  6
CONTINUOUS
370
-3
390
F
  0
LAYER
  5
205
100
AcDbSymbolTableRecord
100
AcDbLayerTableRecord
  2
07_COSMETICS
 70
0
 62
7
  6
CONTINUOUS
370
-3
390
F
  0
LAYER
  5
206
100
AcDbSymbolTableRecord
100
AcDbLayerTableRecord
  2
10_NOTES
 70
0
 62
7
  6
CONTINUOUS
370
-3
390
F
  0
LAYER
  5
207
100
AcDbSymbolTableRecord
100
AcDbLayerTableRecord
  2
11_NOTES_PUB
 70
0
 62
7
  6
CONTINUOUS
370
-3
390
F
  0
LAYER
  5
208
100
AcDbSymbolTableRecord
100
AcDbLayerTableRecord
  2
13_REF_GTOL
 70
0
 62
7
  6
CONTINUOUS
370
-3
390
F
  0
LAYER
  5
209
100
AcDbSymbolTableRecord
100
AcDbLayerTableRecord
  2
16_MISC
 70
0
 62
7
  6
CONTINUOUS
370
-3
390
F
  0
LAYER
  5
20A
100
AcDbSymbolTableRecord
100
AcDbLayerTableRecord
  2
17_NO_PRINT
 70
0
 62
7
  6
CONTINUOUS
370
-3
390
F
  0
LAYER
  5
20B
100
AcDbSymbolTableRecord
100
AcDbLayerTableRecord
  2
18_DATUM_CAMS_JOINTS
 70
0
 62
7
  6
CONTINUOUS
370
-3
390
F
  0
LAYER
  5
20C
100
AcDbSymbolTableRecord
100
AcDbLayerTableRecord
  2
19_DATUM_FUNCTIONAL
 70
0
 62
7
  6
CONTINUOUS
370
-3
390
F
  0
LAYER
  5
20D
100
AcDbSymbolTableRecord
100
AcDbLayerTableRecord
  2
20_DATUM_KINEMATIC_SCHEME
 70
0
 62
7
  6
CONTINUOUS
370
-3
390
F
  0
ENDTAB
  0
TABLE
  2
STYLE
  5
3
100
AcDbSymbolTable
 70
1
  0
STYLE
  5
11
100
AcDbSymbolTableRecord
100
AcDbTextStyleTableRecord
  2
STANDARD
 70
0
 40
0.0
 41
1.0
 50
0.0
 71
0
 42
0.2
  3
ARIAL.TTF
  4

  0
STYLE
  5
20E
100
AcDbSymbolTableRecord
100
AcDbTextStyleTableRecord
  2
TEXTSTYLE_1
 70
0
 40
0.0
 41
0.8
 50
0.0
 71
0
 42
0.2
  3
gdt
  4

  0
ENDTAB
  0
TABLE
  2
VIEW
  5
6
100
AcDbSymbolTable
 70
0
  0
ENDTAB
  0
TABLE
  2
UCS
  5
7
100
AcDbSymbolTable
 70
0
  0
ENDTAB
  0
TABLE
  2
APPID
  5
9
100
AcDbSymbolTable
 70
1
  0
APPID
  5
20F
100
AcDbSymbolTableRecord
100
AcDbRegAppTableRecord
  2
ACAD
 70
0
  0
ENDTAB
  0
TABLE
  2
BLOCK_RECORD
  5
1
100
AcDbSymbolTable
 70
0
  0
BLOCK_RECORD
  5
210
100
AcDbSymbolTableRecord
100
AcDbBlockTableRecord
  2
*Model_Space
  0
BLOCK_RECORD
  5
211
100
AcDbSymbolTableRecord
100
AcDbBlockTableRecord
  2
*Paper_Space
  0
BLOCK_RECORD
  5
212
100
AcDbSymbolTableRecord
100
AcDbBlockTableRecord
  2
_FILLED
  0
ENDTAB
  0
TABLE
  2
DIMSTYLE
  5
A
100
AcDbSymbolTable
 70
1
100
AcDbDimStyleTable
 71
0
  0
DIMSTYLE
105
213
100
AcDbSymbolTableRecord
100
AcDbDimStyleTableRecord
  2
STANDARD
 70
0
  3

  4

 40
1.0
 41
0.759591818
 42
1.0
 43
0.38
 44
1.0
 45
0.0
 46
0.0
 47
0.01
 48
0.01
140
1.0634285451
141
0.09
142
0.0
143
25.4
144
1.0
145
0.0
146
1.0
147
0.625
 71
1
 72
0
 73
0
 74
0
 75
0
 76
0
 77
1
 78
8
 79
2
170
0
171
1
172
0
173
0
174
0
175
0
176
0
177
0
178
0
270
2
179
2
271
2
272
2
273
2
274
2
275
0
280
0
281
0
282
0
283
1
284
8
285
0
286
0
287
3
288
0
340
11
278
46
341
212
342
212
343
212
344
212
  0
ENDTAB
  0
ENDSEC
  0
SECTION
  2
BLOCKS
  0
BLOCK
  5
20
100
AcDbEntity
  8
0
100
AcDbBlockBegin
  2
*Model_Space
 70
0
 10
0.0
 20
0.0
 30
0.0
  3
*Model_Space
  1

  0
ENDBLK
  5
21
100
AcDbEntity
  8
0
100
AcDbBlockEnd
  0
BLOCK
  5
1C
100
AcDbEntity
  8
0
100
AcDbBlockBegin
  2
*Paper_Space
 70
0
 10
0.0
 20
0.0
 30
0.0
  3
*Paper_Space
  1

  0
ENDBLK
  5
1D
100
AcDbEntity
  8
0
100
AcDbBlockEnd
  0
BLOCK
  5
214
100
AcDbEntity
  8
0
100
AcDbBlockBegin
  2
_FILLED
 70
64
 10
0.0
 20
0.0
  3
_FILLED
  1

  0
SOLID
  5
215
100
AcDbEntity
  8
0
  6
BYBLOCK
 62
0
100
AcDbTrace
 10
0.0
 20
0.0
 11
-1.0
 21
0.25
 12
-1.0
 22
-0.25
 13
-1.0
 23
-0.25
  0
ENDBLK
  5
216
100
AcDbEntity
  8
0
  6
BYBLOCK
 62
0
100
AcDbBlockEnd
  0
ENDSEC
  0
SECTION
  2
ENTITIES
  0
LINE
  5
217
100
AcDbEntity
  8
0
100
AcDbLine
 62
7
  6
BYLAYER
 10
10.4892863326
 20
70.3398809407
 11
23.788378385
 21
77.6801946302
  0
LINE
  5
218
100
AcDbEntity
  8
0
100
AcDbLine
 62
7
  6
BYLAYER
 10
24.2716005649
 20
77.621199289
 11
10.9990271076
 21
70.2955222984
  0
LINE
  5
219
100
AcDbEntity
  8
0
100
AcDbLine
 62
7
  6
BYLAYER
 10
11.5137799033
 20
69.286981365
 11
11.6461712933
 21
69.3521861072
  0
LINE
  5
21A
100
AcDbEntity
  8
0
100
AcDbLine
 62
7
  6
BYLAYER
 10
11.7606008806
 20
69.2605424831
 11
11.7845099458
 21
69.2723180558
  0
LINE
  5
21B
100
AcDbEntity
  8
0
100
AcDbLine
 62
7
  6
BYLAYER
 10
35.6332902865
 20
7.5159319208
 11
8.0563688471
 21
23.437114752
  0
LINE
  5
21C
100
AcDbEntity
  8
0
100
AcDbLine
 62
7
  6
BYLAYER
 10
35.8546194071
 20
7.9578661581
 11
7.902571972
 21
24.0956231843
  0
LINE
  5
21D
100
AcDbEntity
  8
0
100
AcDbLine
 62
7
  6
BYLAYER
 10
35.5768848152
 20
8.8756775087
 11
8.9966302469
 21
24.2214474711
  0
LWPOLYLINE
  5
21E
100
AcDbEntity
  8
0
100
AcDbPolyline
 62
7
  6
BYLAYER
 90
5
 70
0
 10
36.6314615821
 20
82.2110498807
 10
35.3393867612
 20
81.3357024242
 10
34.6606561136
 20
80.0819265934
 10
34.657802778
 20
79.3948014083
 10
35.3364152656
 20
78.1426573306
  0
LINE
  5
21F
100
AcDbEntity
  8
0
100
AcDbLine
 62
7
  6
BYLAYER
 10
35.9074201064
 20
8.8182572506
 11
35.8399229974
 21
8.8572258431
  0
LINE
  5
220
100
AcDbEntity
  8
0
100
AcDbLine
 62
7
  6
BYLAYER
 10
8.7562919146
 20
24.493613797
 11
8.6734778784
 21
24.5414254215
  0
LINE
  5
221
100
AcDbEntity
  8
0
100
AcDbLine
 62
7
  6
BYLAYER
 10
12.1466152348
 20
63.3971498847
 11
12.1325111681
 21
63.3902034207
  0
LINE
  5
222
100
AcDbEntity
  8
0
100
AcDbLine
 62
7
  6
BYLAYER
 10
29.7808097559
 20
20.4773922252
 11
29.2063585525
 21
20.4156857572
  0
LINE
  5
223
100
AcDbEntity
  8
0
100
AcDbLine
 62
7
  6
BYLAYER
 10
29.7000008856
 20
20.6588119988
 11
29.7202130077
 21
20.6609831469
  0
LINE
  5
224
100
AcDbEntity
  8
0
100
AcDbLine
 62
7
  6
BYLAYER
 10
10.712952344
 20
69.8909681299
 11
7.902571972
 21
24.0956231843
  0
LINE
  5
225
100
AcDbEntity
  8
0
100
AcDbLine
 62
7
  6
BYLAYER
 10
8.668979514
 20
24.8476774548
 11
11.3811418884
 21
69.0425532539
  0
LINE
  5
226
100
AcDbEntity
  8
0
100
AcDbLine
 62
7
  6
BYLAYER
 10
8.6734778784
 20
24.5414254215
 11
8.6864071933
 21
24.7521095131
  0
LINE
  5
227
100
AcDbEntity
  8
0
100
AcDbLine
 62
7
  6
BYLAYER
 10
11.4087057065
 20
69.1121544047
 11
11.431057551
 21
69.4763792746
  0
LINE
  5
228
100
AcDbEntity
  8
0
100
AcDbLine
 62
7
  6
BYLAYER
 10
12.1325111681
 20
63.3902034207
 11
12.3640940872
 21
67.1638633027
  0
LINE
  5
229
100
AcDbEntity
  8
0
100
AcDbLine
 62
7
  6
BYLAYER
 10
12.1466152348
 20
63.3971498847
 11
12.3773038377
 21
67.1562368222
  0
LINE
  5
22A
100
AcDbEntity
  8
0
100
AcDbLine
 62
7
  6
BYLAYER
 10
10.2386218867
 20
69.8580467197
 11
7.4021967764
 21
24.6912784349
  0
LINE
  5
22B
100
AcDbEntity
  8
0
100
AcDbLine
 62
7
  6
BYLAYER
 10
29.8820211705
 20
22.473472486
 11
29.1480001884
 21
22.3946253324
  0
LINE
  5
22C
100
AcDbEntity
  8
0
100
AcDbLine
 62
7
  6
BYLAYER
 10
28.573548985
 20
22.3329188644
 11
27.8395280029
 21
22.2540717109
  0
LINE
  5
22D
100
AcDbEntity
  8
0
100
AcDbLine
 62
7
  6
BYLAYER
 10
29.6416425215
 20
22.637751574
 11
29.0671913181
 21
22.576045106
  0
LINE
  5
22E
100
AcDbEntity
  8
0
100
AcDbLine
 62
7
  6
BYLAYER
 10
29.1289481684
 20
22.8814076557
 11
29.726200961
 21
22.9455634275
  0
LINE
  5
22F
100
AcDbEntity
  8
0
100
AcDbLine
 62
7
  6
BYLAYER
 10
27.5617091684
 20
23.0957838068
 11
28.2957301505
 21
23.1746309603
  0
LINE
  5
230
100
AcDbEntity
  8
0
100
AcDbLine
 62
7
  6
BYLAYER
 10
28.8701813539
 20
23.2363374283
 11
29.604202336
 21
23.3151845818
  0
LINE
  5
231
100
AcDbEntity
  8
0
100
AcDbLine
 62
7
  6
BYLAYER
 10
28.7893724836
 20
23.4177572019
 11
28.8095846057
 21
23.41992835
  0
LINE
  5
232
100
AcDbEntity
  8
0
100
AcDbLine
 62
7
  6
BYLAYER
 10
15.5679253586
 20
28.5554823409
 11
15.1508940594
 21
29.3525429834
  0
LINE
  5
233
100
AcDbEntity
  8
0
100
AcDbLine
 62
7
  6
BYLAYER
 10
15.6445363925
 20
29.595669225
 11
16.0452915686
 21
28.8297166964
  0
LINE
  5
234
100
AcDbEntity
  8
0
100
AcDbLine
 62
7
  6
BYLAYER
 10
17.2009025944
 20
28.1689967793
 11
16.6680292676
 21
29.1874631559
  0
LINE
  5
235
100
AcDbEntity
  8
0
100
AcDbLine
 62
7
  6
BYLAYER
 10
16.2509979684
 20
29.9845237985
 11
15.7181246417
 21
31.0029901751
  0
LINE
  5
236
100
AcDbEntity
  8
0
100
AcDbLine
 62
7
  6
BYLAYER
 10
17.1616716007
 20
29.4305893975
 11
16.7446403015
 21
30.2276500401
  0
LINE
  5
237
100
AcDbEntity
  8
0
100
AcDbLine
 62
7
  6
BYLAYER
 10
16.2010970895
 20
31.2804451671
 11
16.7339704163
 21
30.2619787905
  0
LINE
  5
238
100
AcDbEntity
  8
0
100
AcDbLine
 62
7
  6
BYLAYER
 10
17.1510017155
 20
29.4649181479
 11
17.6838750422
 21
28.4464517713
  0
LINE
  5
239
100
AcDbEntity
  8
0
100
AcDbLine
 62
7
  6
BYLAYER
 10
13.9737845935
 20
56.691422282
 11
13.5852226487
 21
50.3597781847
  0
LINE
  5
23A
100
AcDbEntity
  8
0
100
AcDbLine
 62
7
  6
BYLAYER
 10
14.1064226083
 20
56.9358503931
 11
14.120526675
 21
56.9427968571
  0
LINE
  5
23B
100
AcDbEntity
  8
0
100
AcDbLine
 62
7
  6
BYLAYER
 10
14.3532435857
 20
56.9094115112
 11
14.3673476524
 21
56.9163579753
  0
LINE
  5
23C
100
AcDbEntity
  8
0
100
AcDbLine
 62
7
  6
BYLAYER
 10
27.662920583
 20
25.0918640675
 11
28.2373717864
 21
25.1535705355
  0
LINE
  5
23D
100
AcDbEntity
  8
0
100
AcDbLine
 62
7
  6
BYLAYER
 10
31.1750250399
 20
23.1274681837
 11
28.7117081438
 21
24.8177680703
  0
LINE
  5
23E
100
AcDbEntity
  8
0
100
AcDbLine
 62
7
  6
BYLAYER
 10
28.9232691437
 20
24.921965031
 11
31.3865860398
 21
23.2316651443
  0
LINE
  5
23F
100
AcDbEntity
  8
0
100
AcDbLine
 62
7
  6
BYLAYER
 10
17.2276127494
 20
30.505105032
 11
17.6283679254
 21
29.7391525034
  0
LINE
  5
240
100
AcDbEntity
  8
0
100
AcDbLine
 62
7
  6
BYLAYER
 10
17.8340743253
 20
30.8939596056
 11
18.2511056245
 21
30.096898963
  0
LINE
  5
241
100
AcDbEntity
  8
0
100
AcDbLine
 62
7
  6
BYLAYER
 10
36.1283270785
 20
70.3453432627
 11
36.4225247215
 21
70.7113313176
  0
LINE
  5
242
100
AcDbEntity
  8
0
100
AcDbLine
 62
7
  6
BYLAYER
 10
27.5617091684
 20
23.0957838068
 11
27.8395280029
 21
22.2540717109
  0
LINE
  5
243
100
AcDbEntity
  8
0
100
AcDbLine
 62
7
  6
BYLAYER
 10
29.2063585525
 20
20.4156857572
 11
28.573548985
 21
22.3329188644
  0
LINE
  5
244
100
AcDbEntity
  8
0
100
AcDbLine
 62
7
  6
BYLAYER
 10
28.2957301505
 20
23.1746309603
 11
27.662920583
 21
25.0918640675
  0
LINE
  5
245
100
AcDbEntity
  8
0
100
AcDbLine
 62
7
  6
BYLAYER
 10
28.2171596643
 20
25.1513993874
 11
28.7893724836
 21
23.4177572019
  0
LINE
  5
246
100
AcDbEntity
  8
0
100
AcDbLine
 62
7
  6
BYLAYER
 10
29.0671913181
 20
22.576045106
 11
29.7000008856
 21
20.6588119988
  0
LINE
  5
247
100
AcDbEntity
  8
0
100
AcDbLine
 62
7
  6
BYLAYER
 10
28.2373717864
 20
25.1535705355
 11
28.8701813539
 21
23.2363374283
  0
LINE
  5
248
100
AcDbEntity
  8
0
100
AcDbLine
 62
7
  6
BYLAYER
 10
29.1480001884
 20
22.3946253324
 11
29.7808097559
 21
20.4773922252
  0
LINE
  5
249
100
AcDbEntity
  8
0
100
AcDbLine
 62
7
  6
BYLAYER
 10
29.0069495434
 20
23.25102881
 11
29.1289481684
 21
22.8814076557
  0
LINE
  5
24A
100
AcDbEntity
  8
0
100
AcDbLine
 62
7
  6
BYLAYER
 10
30.5556861947
 20
19.2310387447
 11
30.0085804249
 21
20.8886137069
  0
LINE
  5
24B
100
AcDbEntity
  8
0
100
AcDbLine
 62
7
  6
BYLAYER
 10
28.7117081438
 20
24.8177680703
 11
28.164602374
 21
26.4753430325
  0
LINE
  5
24C
100
AcDbEntity
  8
0
100
AcDbLine
 62
7
  6
BYLAYER
 10
28.3761633739
 20
26.5795399932
 11
28.9232691437
 21
24.921965031
  0
LINE
  5
24D
100
AcDbEntity
  8
0
100
AcDbLine
 62
7
  6
BYLAYER
 10
30.2201414248
 20
20.9928106675
 11
30.7672471946
 21
19.3352357053
  0
LINE
  5
24E
100
AcDbEntity
  8
0
100
AcDbLine
 62
7
  6
BYLAYER
 10
29.604202336
 20
23.3151845818
 11
29.8820211705
 21
22.473472486
  0
LINE
  5
24F
100
AcDbEntity
  8
0
100
AcDbLine
 62
7
  6
BYLAYER
 10
38.4464572609
 20
54.4490996049
 11
51.1349728809
 21
62.1119749118
  0
LINE
  5
250
100
AcDbEntity
  8
0
100
AcDbLine
 62
7
  6
BYLAYER
 10
39.1029667194
 20
53.193586461
 11
51.8578082557
 21
60.8965174562
  0
LINE
  5
251
100
AcDbEntity
  8
0
100
AcDbLine
 62
7
  6
BYLAYER
 10
38.364764514
 20
53.9265480933
 11
38.3408554489
 21
53.9147725207
  0
LINE
  5
252
100
AcDbEntity
  8
0
100
AcDbLine
 62
7
  6
BYLAYER
 10
13.9128733816
 20
49.733548201
 11
33.9947895758
 21
38.1395107726
  0
LINE
  5
253
100
AcDbEntity
  8
0
100
AcDbLine
 62
7
  6
BYLAYER
 10
34.3709501018
 20
79.2235615587
 11
34.3709501018
 21
78.8801827686
  0
LINE
  5
254
100
AcDbEntity
  8
0
100
AcDbLine
 62
7
  6
BYLAYER
 10
34.3709501018
 20
78.4072962348
 11
34.3709501018
 21
78.0633148628
  0
LINE
  5
255
100
AcDbEntity
  8
0
100
AcDbLine
 62
7
  6
BYLAYER
 10
34.3709501018
 20
77.5916279937
 11
34.3709501018
 21
77.2471236893
  0
LINE
  5
256
100
AcDbEntity
  8
0
100
AcDbLine
 62
7
  6
BYLAYER
 10
34.3709501018
 20
76.7747700421
 11
34.3709501018
 21
76.4317376775
  0
LINE
  5
257
100
AcDbEntity
  8
0
100
AcDbLine
 62
7
  6
BYLAYER
 10
34.3709501018
 20
75.9571582776
 11
34.3709501018
 21
75.6141468753
  0
LINE
  5
258
100
AcDbEntity
  8
0
100
AcDbLine
 62
7
  6
BYLAYER
 10
34.3709501018
 20
75.1417931614
 11
34.3709501018
 21
74.7972889631
  0
LINE
  5
259
100
AcDbEntity
  8
0
100
AcDbLine
 62
7
  6
BYLAYER
 10
34.3709501018
 20
74.3256020035
 11
34.3709501018
 21
73.9819207392
  0
LINE
  5
25A
100
AcDbEntity
  8
0
100
AcDbLine
 62
7
  6
BYLAYER
 10
34.3709501018
 20
73.5079515988
 11
34.3709501018
 21
71.4067540768
  0
LINE
  5
25B
100
AcDbEntity
  8
0
100
AcDbLine
 62
7
  6
BYLAYER
 10
35.1959501018
 20
79.9800294567
 11
35.1959501018
 21
79.5717782481
  0
LINE
  5
25C
100
AcDbEntity
  8
0
100
AcDbLine
 62
7
  6
BYLAYER
 10
34.374248568
 20
38.3575000018
 11
34.7628105128
 21
44.6891440991
  0
LINE
  5
25D
100
AcDbEntity
  8
0
100
AcDbLine
 62
7
  6
BYLAYER
 10
34.7769145795
 20
44.6960905631
 11
34.3883526347
 21
38.3644464659
  0
LWPOLYLINE
  5
25E
100
AcDbEntity
  8
0
100
AcDbPolyline
 62
7
  6
BYLAYER
 90
3
 70
0
 10
46.3709501018
 20
78.4723292247
 10
45.9368979019
 20
77.1283657052
 10
44.6136084527
 20
75.9199116562
  0
LWPOLYLINE
  5
25F
100
AcDbEntity
  8
0
100
AcDbPolyline
 62
7
  6
BYLAYER
 90
3
 70
0
 10
46.3709501018
 20
77.6562414757
 10
45.9159437545
 20
76.2809530538
 10
44.6136084527
 20
75.1034092391
  0
LWPOLYLINE
  5
260
100
AcDbEntity
  8
0
100
AcDbPolyline
 62
7
  6
BYLAYER
 90
3
 70
0
 10
46.3709501018
 20
76.8390909867
 10
45.9128464207
 20
75.4608233279
 10
44.6136084527
 20
74.2869068219
  0
LINE
  5
261
100
AcDbEntity
  8
0
100
AcDbLine
 62
7
  6
BYLAYER
 10
34.4492638465
 20
45.3223205469
 11
34.4351597799
 21
45.3153740828
  0
LINE
  5
262
100
AcDbEntity
  8
0
100
AcDbLine
 62
7
  6
BYLAYER
 10
34.7628105128
 20
44.6891440991
 11
34.7769145795
 21
44.6960905631
  0
LINE
  5
263
100
AcDbEntity
  8
0
100
AcDbLine
 62
7
  6
BYLAYER
 10
34.4351597799
 20
45.3153740828
 11
14.3532435857
 21
56.9094115112
  0
LINE
  5
264
100
AcDbEntity
  8
0
100
AcDbLine
 62
7
  6
BYLAYER
 10
14.3673476524
 20
56.9163579753
 11
34.4492638465
 21
45.3223205469
  0
LINE
  5
265
100
AcDbEntity
  8
0
100
AcDbLine
 62
7
  6
BYLAYER
 10
36.1283270785
 20
70.3453432627
 11
36.1283270785
 21
70.816751153
  0
LINE
  5
266
100
AcDbEntity
  8
0
100
AcDbLine
 62
7
  6
BYLAYER
 10
39.1029667194
 20
53.193586461
 11
36.3913581196
 21
7.9547569605
  0
LINE
  5
267
100
AcDbEntity
  8
0
100
AcDbLine
 62
7
  6
BYLAYER
 10
38.0251060128
 20
52.3488063211
 11
37.7935230937
 21
48.5751464392
  0
LINE
  5
268
100
AcDbEntity
  8
0
100
AcDbLine
 62
7
  6
BYLAYER
 10
35.8546194071
 20
7.9578661581
 11
38.664999779
 21
53.7532111037
  0
LWPOLYLINE
  5
269
100
AcDbEntity
  8
0
100
AcDbPolyline
 62
7
  6
BYLAYER
 90
3
 70
0
 10
46.3709501018
 20
74.3898776268
 10
45.9135601124
 20
73.0120790914
 10
44.6136084527
 20
71.8373995705
  0
LWPOLYLINE
  5
26A
100
AcDbEntity
  8
0
100
AcDbPolyline
 62
7
  6
BYLAYER
 90
3
 70
0
 10
46.3159905832
 20
75.0415695979
 10
45.9107503733
 20
73.8237496849
 10
44.6136084527
 20
72.6539019877
  0
LINE
  5
26B
100
AcDbEntity
  8
0
100
AcDbLine
 62
7
  6
BYLAYER
 10
8.6737905825
 20
24.5408837988
 11
7.902571972
 21
24.0956231843
  0
LINE
  5
26C
100
AcDbEntity
  8
0
100
AcDbLine
 62
7
  6
BYLAYER
 10
15.7181246417
 20
31.0029901751
 11
16.2010970895
 21
31.2804451671
  0
LINE
  5
26D
100
AcDbEntity
  8
0
100
AcDbLine
 62
7
  6
BYLAYER
 10
15.1508940594
 20
29.3525429834
 11
16.2509979684
 21
29.9845237985
  0
LINE
  5
26E
100
AcDbEntity
  8
0
100
AcDbLine
 62
7
  6
BYLAYER
 10
16.7339704163
 20
30.2619787905
 11
17.8340743253
 21
30.8939596056
  0
LINE
  5
26F
100
AcDbEntity
  8
0
100
AcDbLine
 62
7
  6
BYLAYER
 10
17.8503504484
 20
30.8628514916
 11
17.2276127494
 21
30.505105032
  0
LINE
  5
270
100
AcDbEntity
  8
0
100
AcDbLine
 62
7
  6
BYLAYER
 10
16.7446403015
 20
30.2276500401
 11
15.6445363925
 21
29.595669225
  0
LINE
  5
271
100
AcDbEntity
  8
0
100
AcDbLine
 62
7
  6
BYLAYER
 10
18.2511056245
 20
30.096898963
 11
17.1510017155
 21
29.4649181479
  0
LINE
  5
272
100
AcDbEntity
  8
0
100
AcDbLine
 62
7
  6
BYLAYER
 10
16.6680292676
 20
29.1874631559
 11
15.5679253586
 21
28.5554823409
  0
LINE
  5
273
100
AcDbEntity
  8
0
100
AcDbLine
 62
7
  6
BYLAYER
 10
16.2167868396
 20
31.2485887752
 11
15.7181246417
 21
31.0029901751
  0
LINE
  5
274
100
AcDbEntity
  8
0
100
AcDbLine
 62
7
  6
BYLAYER
 10
37.7935230937
 20
48.5751464392
 11
12.1325111681
 21
63.3902034207
  0
LINE
  5
275
100
AcDbEntity
  8
0
100
AcDbLine
 62
7
  6
BYLAYER
 10
37.7944174099
 20
48.5897193837
 11
12.1466152348
 21
63.3971498847
  0
LINE
  5
276
100
AcDbEntity
  8
0
100
AcDbLine
 62
7
  6
BYLAYER
 10
39.7959649339
 20
77.9232471445
 11
39.7959673709
 21
77.5853089299
  0
LINE
  5
277
100
AcDbEntity
  8
0
100
AcDbLine
 62
7
  6
BYLAYER
 10
40.9459673709
 20
77.5853116941
 11
40.9459649339
 21
77.9232499087
  0
LINE
  5
278
100
AcDbEntity
  8
0
100
AcDbLine
 62
7
  6
BYLAYER
 10
17.6838750422
 20
28.4464517713
 11
17.2009025944
 21
28.1689967793
  0
LINE
  5
279
100
AcDbEntity
  8
0
100
AcDbLine
 62
7
  6
BYLAYER
 10
17.2276127494
 20
30.505105032
 11
16.7339704163
 21
30.2619787905
  0
LINE
  5
27A
100
AcDbEntity
  8
0
100
AcDbLine
 62
7
  6
BYLAYER
 10
16.7446403015
 20
30.2276500401
 11
16.2509979684
 21
29.9845237985
  0
LINE
  5
27B
100
AcDbEntity
  8
0
100
AcDbLine
 62
7
  6
BYLAYER
 10
15.6445363925
 20
29.595669225
 11
15.1508940594
 21
29.3525429834
  0
LINE
  5
27C
100
AcDbEntity
  8
0
100
AcDbLine
 62
7
  6
BYLAYER
 10
34.3883526347
 20
38.3644464659
 11
34.374248568
 21
38.3575000018
  0
LINE
  5
27D
100
AcDbEntity
  8
0
100
AcDbLine
 62
7
  6
BYLAYER
 10
34.2416105532
 20
38.1130718907
 11
34.2557146198
 21
38.1200183548
  0
LINE
  5
27E
100
AcDbEntity
  8
0
100
AcDbLine
 62
7
  6
BYLAYER
 10
17.1616716007
 20
29.4305893975
 11
16.6680292676
 21
29.1874631559
  0
LINE
  5
27F
100
AcDbEntity
  8
0
100
AcDbLine
 62
7
  6
BYLAYER
 10
12.3640940872
 20
67.1638633027
 11
38.0251060128
 21
52.3488063211
  0
LINE
  5
280
100
AcDbEntity
  8
0
100
AcDbLine
 62
7
  6
BYLAYER
 10
30.0085804249
 20
20.8886137069
 11
31.2255974546
 21
22.9742481428
  0
LINE
  5
281
100
AcDbEntity
  8
0
100
AcDbLine
 62
7
  6
BYLAYER
 10
31.4371584545
 20
23.0784451034
 11
30.2201414248
 21
20.9928106675
  0
LINE
  5
282
100
AcDbEntity
  8
0
100
AcDbLine
 62
7
  6
BYLAYER
 10
11.7606008806
 20
69.2605424831
 11
38.3408554489
 21
53.9147725207
  0
LINE
  5
283
100
AcDbEntity
  8
0
100
AcDbLine
 62
7
  6
BYLAYER
 10
38.664999779
 20
53.7532111037
 11
10.712952344
 21
69.8909681299
  0
LINE
  5
284
100
AcDbEntity
  8
0
100
AcDbLine
 62
7
  6
BYLAYER
 10
38.4464572609
 20
54.4490996049
 11
10.9990271076
 21
70.2955222984
  0
LINE
  5
285
100
AcDbEntity
  8
0
100
AcDbLine
 62
7
  6
BYLAYER
 10
45.5459501018
 20
79.9800294567
 11
45.5459501018
 21
79.5717782481
  0
LINE
  5
286
100
AcDbEntity
  8
0
100
AcDbLine
 62
7
  6
BYLAYER
 10
46.3709501018
 20
78.8165008216
 11
46.3709501018
 21
78.4726902348
  0
LINE
  5
287
100
AcDbEntity
  8
0
100
AcDbLine
 62
7
  6
BYLAYER
 10
46.3709501018
 20
77.9987091378
 11
46.3709501018
 21
77.6566710955
  0
LINE
  5
288
100
AcDbEntity
  8
0
100
AcDbLine
 62
7
  6
BYLAYER
 10
46.3709501018
 20
77.1817605486
 11
46.3709501018
 21
76.8393149904
  0
LINE
  5
289
100
AcDbEntity
  8
0
100
AcDbLine
 62
7
  6
BYLAYER
 10
46.3709501018
 20
76.3661371183
 11
46.3709501018
 21
76.0219111897
  0
LINE
  5
28A
100
AcDbEntity
  8
0
100
AcDbLine
 62
7
  6
BYLAYER
 10
46.3709501018
 20
75.5164829098
 11
46.3709501018
 21
75.2071563792
  0
LINE
  5
28B
100
AcDbEntity
  8
0
100
AcDbLine
 62
7
  6
BYLAYER
 10
46.3709501018
 20
74.7322458045
 11
46.3709501018
 21
74.3902019602
  0
LINE
  5
28C
100
AcDbEntity
  8
0
100
AcDbLine
 62
7
  6
BYLAYER
 10
46.3709501018
 20
73.9162329394
 11
46.3709501018
 21
73.5725513098
  0
LINE
  5
28D
100
AcDbEntity
  8
0
100
AcDbLine
 62
7
  6
BYLAYER
 10
46.3709501018
 20
73.1008650306
 11
46.3709501018
 21
71.4067540768
  0
LINE
  5
28E
100
AcDbEntity
  8
0
100
AcDbLine
 62
7
  6
BYLAYER
 10
28.164602374
 20
26.4753430325
 11
28.3761633739
 21
26.5795399932
  0
LINE
  5
28F
100
AcDbEntity
  8
0
100
AcDbLine
 62
7
  6
BYLAYER
 10
28.9232691437
 20
24.921965031
 11
28.7117081438
 21
24.8177680703
  0
LINE
  5
290
100
AcDbEntity
  8
0
100
AcDbLine
 62
7
  6
BYLAYER
 10
28.7893724836
 20
23.4177572019
 11
28.2957301505
 21
23.1746309603
  0
LINE
  5
291
100
AcDbEntity
  8
0
100
AcDbLine
 62
7
  6
BYLAYER
 10
51.8578082557
 20
60.8965174562
 11
51.8578082557
 21
17.2952883814
  0
LINE
  5
292
100
AcDbEntity
  8
0
100
AcDbLine
 62
7
  6
BYLAYER
 10
29.0671913181
 20
22.576045106
 11
28.573548985
 21
22.3329188644
  0
LINE
  5
293
100
AcDbEntity
  8
0
100
AcDbLine
 62
7
  6
BYLAYER
 10
29.6416425215
 20
22.637751574
 11
29.1480001884
 21
22.3946253324
  0
LINE
  5
294
100
AcDbEntity
  8
0
100
AcDbLine
 62
7
  6
BYLAYER
 10
31.3865860398
 20
23.2316651443
 11
31.1750250399
 21
23.1274681837
  0
LINE
  5
295
100
AcDbEntity
  8
0
100
AcDbLine
 62
7
  6
BYLAYER
 10
31.2255974546
 20
22.9742481428
 11
31.4371584545
 21
23.0784451034
  0
LINE
  5
296
100
AcDbEntity
  8
0
100
AcDbLine
 62
7
  6
BYLAYER
 10
30.2201414248
 20
20.9928106675
 11
30.0085804249
 21
20.8886137069
  0
LINE
  5
297
100
AcDbEntity
  8
0
100
AcDbLine
 62
7
  6
BYLAYER
 10
29.7000008856
 20
20.6588119988
 11
29.2063585525
 21
20.4156857572
  0
LINE
  5
298
100
AcDbEntity
  8
0
100
AcDbLine
 62
7
  6
BYLAYER
 10
29.1289481684
 20
22.8814076557
 11
27.8395280029
 21
22.2540717109
  0
LINE
  5
299
100
AcDbEntity
  8
0
100
AcDbLine
 62
7
  6
BYLAYER
 10
30.4891849057
 20
19.1962707913
 11
30.5556861947
 21
19.2310387447
  0
LINE
  5
29A
100
AcDbEntity
  8
0
100
AcDbLine
 62
7
  6
BYLAYER
 10
30.7672471946
 20
19.3352357053
 11
30.5556861947
 21
19.2310387447
  0
LINE
  5
29B
100
AcDbEntity
  8
0
100
AcDbLine
 62
7
  6
BYLAYER
 10
57.4011139855
 20
68.8756262134
 11
57.4011139855
 21
25.2743971387
  0
LINE
  5
29C
100
AcDbEntity
  8
0
100
AcDbLine
 62
7
  6
BYLAYER
 10
35.3364152656
 20
78.1426573306
 11
36.768220899
 21
77.1724833166
  0
LINE
  5
29D
100
AcDbEntity
  8
0
100
AcDbLine
 62
7
  6
BYLAYER
 10
45.9602488112
 20
74.7511035379
 11
46.1657624265
 21
74.6189620367
  0
LINE
  5
29E
100
AcDbEntity
  8
0
100
AcDbLine
 62
7
  6
BYLAYER
 10
51.8578082557
 20
17.2952883814
 11
36.3913581196
 21
7.9547569605
  0
LINE
  5
29F
100
AcDbEntity
  8
0
100
AcDbLine
 62
7
  6
BYLAYER
 10
36.1544221632
 20
7.4789442715
 11
51.6519358202
 21
16.83823564
  0
LINE
  5
2A0
100
AcDbEntity
  8
0
100
AcDbLine
 62
7
  6
BYLAYER
 10
35.8237057926
 20
8.8492386268
 11
35.9119897427
 21
8.8927197943
  0
LWPOLYLINE
  5
2A1
100
AcDbEntity
  8
0
100
AcDbPolyline
 62
7
  6
BYLAYER
 90
4
 70
0
 10
34.9495822274
 20
80.6156413735
 10
31.7885749486
 20
80.3708957501
 10
26.2183147474
 20
78.8245698262
 10
23.788378385
 20
77.6801946302
  0
LINE
  5
2A2
100
AcDbEntity
  8
0
100
AcDbLine
 62
7
  6
BYLAYER
 10
46.4112558204
 20
79.3497444403
 11
46.3958972299
 21
79.3545156522
  0
LINE
  5
2A3
100
AcDbEntity
  8
0
100
AcDbLine
 62
7
  6
BYLAYER
 10
46.3851464644
 20
79.321760603
 11
46.3709501018
 21
79.327718558
  0
ARC
  5
2A4
100
AcDbEntity
  8
0
100
AcDbCircle
 62
7
  6
BYLAYER
 10
18.2760748912
 20
31.3375084087
 40
4.5254539536
100
AcDbArc
 50
176.5239385574
 51
179.6406060516
  0
ARC
  5
2A5
100
AcDbEntity
  8
0
100
AcDbCircle
 62
7
  6
BYLAYER
 10
18.2608516291
 20
31.4139495229
 40
4.3690552438
100
AcDbArc
 50
176.4910108949
 51
177.9851817571
  0
ARC
  5
2A6
100
AcDbEntity
  8
0
100
AcDbCircle
 62
7
  6
BYLAYER
 10
30.2473125255
 20
24.4758516236
 40
4.3345932156
100
AcDbArc
 50
176.4894968714
 51
177.1970559119
  0
ARC
  5
2A7
100
AcDbEntity
  8
0
100
AcDbCircle
 62
7
  6
BYLAYER
 10
17.9806910818
 20
31.352966329
 40
4.2296770761
100
AcDbArc
 50
175.0080435353
 51
176.4903429962
  0
ARC
  5
2A8
100
AcDbEntity
  8
0
100
AcDbCircle
 62
7
  6
BYLAYER
 10
30.0015564093
 20
24.4128735022
 40
4.2296770762
100
AcDbArc
 50
175.0080435353
 51
176.4903429962
  0
ARC
  5
2A9
100
AcDbEntity
  8
0
100
AcDbCircle
 62
7
  6
BYLAYER
 10
15.6758643932
 20
32.2502123644
 40
1.6914366863
100
AcDbArc
 50
111.247434885
 51
116.2100165538
  0
ARC
  5
2AA
100
AcDbEntity
  8
0
100
AcDbCircle
 62
7
  6
BYLAYER
 10
27.6967297207
 20
25.3101195375
 40
1.6914366863
100
AcDbArc
 50
111.247434885
 51
116.2100165538
  0
ARC
  5
2AB
100
AcDbEntity
  8
0
100
AcDbCircle
 62
7
  6
BYLAYER
 10
30.10135875
 20
20.4286993483
 40
1.6869833847
100
AcDbArc
 50
296.2179813688
 51
301.3247676275
  0
ARC
  5
2AC
100
AcDbEntity
  8
0
100
AcDbCircle
 62
7
  6
BYLAYER
 10
18.0804934225
 20
27.3687921752
 40
1.6869833847
100
AcDbArc
 50
296.2179813688
 51
301.3247676275
  0
ARC
  5
2AD
100
AcDbEntity
  8
0
100
AcDbCircle
 62
7
  6
BYLAYER
 10
9.467446269
 20
24.8627539654
 40
0.80502892
100
AcDbArc
 50
202.0647825797
 51
213.1754459615
  0
ARC
  5
2AE
100
AcDbEntity
  8
0
100
AcDbCircle
 62
7
  6
BYLAYER
 10
51.4673350565
 20
17.1431615991
 40
0.3564048953
100
AcDbArc
 50
301.1905267479
 51
315.1546588869
  0
ARC
  5
2AF
100
AcDbEntity
  8
0
100
AcDbCircle
 62
7
  6
BYLAYER
 10
38.5728484915
 20
53.3090365214
 40
27.4140729246
100
AcDbArc
 50
73.4467188017
 51
74.0348152979
  0
ARC
  5
2B0
100
AcDbEntity
  8
0
100
AcDbCircle
 62
7
  6
BYLAYER
 10
37.8700394268
 20
53.2734660264
 40
0.80502892
100
AcDbArc
 50
22.0647825797
 51
33.1754459616
  0
ARC
  5
2B1
100
AcDbEntity
  8
0
100
AcDbCircle
 62
7
  6
BYLAYER
 10
40.1516438101
 20
82.1170505255
 40
10.2383548678
100
AcDbArc
 50
268.0363423861
 51
274.3738658591
  0
ARC
  5
2B2
100
AcDbEntity
  8
0
100
AcDbCircle
 62
7
  6
BYLAYER
 10
39.5870092376
 20
76.4427969187
 40
6.5321378354
100
AcDbArc
 50
114.1332216368
 51
117.3882609219
  0
ARC
  5
2B3
100
AcDbEntity
  8
0
100
AcDbCircle
 62
7
  6
BYLAYER
 10
39.2988271471
 20
77.6026484145
 40
5.1820642542
100
AcDbArc
 50
116.5541931067
 51
119.9507028
  0
ARC
  5
2B4
100
AcDbEntity
  8
0
100
AcDbCircle
 62
7
  6
BYLAYER
 10
38.3575483015
 20
78.9893623705
 40
3.5024369418
100
AcDbArc
 50
130.720127238
 51
131.6323462152
  0
ARC
  5
2B5
100
AcDbEntity
  8
0
100
AcDbCircle
 62
7
  6
BYLAYER
 10
36.2450441966
 20
74.326953151
 40
1.8740945274
100
AcDbArc
 50
180.036710598
 51
189.5812022938
  0
ARC
  5
2B6
100
AcDbEntity
  8
0
100
AcDbCircle
 62
7
  6
BYLAYER
 10
36.2449057534
 20
79.2259597997
 40
1.8739560718
100
AcDbArc
 50
180.0358932742
 51
189.5679569911
  0
ARC
  5
2B7
100
AcDbEntity
  8
0
100
AcDbCircle
 62
7
  6
BYLAYER
 10
36.2448014688
 20
76.7764366115
 40
1.8738517711
100
AcDbArc
 50
180.0357999742
 51
189.5484177299
  0
ARC
  5
2B8
100
AcDbEntity
  8
0
100
AcDbCircle
 62
7
  6
BYLAYER
 10
36.2444889593
 20
75.959903442
 40
1.8735391491
100
AcDbArc
 50
180.0342550642
 51
189.5445563473
  0
ARC
  5
2B9
100
AcDbEntity
  8
0
100
AcDbCircle
 62
7
  6
BYLAYER
 10
36.2417249102
 20
75.1423321435
 40
1.8707743076
100
AcDbArc
 50
180.0124014067
 51
189.5936695785
  0
ARC
  5
2BA
100
AcDbEntity
  8
0
100
AcDbCircle
 62
7
  6
BYLAYER
 10
36.2415625995
 20
78.4069439633
 40
1.8706125323
100
AcDbArc
 50
172.6222290462
 51
179.9816318257
  0
ARC
  5
2BB
100
AcDbEntity
  8
0
100
AcDbCircle
 62
7
  6
BYLAYER
 10
36.2414414878
 20
77.5921185198
 40
1.8704906963
100
AcDbArc
 50
180.0137891327
 51
189.5989555454
  0
ARC
  5
2BC
100
AcDbEntity
  8
0
100
AcDbCircle
 62
7
  6
BYLAYER
 10
36.2384177042
 20
78.4077993411
 40
1.8674675583
100
AcDbArc
 50
180.0078447427
 51
189.5595275227
  0
ARC
  5
2BD
100
AcDbEntity
  8
0
100
AcDbCircle
 62
7
  6
BYLAYER
 10
36.2365174899
 20
75.1415108047
 40
1.86556689
100
AcDbArc
 50
172.652413296
 51
179.9872108529
  0
ARC
  5
2BE
100
AcDbEntity
  8
0
100
AcDbCircle
 62
7
  6
BYLAYER
 10
36.2362296963
 20
75.9581430036
 40
1.8652796611
100
AcDbArc
 50
172.5488445171
 51
179.9803313716
  0
ARC
  5
2BF
100
AcDbEntity
  8
0
100
AcDbCircle
 62
7
  6
BYLAYER
 10
36.2359866405
 20
73.5086478618
 40
1.8650365886
100
AcDbArc
 50
172.6068793534
 51
179.9808636266
  0
ARC
  5
2C0
100
AcDbEntity
  8
0
100
AcDbCircle
 62
7
  6
BYLAYER
 10
36.2358467256
 20
76.7746785773
 40
1.8648967545
100
AcDbArc
 50
172.5627428846
 51
179.9819592714
  0
ARC
  5
2C1
100
AcDbEntity
  8
0
100
AcDbCircle
 62
7
  6
BYLAYER
 10
36.2357563969
 20
74.325185235
 40
1.8648064292
100
AcDbArc
 50
172.564007616
 51
179.9825745974
  0
ARC
  5
2C2
100
AcDbEntity
  8
0
100
AcDbCircle
 62
7
  6
BYLAYER
 10
36.2330753448
 20
77.5913060018
 40
1.8621245344
100
AcDbArc
 50
172.6412866847
 51
179.9888506868
  0
ARC
  5
2C3
100
AcDbEntity
  8
0
100
AcDbCircle
 62
7
  6
BYLAYER
 10
43.9156888838
 20
76.0990464097
 40
2.4661176979
100
AcDbArc
 50
335.8810252565
 51
339.6274434721
  0
ARC
  5
2C4
100
AcDbEntity
  8
0
100
AcDbCircle
 62
7
  6
BYLAYER
 10
44.1340553988
 20
75.5622109165
 40
2.2377789737
100
AcDbArc
 50
347.1824945034
 51
351.2085974156
  0
ARC
  5
2C5
100
AcDbEntity
  8
0
100
AcDbCircle
 62
7
  6
BYLAYER
 10
44.1956384072
 20
77.9999357287
 40
2.175309326
100
AcDbArc
 50
351.7177806035
 51
359.9761312534
  0
ARC
  5
2C6
100
AcDbEntity
  8
0
100
AcDbCircle
 62
7
  6
BYLAYER
 10
44.202613325
 20
74.7320770831
 40
2.1683363601
100
AcDbArc
 50
0.015759959
 51
6.3749841774
  0
ARC
  5
2C7
100
AcDbEntity
  8
0
100
AcDbCircle
 62
7
  6
BYLAYER
 10
44.2039253529
 20
74.7333695303
 40
2.167024362
100
AcDbArc
 50
351.690469155
 51
359.981597402
  0
ARC
  5
2C8
100
AcDbEntity
  8
0
100
AcDbCircle
 62
7
  6
BYLAYER
 10
44.204800907
 20
76.367361988
 40
2.1661493857
100
AcDbArc
 50
351.6514943948
 51
359.9734114202
  0
ARC
  5
2C9
100
AcDbEntity
  8
0
100
AcDbCircle
 62
7
  6
BYLAYER
 10
44.2052492809
 20
77.9988321572
 40
2.1656982726
100
AcDbArc
 50
0.0052214481
 51
6.0454205812
  0
ARC
  5
2CA
100
AcDbEntity
  8
0
100
AcDbCircle
 62
7
  6
BYLAYER
 10
44.2059814528
 20
77.1829692931
 40
2.1649688071
100
AcDbArc
 50
351.6695895981
 51
359.9793323974
  0
ARC
  5
2CB
100
AcDbEntity
  8
0
100
AcDbCircle
 62
7
  6
BYLAYER
 10
44.2064779197
 20
77.1816302906
 40
2.1644722713
100
AcDbArc
 50
0.0147724115
 51
6.3266646358
  0
ARC
  5
2CC
100
AcDbEntity
  8
0
100
AcDbCircle
 62
7
  6
BYLAYER
 10
44.2069862632
 20
73.9174949907
 40
2.1639639944
100
AcDbArc
 50
351.6488381966
 51
359.9749860361
  0
ARC
  5
2CD
100
AcDbEntity
  8
0
100
AcDbCircle
 62
7
  6
BYLAYER
 10
44.2071474725
 20
75.5508362097
 40
2.1638071538
100
AcDbArc
 50
351.2104471382
 51
359.984804266
  0
ARC
  5
2CE
100
AcDbEntity
  8
0
100
AcDbCircle
 62
7
  6
BYLAYER
 10
44.2086083514
 20
78.8167841999
 40
2.1623417349
100
AcDbArc
 50
351.6367469879
 51
359.9928047652
  0
ARC
  5
2CF
100
AcDbEntity
  8
0
100
AcDbCircle
 62
7
  6
BYLAYER
 10
44.2093010686
 20
73.1005864299
 40
2.1616489915
100
AcDbArc
 50
0.0107838509
 51
6.2845962973
  0
ARC
  5
2D0
100
AcDbEntity
  8
0
100
AcDbCircle
 62
7
  6
BYLAYER
 10
44.20984968
 20
75.5499919631
 40
2.1611048871
100
AcDbArc
 50
0.0071681527
 51
8.2231187039
  0
ARC
  5
2D1
100
AcDbEntity
  8
0
100
AcDbCircle
 62
7
  6
BYLAYER
 10
44.2131481513
 20
73.916069297
 40
2.1578019536
100
AcDbArc
 50
0.012770828
 51
6.3335436652
  0
ARC
  5
2D2
100
AcDbEntity
  8
0
100
AcDbCircle
 62
7
  6
BYLAYER
 10
44.2148965105
 20
76.3659114194
 40
2.1560535949
100
AcDbArc
 50
0.0118348761
 51
6.3537344473
  0
ARC
  5
2D3
100
AcDbEntity
  8
0
100
AcDbCircle
 62
7
  6
BYLAYER
 10
44.215783349
 20
75.206838085
 40
2.155166451
100
AcDbArc
 50
355.57433992
 51
359.9971536377
  0
ARC
  5
2D4
100
AcDbEntity
  8
0
100
AcDbCircle
 62
7
  6
BYLAYER
 10
44.2171578958
 20
78.8164071404
 40
2.1537921761
100
AcDbArc
 50
0.0028068439
 51
4.1063734427
  0
ARC
  5
2D5
100
AcDbEntity
  8
0
100
AcDbCircle
 62
7
  6
BYLAYER
 10
44.3463883025
 20
79.5734507439
 40
2.0246177084
100
AcDbArc
 50
352.3557510847
 51
353.8422259526
  0
ARC
  5
2D6
100
AcDbEntity
  8
0
100
AcDbCircle
 62
7
  6
BYLAYER
 10
44.3633772796
 20
79.5716819048
 40
2.0075370163
100
AcDbArc
 50
353.8404074402
 51
0.0027484123
  0
SPLINE
  5
2D7
100
AcDbEntity
  8
0
100
AcDbSpline
 62
7
  6
BYLAYER
 70
0
 71
3
 72
16
 73
12
 74
0
 42
0.0000001
 43
0.0000001
 44
0.0000000001
 40
0.0
 40
0.0
 40
0.0
 40
0.0
 40
0.1122507428
 40
0.2259597278
 40
0.3424826082
 40
0.4629954756
 40
0.5250798622
 40
0.5884943786
 40
0.7195481443
 40
0.8566391328
 40
1.0
 40
1.0
 40
1.0
 40
1.0
 10
14.9336666309
 20
33.3131056969
 30
0.0
 10
14.8667781052
 20
33.2801590894
 30
0.0
 10
14.7368106558
 20
33.2038274839
 30
0.0
 10
14.5588075063
 20
33.0609850954
 30
0.0
 10
14.3986175769
 20
32.8908313122
 30
0.0
 10
14.2822225777
 20
32.7291061463
 30
0.0
 10
14.1990717871
 20
32.5883413349
 30
0.0
 10
14.1210696416
 20
32.4367287151
 30
0.0
 10
14.037035826
 20
32.2326488154
 30
0.0
 10
13.9591476507
 20
31.970220197
 30
0.0
 10
13.9229362374
 20
31.7871853153
 30
0.0
 10
13.9083746654
 20
31.6930779571
 30
0.0
  0
SPLINE
  5
2D8
100
AcDbEntity
  8
0
100
AcDbSpline
 62
7
  6
BYLAYER
 70
0
 71
3
 72
9
 73
5
 74
0
 42
0.0000001
 43
0.0000001
 44
0.0000000001
 40
0.0
 40
0.0
 40
0.0
 40
0.0
 40
0.2457977891
 40
1.0
 40
1.0
 40
1.0
 40
1.0
 10
13.9083746654
 20
31.6930779571
 30
0.0
 10
13.9041478994
 20
31.6657615532
 30
0.0
 10
13.8883016183
 20
31.554421784
 30
0.0
 10
13.8777560981
 20
31.4423394335
 30
0.0
 10
13.8725609414
 20
31.3576839913
 30
0.0
  0
SPLINE
  5
2D9
100
AcDbEntity
  8
0
100
AcDbSpline
 62
7
  6
BYLAYER
 70
0
 71
3
 72
28
 73
24
 74
0
 42
0.0000001
 43
0.0000001
 44
0.0000000001
 40
0.0
 40
0.0
 40
0.0
 40
0.0
 40
0.0632463254
 40
0.1298651376
 40
0.1992162788
 40
0.270515099
 40
0.3428842547
 40
0.415395614
 40
0.4871150295
 40
0.5571446998
 40
0.6246673534
 40
0.6889931909
 40
0.7198042969
 40
0.749644253
 40
0.8062901329
 40
0.8331438552
 40
0.8590497809
 40
0.884072198
 40
0.9083022064
 40
0.9318572459
 40
0.9548798792
 40
0.9775341782
 40
1.0
 40
1.0
 40
1.0
 40
1.0
 10
13.8725609414
 20
31.3576839913
 30
0.0
 10
13.8622634765
 20
31.1898860807
 30
0.0
 10
13.8632129582
 20
30.8437404045
 30
0.0
 10
13.9233272374
 20
30.3167145132
 30
0.0
 10
14.0408344134
 20
29.7775433694
 30
0.0
 10
14.2132974264
 20
29.2373888498
 30
0.0
 10
14.4371487948
 20
28.7073272532
 30
0.0
 10
14.7077733171
 20
28.1982900732
 30
0.0
 10
15.0195891737
 20
27.7207744844
 30
0.0
 10
15.3661982221
 20
27.2846073156
 30
0.0
 10
15.7404655483
 20
26.8988019521
 30
0.0
 10
16.0738489902
 20
26.6218881299
 30
0.0
 10
16.3478589221
 20
26.4336946342
 30
0.0
 10
16.6157454802
 20
26.2739098013
 30
0.0
 10
16.8898479768
 20
26.14578423
 30
0.0
 10
17.166406708
 20
26.0549716299
 30
0.0
 10
17.3678586634
 20
26.0072599213
 30
0.0
 10
17.5659291894
 20
25.979046418
 30
0.0
 10
17.7595954173
 20
25.9704981897
 30
0.0
 10
17.9478277402
 20
25.9817179609
 30
0.0
 10
18.1296213078
 20
26.0126783401
 30
0.0
 10
18.3039452086
 20
26.0632464775
 30
0.0
 10
18.4147630749
 20
26.109949825
 30
0.0
 10
18.468333053
 20
26.1363362496
 30
0.0
  0
SPLINE
  5
2DA
100
AcDbEntity
  8
0
100
AcDbSpline
 62
7
  6
BYLAYER
 70
0
 71
3
 72
28
 73
24
 74
0
 42
0.0000001
 43
0.0000001
 44
0.0000000001
 40
0.0
 40
0.0
 40
0.0
 40
0.0
 40
0.0632463254
 40
0.1298651376
 40
0.1992162788
 40
0.270515099
 40
0.3428842547
 40
0.415395614
 40
0.4871150295
 40
0.5571446998
 40
0.6246673534
 40
0.6889931909
 40
0.7198042969
 40
0.749644253
 40
0.8062901329
 40
0.8331438552
 40
0.8590497809
 40
0.884072198
 40
0.9083022064
 40
0.9318572459
 40
0.9548798792
 40
0.9775341782
 40
1.0
 40
1.0
 40
1.0
 40
1.0
 10
19.5294387425
 20
28.0917579551
 30
0.0
 10
19.5397362074
 20
28.2595558658
 30
0.0
 10
19.5387867257
 20
28.6057015419
 30
0.0
 10
19.4786724465
 20
29.1327274333
 30
0.0
 10
19.3611652705
 20
29.671898577
 30
0.0
 10
19.1887022575
 20
30.2120530967
 30
0.0
 10
18.9648508891
 20
30.7421146932
 30
0.0
 10
18.6942263668
 20
31.2511518732
 30
0.0
 10
18.3824105102
 20
31.728667462
 30
0.0
 10
18.0358014618
 20
32.1648346308
 30
0.0
 10
17.6615341356
 20
32.5506399943
 30
0.0
 10
17.3281506937
 20
32.8275538166
 30
0.0
 10
17.0541407618
 20
33.0157473123
 30
0.0
 10
16.7862542037
 20
33.1755321452
 30
0.0
 10
16.5121517071
 20
33.3036577164
 30
0.0
 10
16.2355929759
 20
33.3944703166
 30
0.0
 10
16.0341410205
 20
33.4421820251
 30
0.0
 10
15.8360704945
 20
33.4703955284
 30
0.0
 10
15.6424042666
 20
33.4789437567
 30
0.0
 10
15.4541719437
 20
33.4677239855
 30
0.0
 10
15.2723783761
 20
33.4367636063
 30
0.0
 10
15.0980544753
 20
33.3861954689
 30
0.0
 10
14.987236609
 20
33.3394921215
 30
0.0
 10
14.9336666309
 20
33.3131056969
 30
0.0
  0
SPLINE
  5
2DB
100
AcDbEntity
  8
0
100
AcDbSpline
 62
7
  6
BYLAYER
 70
0
 71
3
 72
15
 73
11
 74
0
 42
0.0000001
 43
0.0000001
 44
0.0000000001
 40
0.0
 40
0.0
 40
0.0
 40
0.0
 40
0.1096163258
 40
0.2210778409
 40
0.3360637874
 40
0.4559681957
 40
0.5818263706
 40
0.7142892825
 40
0.853707875
 40
1.0
 40
1.0
 40
1.0
 40
1.0
 10
18.468333053
 20
26.1363362496
 30
0.0
 10
18.5446924795
 20
26.1739478432
 30
0.0
 10
18.6926083659
 20
26.2629218612
 30
0.0
 10
18.8918745338
 20
26.4330959238
 30
0.0
 10
19.0672859481
 20
26.638344302
 30
0.0
 10
19.2169858792
 20
26.8761813639
 30
0.0
 10
19.3395767299
 20
27.1439262537
 30
0.0
 10
19.4339648623
 20
27.438704948
 30
0.0
 10
19.4992508129
 20
27.7573539527
 30
0.0
 10
19.5224804253
 20
27.9783716883
 30
0.0
 10
19.5294387425
 20
28.0917579551
 30
0.0
  0
SPLINE
  5
2DC
100
AcDbEntity
  8
0
100
AcDbSpline
 62
7
  6
BYLAYER
 70
0
 71
3
 72
17
 73
13
 74
0
 42
0.0000001
 43
0.0000001
 44
0.0000000001
 40
0.0
 40
0.0
 40
0.0
 40
0.0
 40
0.1504198314
 40
0.2933830066
 40
0.4283355118
 40
0.5551814256
 40
0.6743633836
 40
0.7869481277
 40
0.8413347095
 40
0.894766885
 40
0.9475532231
 40
1.0
 40
1.0
 40
1.0
 40
1.0
 10
27.7896395714
 20
19.945457512
 30
0.0
 10
27.8995375955
 20
19.8448777972
 30
0.0
 10
28.1230976148
 20
19.6584121741
 30
0.0
 10
28.4758167942
 20
19.421262696
 30
0.0
 10
28.8328664285
 20
19.2368199267
 30
0.0
 10
29.1888664324
 20
19.1081514739
 30
0.0
 10
29.5383863523
 20
19.0375540359
 30
0.0
 10
29.8232892593
 20
19.0284620409
 30
0.0
 10
30.0405697131
 20
19.0522223373
 30
0.0
 10
30.1965504071
 20
19.0847188868
 30
0.0
 10
30.3466755311
 20
19.1319961566
 30
0.0
 10
30.4425989116
 20
19.1732956069
 30
0.0
 10
30.4891985484
 20
19.1962430895
 30
0.0
  0
SPLINE
  5
2DD
100
AcDbEntity
  8
0
100
AcDbSpline
 62
7
  6
BYLAYER
 70
0
 71
3
 72
15
 73
11
 74
0
 42
0.0000001
 43
0.0000001
 44
0.0000000001
 40
0.0
 40
0.0
 40
0.0
 40
0.0
 40
0.1121912961
 40
0.2258514997
 40
0.3423444108
 40
0.4628495035
 40
0.5883112566
 40
0.7194124061
 40
0.8565791375
 40
1.0
 40
1.0
 40
1.0
 40
1.0
 10
26.9545319494
 20
26.3730128851
 30
0.0
 10
26.8874053585
 20
26.3399513349
 30
0.0
 10
26.7569885181
 20
26.2633048146
 30
0.0
 10
26.578434295
 20
26.1198063064
 30
0.0
 10
26.4178400856
 20
25.9487828951
 30
0.0
 10
26.2765469553
 20
25.7518317798
 30
0.0
 10
26.1556327383
 20
25.5306660412
 30
0.0
 10
26.0559862436
 20
25.2871617332
 30
0.0
 10
25.9783261675
 20
25.0233571193
 30
0.0
 10
25.9423905768
 20
24.8394034178
 30
0.0
 10
25.9279862944
 20
24.7448386243
 30
0.0
  0
SPLINE
  5
2DE
100
AcDbEntity
  8
0
100
AcDbSpline
 62
7
  6
BYLAYER
 70
0
 71
3
 72
18
 73
14
 74
0
 42
0.0000001
 43
0.0000001
 44
0.0000000001
 40
0.0
 40
0.0
 40
0.0
 40
0.0
 40
0.0544907466
 40
0.1111092586
 40
0.1697280652
 40
0.2301721617
 40
0.3555963815
 40
0.4853950954
 40
0.617199798
 40
0.7485056243
 40
0.8768373917
 40
0.9392112703
 40
1.0
 40
1.0
 40
1.0
 40
1.0
 10
25.9279862944
 20
24.7448386243
 30
0.0
 10
25.9134039912
 20
24.6491051154
 30
0.0
 10
25.8919407558
 20
24.4525656654
 30
0.0
 10
25.8822248776
 20
24.1508371744
 30
0.0
 10
25.8944211474
 20
23.8386058562
 30
0.0
 10
25.9403126449
 20
23.4062823649
 30
0.0
 10
26.0526504894
 20
22.8551288561
 30
0.0
 10
26.2666999684
 20
22.2000432017
 30
0.0
 10
26.5552360684
 20
21.5626610474
 30
0.0
 10
26.9094637962
 20
20.9624174819
 30
0.0
 10
27.2538912415
 20
20.503665995
 30
0.0
 10
27.5533854465
 20
20.1716138541
 30
0.0
 10
27.7099468827
 20
20.018393017
 30
0.0
 10
27.7896395714
 20
19.945457512
 30
0.0
  0
SPLINE
  5
2DF
100
AcDbEntity
  8
0
100
AcDbSpline
 62
7
  6
BYLAYER
 70
0
 71
3
 72
9
 73
5
 74
0
 42
0.0000001
 43
0.0000001
 44
0.0000000001
 40
0.0
 40
0.0
 40
0.0
 40
0.0
 40
0.2583010543
 40
1.0
 40
1.0
 40
1.0
 40
1.0
 10
31.4422227193
 20
23.0898394967
 30
0.0
 10
31.4418874601
 20
23.088818437
 30
0.0
 10
31.4404956525
 20
23.0848974832
 30
0.0
 10
31.4387137407
 20
23.0811104387
 30
0.0
 10
31.4371584545
 20
23.0784451034
 30
0.0
  0
SPLINE
  5
2E0
100
AcDbEntity
  8
0
100
AcDbSpline
 62
7
  6
BYLAYER
 70
0
 71
3
 72
14
 73
10
 74
0
 42
0.0000001
 43
0.0000001
 44
0.0000000001
 40
0.0
 40
0.0
 40
0.0
 40
0.0
 40
0.1197961944
 40
0.2483281327
 40
0.5165153403
 40
0.6492479257
 40
0.7758491068
 40
0.8934855691
 40
1.0
 40
1.0
 40
1.0
 40
1.0
 10
31.3865860398
 20
23.2316651443
 30
0.0
 10
31.3918882387
 20
23.2280268361
 30
0.0
 10
31.4021584385
 20
23.2194028073
 30
0.0
 10
31.4204197333
 20
23.1984458716
 30
0.0
 10
31.4343882221
 20
23.1732050683
 30
0.0
 10
31.4429824526
 20
23.1461598221
 30
0.0
 10
31.4462928889
 20
23.1261096602
 30
0.0
 10
31.4463077346
 20
23.1071970599
 30
0.0
 10
31.4440063429
 20
23.095271671
 30
0.0
 10
31.4422227193
 20
23.0898394967
 30
0.0
  0
SPLINE
  5
2E1
100
AcDbEntity
  8
0
100
AcDbSpline
 62
7
  6
BYLAYER
 70
0
 71
3
 72
14
 73
10
 74
0
 42
0.0000001
 43
0.0000001
 44
0.0000000001
 40
0.0
 40
0.0
 40
0.0
 40
0.0
 40
0.1065145521
 40
0.2241512491
 40
0.350752572
 40
0.483485171
 40
0.7516722515
 40
0.8802039355
 40
1.0
 40
1.0
 40
1.0
 40
1.0
 10
31.2306617194
 20
22.985642536
 30
0.0
 10
31.2324453451
 20
22.9910747165
 30
0.0
 10
31.2347467283
 20
23.0030001266
 30
0.0
 10
31.2347318893
 20
23.0219127533
 30
0.0
 10
31.2314214335
 20
23.041962934
 30
0.0
 10
31.2228271919
 20
23.0690081781
 30
0.0
 10
31.2088586958
 20
23.0942489526
 30
0.0
 10
31.1905974238
 20
23.1152058721
 30
0.0
 10
31.180327233
 20
23.1238298794
 30
0.0
 10
31.1750250399
 20
23.1274681837
 30
0.0
  0
SPLINE
  5
2E2
100
AcDbEntity
  8
0
100
AcDbSpline
 62
7
  6
BYLAYER
 70
0
 71
3
 72
9
 73
5
 74
0
 42
0.0000001
 43
0.0000001
 44
0.0000000001
 40
0.0
 40
0.0
 40
0.0
 40
0.0
 40
0.2422585743
 40
1.0
 40
1.0
 40
1.0
 40
1.0
 10
31.2255974546
 20
22.9742481428
 30
0.0
 10
31.2261054751
 20
22.9751187509
 30
0.0
 10
31.2280984216
 20
22.9787728244
 30
0.0
 10
31.2296781729
 20
22.9826470635
 30
0.0
 10
31.2306617194
 20
22.985642536
 30
0.0
  0
SPLINE
  5
2E3
100
AcDbEntity
  8
0
100
AcDbSpline
 62
7
  6
BYLAYER
 70
0
 71
3
 72
13
 73
9
 74
0
 42
0.0000001
 43
0.0000001
 44
0.0000000001
 40
0.0
 40
0.0
 40
0.0
 40
0.0
 40
0.2662947523
 40
0.5190723942
 40
0.641577532
 40
0.7621561175
 40
0.8814149553
 40
1.0
 40
1.0
 40
1.0
 40
1.0
 10
28.164602374
 20
26.4753430325
 30
0.0
 10
28.0577088055
 20
26.5010865805
 30
0.0
 10
27.8454533657
 20
26.5368324672
 30
0.0
 10
27.5792010288
 20
26.5383914872
 30
0.0
 10
27.3758982057
 20
26.5121994248
 30
0.0
 10
27.2296685555
 20
26.4795512622
 30
0.0
 10
27.0887008256
 20
26.4338234417
 30
0.0
 10
26.9984557063
 20
26.3946464504
 30
0.0
 10
26.9545319494
 20
26.3730128851
 30
0.0
  0
SPLINE
  5
2E4
100
AcDbEntity
  8
0
100
AcDbSpline
 62
7
  6
BYLAYER
 70
0
 71
3
 72
11
 73
7
 74
0
 42
0.0000001
 43
0.0000001
 44
0.0000000001
 40
0.0
 40
0.0
 40
0.0
 40
0.0
 40
0.2723567781
 40
0.5303382526
 40
0.7729035954
 40
1.0
 40
1.0
 40
1.0
 40
1.0
 10
29.8656517674
 20
25.7279957414
 30
0.0
 10
29.7496239737
 20
25.8341854795
 30
0.0
 10
29.5134363461
 20
26.0301727796
 30
0.0
 10
29.1399590001
 20
26.2763997855
 30
0.0
 10
28.7623624194
 20
26.4633361894
 30
0.0
 10
28.5036655512
 20
26.5488332026
 30
0.0
 10
28.3761633739
 20
26.5795399932
 30
0.0
  0
SPLINE
  5
2E5
100
AcDbEntity
  8
0
100
AcDbSpline
 62
7
  6
BYLAYER
 70
0
 71
3
 72
25
 73
21
 74
0
 42
0.0000001
 43
0.0000001
 44
0.0000000001
 40
0.0
 40
0.0
 40
0.0
 40
0.0
 40
0.0224564358
 40
0.0451500795
 40
0.0682109411
 40
0.0917701743
 40
0.1407919973
 40
0.1929663068
 40
0.2486715
 40
0.3079989623
 40
0.3707962728
 40
0.4367147145
 40
0.505251898
 40
0.5757899605
 40
0.6476297379
 40
0.7200212461
 40
0.7921945625
 40
0.8633865318
 40
0.9328758603
 40
1.0
 40
1.0
 40
1.0
 40
1.0
 10
30.7672471946
 20
19.3352357053
 30
0.0
 10
30.8147451835
 20
19.3615996142
 30
0.0
 10
30.9074792863
 20
19.4197601782
 30
0.0
 10
31.0375469701
 20
19.521752868
 30
0.0
 10
31.1584335975
 20
19.6383734424
 30
0.0
 10
31.308576346
 20
19.8148227918
 30
0.0
 10
31.4704343905
 20
20.0716349582
 30
0.0
 10
31.6172019321
 20
20.4232706798
 30
0.0
 10
31.7173707447
 20
20.8164733063
 30
0.0
 10
31.7695628246
 20
21.2445219404
 30
0.0
 10
31.7731436402
 20
21.7002762805
 30
0.0
 10
31.7281657937
 20
22.1760833852
 30
0.0
 10
31.6354496816
 20
22.6639225548
 30
0.0
 10
31.496596125
 20
23.1555301264
 30
0.0
 10
31.3139783465
 20
23.6425495831
 30
0.0
 10
31.090713819
 20
24.1166891401
 30
0.0
 10
30.8306090617
 20
24.5698579954
 30
0.0
 10
30.5380852229
 20
24.994355735
 30
0.0
 10
30.2181548924
 20
25.3828925742
 30
0.0
 10
29.9854373252
 20
25.618366862
 30
0.0
 10
29.8656517674
 20
25.7279957414
 30
0.0
  0
SPLINE
  5
2E6
100
AcDbEntity
  8
0
100
AcDbSpline
 62
7
  6
BYLAYER
 70
0
 71
3
 72
11
 73
7
 74
0
 42
0.0000001
 43
0.0000001
 44
0.0000000001
 40
0.0
 40
0.0
 40
0.0
 40
0.0
 40
0.2321042258
 40
0.4775250258
 40
0.7342973509
 40
1.0
 40
1.0
 40
1.0
 40
1.0
 10
47.4420473834
 20
13.0269358099
 30
0.0
 10
47.125052011
 20
12.8439195387
 30
0.0
 10
46.4506715476
 20
12.5049992914
 30
0.0
 10
45.3679970937
 20
12.089665531
 30
0.0
 10
44.2015804326
 20
11.7586985015
 30
0.0
 10
43.391966244
 20
11.6001223433
 30
0.0
 10
42.9779485419
 20
11.5355709536
 30
0.0
  0
SPLINE
  5
2E7
100
AcDbEntity
  8
0
100
AcDbSpline
 62
7
  6
BYLAYER
 70
0
 71
3
 72
15
 73
11
 74
0
 42
0.0000001
 43
0.0000001
 44
0.0000000001
 40
0.0
 40
0.0
 40
0.0
 40
0.0
 40
0.1090845866
 40
0.2218580662
 40
0.3389282298
 40
0.4607461791
 40
0.5876280828
 40
0.7197807199
 40
0.8572861995
 40
1.0
 40
1.0
 40
1.0
 40
1.0
 10
50.1321745019
 20
15.8552463735
 30
0.0
 10
50.0801733765
 20
15.7203208802
 30
0.0
 10
49.9586721168
 20
15.4517432939
 30
0.0
 10
49.7310520614
 20
15.0635503135
 30
0.0
 10
49.4565285853
 20
14.685934502
 30
0.0
 10
49.1366665791
 20
14.3207443663
 30
0.0
 10
48.7730407805
 20
13.9697527278
 30
0.0
 10
48.3674851298
 20
13.6345905725
 30
0.0
 10
47.9220756297
 20
13.3170048795
 30
0.0
 10
47.6058800699
 20
13.1215240909
 30
0.0
 10
47.4420473834
 20
13.0269358099
 30
0.0
  0
SPLINE
  5
2E8
100
AcDbEntity
  8
0
100
AcDbSpline
 62
7
  6
BYLAYER
 70
0
 71
3
 72
9
 73
5
 74
0
 42
0.0000001
 43
0.0000001
 44
0.0000000001
 40
0.0
 40
0.0
 40
0.0
 40
0.0
 40
0.2480424579
 40
1.0
 40
1.0
 40
1.0
 40
1.0
 10
14.1064339956
 20
56.9358274071
 30
0.0
 10
14.1019026318
 20
56.9335935515
 30
0.0
 10
14.083992262
 20
56.9238732161
 30
0.0
 10
14.0676581598
 20
56.9112908308
 30
0.0
 10
14.0566436381
 20
56.9006489149
 30
0.0
  0
SPLINE
  5
2E9
100
AcDbEntity
  8
0
100
AcDbSpline
 62
7
  6
BYLAYER
 70
0
 71
3
 72
10
 73
6
 74
0
 42
0.0000001
 43
0.0000001
 44
0.0000000001
 40
0.0
 40
0.0
 40
0.0
 40
0.0
 40
0.4611200678
 40
0.7207126763
 40
1.0
 40
1.0
 40
1.0
 40
1.0
 10
14.0566436381
 20
56.9006489149
 30
0.0
 10
14.0313015775
 20
56.8761641406
 30
0.0
 10
14.0014893858
 20
56.8273037199
 30
0.0
 10
13.9803732491
 20
56.7537789412
 30
0.0
 10
13.9750918996
 20
56.7127249266
 30
0.0
 10
13.9737845935
 20
56.691422282
 30
0.0
  0
SPLINE
  5
2EA
100
AcDbEntity
  8
0
100
AcDbSpline
 62
7
  6
BYLAYER
 70
0
 71
3
 72
13
 73
9
 74
0
 42
0.0000001
 43
0.0000001
 44
0.0000000001
 40
0.0
 40
0.0
 40
0.0
 40
0.0
 40
0.2828354286
 40
0.5408335646
 40
0.6615456274
 40
0.7775638759
 40
0.8899515953
 40
1.0
 40
1.0
 40
1.0
 40
1.0
 10
28.642883058
 20
19.320449851
 30
0.0
 10
28.8273941282
 20
19.201542966
 30
0.0
 10
29.1989424641
 20
19.0011370263
 30
0.0
 10
29.6937012846
 20
18.8484114096
 30
0.0
 10
30.0758517632
 20
18.8027271649
 30
0.0
 10
30.3476167819
 20
18.8054568269
 30
0.0
 10
30.6082400045
 20
18.8444131459
 30
0.0
 10
30.7741206984
 20
18.8948856137
 30
0.0
 10
30.8537197193
 20
18.9258451535
 30
0.0
  0
SPLINE
  5
2EB
100
AcDbEntity
  8
0
100
AcDbSpline
 62
7
  6
BYLAYER
 70
0
 71
3
 72
14
 73
10
 74
0
 42
0.0000001
 43
0.0000001
 44
0.0000000001
 40
0.0
 40
0.0
 40
0.0
 40
0.0
 40
0.2836055132
 40
0.4159872193
 40
0.5422095172
 40
0.6627840184
 40
0.7785030442
 40
0.8904615577
 40
1.0
 40
1.0
 40
1.0
 40
1.0
 10
16.5650606919
 20
26.2979028652
 30
0.0
 10
16.7535471302
 20
26.1720964759
 30
0.0
 10
17.0458102801
 20
26.0086525711
 30
0.0
 10
17.452080691
 20
25.8563244411
 30
0.0
 10
17.7463490279
 20
25.7813520612
 30
0.0
 10
18.0343273387
 20
25.7437727651
 30
0.0
 10
18.3134764004
 20
25.7442499135
 30
0.0
 10
18.5810802417
 20
25.7827751118
 30
0.0
 10
18.7512805903
 20
25.834210362
 30
0.0
 10
18.8328543918
 20
25.8659379803
 30
0.0
  0
SPLINE
  5
2EC
100
AcDbEntity
  8
0
100
AcDbSpline
 62
7
  6
BYLAYER
 70
0
 71
3
 72
14
 73
10
 74
0
 42
0.0000001
 43
0.0000001
 44
0.0000000001
 40
0.0
 40
0.0
 40
0.0
 40
0.0
 40
0.1093722536
 40
0.2211757763
 40
0.3367905283
 40
0.4573038354
 40
0.5835325679
 40
0.7160271485
 40
1.0
 40
1.0
 40
1.0
 40
1.0
 10
14.945786287
 20
33.7695000598
 30
0.0
 10
14.8699707967
 20
33.7239077425
 30
0.0
 10
14.7236844246
 20
33.6194665712
 30
0.0
 10
14.5277493956
 20
33.4288441637
 30
0.0
 10
14.3556048121
 20
33.2050529578
 30
0.0
 10
14.2086711247
 20
32.9505507456
 30
0.0
 10
14.0882697849
 20
32.6676417407
 30
0.0
 10
13.9614865925
 20
32.2466959619
 30
0.0
 10
13.9140571617
 20
31.9106250148
 30
0.0
 10
13.8999874539
 20
31.6813581416
 30
0.0
  0
SPLINE
  5
2ED
100
AcDbEntity
  8
0
100
AcDbSpline
 62
7
  6
BYLAYER
 70
0
 71
3
 72
23
 73
19
 74
0
 42
0.0000001
 43
0.0000001
 44
0.0000000001
 40
0.0
 40
0.0
 40
0.0
 40
0.0
 40
0.0451206775
 40
0.0921123384
 40
0.142018494
 40
0.1955021585
 40
0.2528486228
 40
0.314012855
 40
0.3786781762
 40
0.4463190474
 40
0.5162549984
 40
0.5876943003
 40
0.6597755068
 40
0.7316149605
 40
0.8023363211
 40
0.8711022998
 40
0.9372104411
 40
1.0
 40
1.0
 40
1.0
 40
1.0
 10
15.0628939758
 20
33.8266721105
 30
0.0
 10
15.1840510349
 20
33.8737871402
 30
0.0
 10
15.4434056606
 20
33.9414122672
 30
0.0
 10
15.855057965
 20
33.9566536371
 30
0.0
 10
16.2853366125
 20
33.8881481927
 30
0.0
 10
16.7255577816
 20
33.7383637081
 30
0.0
 10
17.1675690167
 20
33.5109472554
 30
0.0
 10
17.6030730089
 20
33.210615856
 30
0.0
 10
18.0238325019
 20
32.8433769418
 30
0.0
 10
18.4217718295
 20
32.4164631359
 30
0.0
 10
18.7891511767
 20
31.9382386507
 30
0.0
 10
19.1187548736
 20
31.4180885802
 30
0.0
 10
19.4041482306
 20
30.8662720503
 30
0.0
 10
19.6397048328
 20
30.2936358589
 30
0.0
 10
19.8207530888
 20
29.7114685599
 30
0.0
 10
19.9437938494
 20
29.1311109023
 30
0.0
 10
20.0062386791
 20
28.5641154788
 30
0.0
 10
20.0067352843
 20
28.1917711734
 30
0.0
 10
19.9956545631
 20
28.0112100463
 30
0.0
  0
SPLINE
  5
2EE
100
AcDbEntity
  8
0
100
AcDbSpline
 62
7
  6
BYLAYER
 70
0
 71
3
 72
14
 73
10
 74
0
 42
0.0000001
 43
0.0000001
 44
0.0000000001
 40
0.0
 40
0.0
 40
0.0
 40
0.0
 40
0.1093722536
 40
0.2211757763
 40
0.3367905283
 40
0.4573038354
 40
0.5835325679
 40
0.7160271485
 40
1.0
 40
1.0
 40
1.0
 40
1.0
 10
26.9666516145
 20
26.8294072329
 30
0.0
 10
26.8908361242
 20
26.7838149156
 30
0.0
 10
26.7445497521
 20
26.6793737444
 30
0.0
 10
26.5486147231
 20
26.4887513369
 30
0.0
 10
26.3764701396
 20
26.2649601309
 30
0.0
 10
26.2295364522
 20
26.0104579187
 30
0.0
 10
26.1091351124
 20
25.7275489139
 30
0.0
 10
25.98235192
 20
25.306603135
 30
0.0
 10
25.9349224892
 20
24.9705321879
 30
0.0
 10
25.9208527814
 20
24.7412653148
 30
0.0
  0
SPLINE
  5
2EF
100
AcDbEntity
  8
0
100
AcDbSpline
 62
7
  6
BYLAYER
 70
0
 71
3
 72
15
 73
11
 74
0
 42
0.0000001
 43
0.0000001
 44
0.0000000001
 40
0.0
 40
0.0
 40
0.0
 40
0.0
 40
0.1005008871
 40
0.2053527625
 40
0.3169720494
 40
0.4368543251
 40
0.565589871
 40
0.7029884156
 40
0.8482277868
 40
1.0
 40
1.0
 40
1.0
 40
1.0
 10
27.0837593033
 20
26.8865792837
 30
0.0
 10
27.2082272966
 20
26.934981855
 30
0.0
 10
27.4752722221
 20
27.0036918517
 30
0.0
 10
27.8992837555
 20
27.0157013923
 30
0.0
 10
28.3423266958
 20
26.9394346669
 30
0.0
 10
28.7950281207
 20
26.7777100454
 30
0.0
 10
29.2485898434
 20
26.5346408457
 30
0.0
 10
29.6940772296
 20
26.2155074072
 30
0.0
 10
30.1225433917
 20
25.827039407
 30
0.0
 10
30.3863644814
 20
25.5324580875
 30
0.0
 10
30.5136329621
 20
25.3760067184
 30
0.0
  0
SPLINE
  5
2F0
100
AcDbEntity
  8
0
100
AcDbSpline
 62
7
  6
BYLAYER
 70
0
 71
3
 72
14
 73
10
 74
0
 42
0.0000001
 43
0.0000001
 44
0.0000000001
 40
0.0
 40
0.0
 40
0.0
 40
0.0
 40
0.2561424447
 40
0.3863965435
 40
0.5160160359
 40
0.6435062408
 40
0.7674475619
 40
0.8866563502
 40
1.0
 40
1.0
 40
1.0
 40
1.0
 10
30.5136329621
 20
25.3760067184
 30
0.0
 10
30.7644651278
 20
25.0676582923
 30
0.0
 10
31.10047834
 20
24.5661403332
 30
0.0
 10
31.4593828384
 20
23.8496786713
 30
0.0
 10
31.6824205585
 20
23.29059427
 30
0.0
 10
31.8533793151
 20
22.7237478875
 30
0.0
 10
31.9691546817
 20
22.1594738138
 30
0.0
 10
32.0274281878
 20
21.6084609924
 30
0.0
 10
32.0272936074
 20
21.2466756887
 30
0.0
 10
32.0165198906
 20
21.0711172195
 30
0.0
  0
SPLINE
  5
2F1
100
AcDbEntity
  8
0
100
AcDbSpline
 62
7
  6
BYLAYER
 70
0
 71
3
 72
11
 73
7
 74
0
 42
0.0000001
 43
0.0000001
 44
0.0000000001
 40
0.0
 40
0.0
 40
0.0
 40
0.0
 40
0.2816207461
 40
0.5389500459
 40
0.7753835846
 40
1.0
 40
1.0
 40
1.0
 40
1.0
 10
35.5768848152
 20
8.8756775087
 30
0.0
 10
35.5978549456
 20
8.8635706721
 30
0.0
 10
35.6400383374
 20
8.8436548721
 30
0.0
 10
35.7053856257
 20
8.8278663456
 30
0.0
 10
35.7678768197
 20
8.8286440056
 30
0.0
 10
35.8063721343
 20
8.8407221416
 30
0.0
 10
35.8236944053
 20
8.8492616128
 30
0.0
  0
SPLINE
  5
2F2
100
AcDbEntity
  8
0
100
AcDbSpline
 62
7
  6
BYLAYER
 70
0
 71
3
 72
9
 73
5
 74
0
 42
0.0000001
 43
0.0000001
 44
0.0000000001
 40
0.0
 40
0.0
 40
0.0
 40
0.0
 40
0.4793967058
 40
1.0
 40
1.0
 40
1.0
 40
1.0
 10
8.668979514
 20
24.8476774548
 30
0.0
 10
8.666103407
 20
24.8008110905
 30
0.0
 10
8.6739166953
 20
24.7020771833
 30
0.0
 10
8.702217612
 20
24.6075948114
 30
0.0
 10
8.7213779039
 20
24.5603410743
 30
0.0
  0
SPLINE
  5
2F3
100
AcDbEntity
  8
0
100
AcDbSpline
 62
7
  6
BYLAYER
 70
0
 71
3
 72
9
 73
5
 74
0
 42
0.0000001
 43
0.0000001
 44
0.0000000001
 40
0.0
 40
0.0
 40
0.0
 40
0.0
 40
0.5241606593
 40
1.0
 40
1.0
 40
1.0
 40
1.0
 10
8.7936379532
 20
24.4222384543
 30
0.0
 10
8.8211425464
 20
24.380225278
 30
0.0
 10
8.8813939432
 20
24.304847019
 30
0.0
 10
8.9571510838
 20
24.2442402609
 30
0.0
 10
8.9966302469
 20
24.2214474711
 30
0.0
  0
SPLINE
  5
2F4
100
AcDbEntity
  8
0
100
AcDbSpline
 62
7
  6
BYLAYER
 70
0
 71
3
 72
14
 73
10
 74
0
 42
0.0000001
 43
0.0000001
 44
0.0000000001
 40
0.0
 40
0.0
 40
0.0
 40
0.0
 40
0.2838698468
 40
0.416356931
 40
0.5426039933
 40
0.6631522947
 40
0.7788054009
 40
0.8906341767
 40
1.0
 40
1.0
 40
1.0
 40
1.0
 10
32.0165198906
 20
21.0711172195
 30
0.0
 10
32.002507129
 20
20.8427782882
 30
0.0
 10
31.9553728773
 20
20.5080437117
 30
0.0
 10
31.829537846
 20
20.0885902269
 30
0.0
 10
31.7100457802
 20
19.8064947723
 30
0.0
 10
31.5642309187
 20
19.5525234984
 30
0.0
 10
31.39339395
 20
19.3289544622
 30
0.0
 10
31.1989302518
 20
19.1382177142
 30
0.0
 10
31.0536921276
 20
19.0334410276
 30
0.0
 10
30.9784018864
 20
18.9876204896
 30
0.0
  0
SPLINE
  5
2F5
100
AcDbEntity
  8
0
100
AcDbSpline
 62
7
  6
BYLAYER
 70
0
 71
3
 72
14
 73
10
 74
0
 42
0.0000001
 43
0.0000001
 44
0.0000000001
 40
0.0
 40
0.0
 40
0.0
 40
0.0
 40
0.2838698468
 40
0.416356931
 40
0.5426039933
 40
0.6631522947
 40
0.7788054009
 40
0.8906341767
 40
1.0
 40
1.0
 40
1.0
 40
1.0
 10
19.9956545631
 20
28.0112100463
 30
0.0
 10
19.9816418015
 20
27.782871115
 30
0.0
 10
19.9345075498
 20
27.4481365386
 30
0.0
 10
19.8086725185
 20
27.0286830537
 30
0.0
 10
19.6891804527
 20
26.7465875992
 30
0.0
 10
19.5433655912
 20
26.4926163253
 30
0.0
 10
19.3725286225
 20
26.269047289
 30
0.0
 10
19.1780649243
 20
26.078310541
 30
0.0
 10
19.0328268001
 20
25.9735338545
 30
0.0
 10
18.9575365589
 20
25.9277133165
 30
0.0
  0
SPLINE
  5
2F6
100
AcDbEntity
  8
0
100
AcDbSpline
 62
7
  6
BYLAYER
 70
0
 71
3
 72
11
 73
7
 74
0
 42
0.0000001
 43
0.0000001
 44
0.0000000001
 40
0.0
 40
0.0
 40
0.0
 40
0.0
 40
0.2208046397
 40
0.4555309493
 40
0.7142412146
 40
1.0
 40
1.0
 40
1.0
 40
1.0
 10
11.5137912906
 20
69.286958379
 30
0.0
 10
11.4946099332
 20
69.2775024221
 30
0.0
 10
11.4581398669
 20
69.2510212634
 30
0.0
 10
11.4172373193
 20
69.1940550476
 30
0.0
 10
11.3905443859
 20
69.1227244149
 30
0.0
 10
11.3828371562
 20
69.0701777613
 30
0.0
 10
11.3811418884
 20
69.0425532539
 30
0.0
  0
SPLINE
  5
2F7
100
AcDbEntity
  8
0
100
AcDbSpline
 62
7
  6
BYLAYER
 70
0
 71
3
 72
11
 73
7
 74
0
 42
0.0000001
 43
0.0000001
 44
0.0000000001
 40
0.0
 40
0.0
 40
0.0
 40
0.0
 40
0.241638196
 40
0.504565749
 40
0.7649946202
 40
1.0
 40
1.0
 40
1.0
 40
1.0
 10
13.5852226487
 20
50.3597781847
 30
0.0
 10
13.581590117
 20
50.3005858259
 30
0.0
 10
13.5958646926
 20
50.1754561991
 30
0.0
 10
13.6635506129
 20
49.9986040892
 30
0.0
 10
13.7691320606
 20
49.8433692919
 30
0.0
 10
13.8629243344
 20
49.7623856444
 30
0.0
 10
13.9128733816
 20
49.733548201
 30
0.0
  0
SPLINE
  5
2F8
100
AcDbEntity
  8
0
100
AcDbSpline
 62
7
  6
BYLAYER
 70
0
 71
3
 72
11
 73
7
 74
0
 42
0.0000001
 43
0.0000001
 44
0.0000000001
 40
0.0
 40
0.0
 40
0.0
 40
0.0
 40
0.2816207461
 40
0.5389500459
 40
0.7753835846
 40
1.0
 40
1.0
 40
1.0
 40
1.0
 10
33.9947895758
 20
38.1395107726
 30
0.0
 10
34.0157597062
 20
38.127403936
 30
0.0
 10
34.057943098
 20
38.107488136
 30
0.0
 10
34.1232903863
 20
38.0916996095
 30
0.0
 10
34.1857815803
 20
38.0924772695
 30
0.0
 10
34.2242768949
 20
38.1045554056
 30
0.0
 10
34.2415991659
 20
38.1130948767
 30
0.0
  0
SPLINE
  5
2F9
100
AcDbEntity
  8
0
100
AcDbSpline
 62
7
  6
BYLAYER
 70
0
 71
3
 72
14
 73
10
 74
0
 42
0.0000001
 43
0.0000001
 44
0.0000000001
 40
0.0
 40
0.0
 40
0.0
 40
0.0
 40
0.2840566002
 40
0.4161543088
 40
0.5419006372
 40
0.6620029912
 40
0.7774599813
 40
0.8895950467
 40
1.0
 40
1.0
 40
1.0
 40
1.0
 10
13.7670574934
 20
31.7210154439
 30
0.0
 10
13.787337443
 20
31.9528933388
 30
0.0
 10
13.8455461154
 20
32.2918250596
 30
0.0
 10
13.9908148027
 20
32.7122410685
 30
0.0
 10
14.1259064865
 20
32.9918288532
 30
0.0
 10
14.2885444775
 20
33.2402868334
 30
0.0
 10
14.4772858561
 20
33.4551016784
 30
0.0
 10
14.6903238752
 20
33.633754327
 30
0.0
 10
14.8476565018
 20
33.7277742049
 30
0.0
 10
14.9288198886
 20
33.7677375115
 30
0.0
  0
SPLINE
  5
2FA
100
AcDbEntity
  8
0
100
AcDbSpline
 62
7
  6
BYLAYER
 70
0
 71
3
 72
23
 73
19
 74
0
 42
0.0000001
 43
0.0000001
 44
0.0000000001
 40
0.0
 40
0.0
 40
0.0
 40
0.0
 40
0.0450410211
 40
0.0914689265
 40
0.1404499358
 40
0.192798631
 40
0.2489463074
 40
0.3089711618
 40
0.3726600062
 40
0.4395702228
 40
0.5090817299
 40
0.5804457903
 40
0.6528300137
 40
0.7253577971
 40
0.7971497787
 40
0.8673468606
 40
0.935180692
 40
1.0
 40
1.0
 40
1.0
 40
1.0
 10
18.8257814618
 20
25.8553660361
 30
0.0
 10
18.7107064769
 20
25.7987053041
 30
0.0
 10
18.4628539659
 20
25.7103221798
 30
0.0
 10
18.062810388
 20
25.6625180971
 30
0.0
 10
17.6409275932
 20
25.6981392091
 30
0.0
 10
17.2059158181
 20
25.8153549681
 30
0.0
 10
16.7658753444
 20
26.0110288907
 30
0.0
 10
16.3289406792
 20
26.2809178373
 30
0.0
 10
15.9032415399
 20
26.619610767
 30
0.0
 10
15.4968485483
 20
27.0205150524
 30
0.0
 10
15.1175656974
 20
27.4758523608
 30
0.0
 10
14.7727007487
 20
27.9767457776
 30
0.0
 10
14.4689456369
 20
28.5134384728
 30
0.0
 10
14.212235767
 20
29.0754960706
 30
0.0
 10
14.0076017013
 20
29.6519463195
 30
0.0
 10
13.8589485615
 20
30.2315909524
 30
0.0
 10
13.7692458283
 20
30.8031548693
 30
0.0
 10
13.749515802
 20
31.1813057372
 30
0.0
 10
13.7507099657
 20
31.36589462
 30
0.0
  0
SPLINE
  5
2FB
100
AcDbEntity
  8
0
100
AcDbSpline
 62
7
  6
BYLAYER
 70
0
 71
3
 72
9
 73
5
 74
0
 42
0.0000001
 43
0.0000001
 44
0.0000000001
 40
0.0
 40
0.0
 40
0.0
 40
0.0
 40
0.4871201644
 40
1.0
 40
1.0
 40
1.0
 40
1.0
 10
35.8236944053
 20
8.8492616128
 30
0.0
 10
35.8411397641
 20
8.8578617634
 30
0.0
 10
35.8743972236
 20
8.8811911263
 30
0.0
 10
35.8993581728
 20
8.9130555189
 30
0.0
 10
35.9099847855
 20
8.9305611369
 30
0.0
  0
SPLINE
  5
2FC
100
AcDbEntity
  8
0
100
AcDbSpline
 62
7
  6
BYLAYER
 70
0
 71
3
 72
9
 73
5
 74
0
 42
0.0000001
 43
0.0000001
 44
0.0000000001
 40
0.0
 40
0.0
 40
0.0
 40
0.0
 40
0.2427142894
 40
1.0
 40
1.0
 40
1.0
 40
1.0
 10
35.9099847855
 20
8.9305611369
 30
0.0
 10
35.9124061059
 20
8.9345498689
 30
0.0
 10
35.9219342549
 20
8.9512538411
 30
0.0
 10
35.9296739139
 20
8.9689584429
 30
0.0
 10
35.9345906742
 20
8.9826617255
 30
0.0
  0
SPLINE
  5
2FD
100
AcDbEntity
  8
0
100
AcDbSpline
 62
7
  6
BYLAYER
 70
0
 71
3
 72
9
 73
5
 74
0
 42
0.0000001
 43
0.0000001
 44
0.0000000001
 40
0.0
 40
0.0
 40
0.0
 40
0.0
 40
0.2421447788
 40
1.0
 40
1.0
 40
1.0
 40
1.0
 10
14.1544461645
 20
56.9556779468
 30
0.0
 10
14.1613929636
 20
56.9575997086
 30
0.0
 10
14.1905134362
 20
56.963959781
 30
0.0
 10
14.2208790353
 20
56.9639070942
 30
0.0
 10
14.2432410423
 20
56.960936672
 30
0.0
  0
SPLINE
  5
2FE
100
AcDbEntity
  8
0
100
AcDbSpline
 62
7
  6
BYLAYER
 70
0
 71
3
 72
9
 73
5
 74
0
 42
0.0000001
 43
0.0000001
 44
0.0000000001
 40
0.0
 40
0.0
 40
0.0
 40
0.0
 40
0.2346636919
 40
1.0
 40
1.0
 40
1.0
 40
1.0
 10
14.2432410423
 20
56.960936672
 30
0.0
 10
14.2535042618
 20
56.9595733732
 30
0.0
 10
14.2968904014
 20
56.9511439655
 30
0.0
 10
14.3381047
 20
56.9332410197
 30
0.0
 10
14.3673476524
 20
56.9163579753
 30
0.0
  0
SPLINE
  5
2FF
100
AcDbEntity
  8
0
100
AcDbSpline
 62
7
  6
BYLAYER
 70
0
 71
3
 72
9
 73
5
 74
0
 42
0.0000001
 43
0.0000001
 44
0.0000000001
 40
0.0
 40
0.0
 40
0.0
 40
0.0
 40
0.2711941682
 40
1.0
 40
1.0
 40
1.0
 40
1.0
 10
34.3883526347
 20
38.3644464659
 30
0.0
 10
34.387408923
 20
38.3490686174
 30
0.0
 10
34.3812584467
 20
38.2926689704
 30
0.0
 10
34.3634785693
 20
38.2367336594
 30
0.0
 10
34.341993324
 20
38.2013403897
 30
0.0
  0
SPLINE
  5
300
100
AcDbEntity
  8
0
100
AcDbSpline
 62
7
  6
BYLAYER
 70
0
 71
3
 72
9
 73
5
 74
0
 42
0.0000001
 43
0.0000001
 44
0.0000000001
 40
0.0
 40
0.0
 40
0.0
 40
0.0
 40
0.257042283
 40
1.0
 40
1.0
 40
1.0
 40
1.0
 10
34.341993324
 20
38.2013403897
 30
0.0
 10
34.3393734884
 20
38.1970246584
 30
0.0
 10
34.3286925717
 20
38.1805399168
 30
0.0
 10
34.3159757494
 20
38.1653455888
 30
0.0
 10
34.3054802481
 20
38.1552069378
 30
0.0
  0
SPLINE
  5
301
100
AcDbEntity
  8
0
100
AcDbSpline
 62
7
  6
BYLAYER
 70
0
 71
3
 72
11
 73
7
 74
0
 42
0.0000001
 43
0.0000001
 44
0.0000000001
 40
0.0
 40
0.0
 40
0.0
 40
0.0
 40
0.2350056222
 40
0.4954345838
 40
0.7583620512
 40
1.0
 40
1.0
 40
1.0
 40
1.0
 10
34.4492638465
 20
45.3223205469
 30
0.0
 10
34.4992129452
 20
45.2934830737
 30
0.0
 10
34.5930052707
 20
45.2124993522
 30
0.0
 10
34.6985867104
 20
45.0572644762
 30
0.0
 10
34.7662725625
 20
44.8804124042
 30
0.0
 10
34.7805471075
 20
44.7552828614
 30
0.0
 10
34.7769145795
 20
44.6960905631
 30
0.0
  0
SPLINE
  5
302
100
AcDbEntity
  8
0
100
AcDbSpline
 62
7
  6
BYLAYER
 70
0
 71
3
 72
9
 73
5
 74
0
 42
0.0000001
 43
0.0000001
 44
0.0000000001
 40
0.0
 40
0.0
 40
0.0
 40
0.0
 40
0.2665306618
 40
1.0
 40
1.0
 40
1.0
 40
1.0
 10
11.7606008806
 20
69.2605424831
 30
0.0
 10
11.7504203007
 20
69.2664201108
 30
0.0
 10
11.7113849721
 20
69.2868959507
 30
0.0
 10
11.6685635918
 20
69.3008611581
 30
0.0
 10
11.6364952964
 20
69.3051210407
 30
0.0
  0
SPLINE
  5
303
100
AcDbEntity
  8
0
100
AcDbSpline
 62
7
  6
BYLAYER
 70
0
 71
3
 72
9
 73
5
 74
0
 42
0.0000001
 43
0.0000001
 44
0.0000000001
 40
0.0
 40
0.0
 40
0.0
 40
0.0
 40
0.51405085
 40
1.0
 40
1.0
 40
1.0
 40
1.0
 10
11.6364952964
 20
69.3051210407
 30
0.0
 10
11.6151898006
 20
69.3079512164
 30
0.0
 10
11.5727693117
 20
69.3083677731
 30
0.0
 10
11.5320149113
 20
69.2959421944
 30
0.0
 10
11.5137912906
 20
69.286958379
 30
0.0
  0
SPLINE
  5
304
100
AcDbEntity
  8
0
100
AcDbSpline
 62
7
  6
BYLAYER
 70
0
 71
3
 72
9
 73
5
 74
0
 42
0.0000001
 43
0.0000001
 44
0.0000000001
 40
0.0
 40
0.0
 40
0.0
 40
0.0
 40
0.5241606593
 40
1.0
 40
1.0
 40
1.0
 40
1.0
 10
38.5438477426
 20
53.7139815375
 30
0.0
 10
38.5163431494
 20
53.7559947138
 30
0.0
 10
38.4560917527
 20
53.8313729728
 30
0.0
 10
38.380334612
 20
53.8919797309
 30
0.0
 10
38.3408554489
 20
53.9147725207
 30
0.0
  0
SPLINE
  5
305
100
AcDbEntity
  8
0
100
AcDbSpline
 62
7
  6
BYLAYER
 70
0
 71
3
 72
11
 73
7
 74
0
 42
0.0000001
 43
0.0000001
 44
0.0000000001
 40
0.0
 40
0.0
 40
0.0
 40
0.0
 40
0.2208046397
 40
0.4555309493
 40
0.7142412146
 40
1.0
 40
1.0
 40
1.0
 40
1.0
 10
34.2415991659
 20
38.1130948767
 30
0.0
 10
34.2607805233
 20
38.1225508336
 30
0.0
 10
34.2972505895
 20
38.1490319923
 30
0.0
 10
34.3381531371
 20
38.2059982082
 30
0.0
 10
34.3648460706
 20
38.2773288408
 30
0.0
 10
34.3725533002
 20
38.3298754944
 30
0.0
 10
34.374248568
 20
38.3575000018
 30
0.0
  0
SPLINE
  5
306
100
AcDbEntity
  8
0
100
AcDbSpline
 62
7
  6
BYLAYER
 70
0
 71
3
 72
14
 73
10
 74
0
 42
0.0000001
 43
0.0000001
 44
0.0000000001
 40
0.0
 40
0.0
 40
0.0
 40
0.0
 40
0.2840566002
 40
0.4161543088
 40
0.5419006372
 40
0.6620029912
 40
0.7774599813
 40
0.8895950467
 40
1.0
 40
1.0
 40
1.0
 40
1.0
 10
25.7879228209
 20
24.7809226171
 30
0.0
 10
25.8082027705
 20
25.0128005119
 30
0.0
 10
25.8664114429
 20
25.3517322327
 30
0.0
 10
26.0116801302
 20
25.7721482417
 30
0.0
 10
26.146771814
 20
26.0517360263
 30
0.0
 10
26.309409805
 20
26.3001940066
 30
0.0
 10
26.4981511836
 20
26.5150088516
 30
0.0
 10
26.7111892027
 20
26.6936615002
 30
0.0
 10
26.8685218293
 20
26.787681378
 30
0.0
 10
26.9496852161
 20
26.8276446846
 30
0.0
  0
SPLINE
  5
307
100
AcDbEntity
  8
0
100
AcDbSpline
 62
7
  6
BYLAYER
 70
0
 71
3
 72
11
 73
7
 74
0
 42
0.0000001
 43
0.0000001
 44
0.0000000001
 40
0.0
 40
0.0
 40
0.0
 40
0.0
 40
0.2816207461
 40
0.5389500459
 40
0.7753835846
 40
1.0
 40
1.0
 40
1.0
 40
1.0
 10
14.3532435857
 20
56.9094115112
 30
0.0
 10
14.3322734553
 20
56.9215183478
 30
0.0
 10
14.2900900635
 20
56.9414341478
 30
0.0
 10
14.2247427752
 20
56.9572226743
 30
0.0
 10
14.1622515812
 20
56.9564450143
 30
0.0
 10
14.1237562666
 20
56.9443668783
 30
0.0
 10
14.1064339956
 20
56.9358274071
 30
0.0
  0
SPLINE
  5
308
100
AcDbEntity
  8
0
100
AcDbSpline
 62
7
  6
BYLAYER
 70
0
 71
3
 72
11
 73
7
 74
0
 42
0.0000001
 43
0.0000001
 44
0.0000000001
 40
0.0
 40
0.0
 40
0.0
 40
0.0
 40
0.241638196
 40
0.504565749
 40
0.7649946202
 40
1.0
 40
1.0
 40
1.0
 40
1.0
 10
34.7628105128
 20
44.6891440991
 30
0.0
 10
34.7664430445
 20
44.7483364579
 30
0.0
 10
34.7521684689
 20
44.8734660848
 30
0.0
 10
34.6844825486
 20
45.0503181946
 30
0.0
 10
34.5789011009
 20
45.2055529919
 30
0.0
 10
34.4851088271
 20
45.2865366394
 30
0.0
 10
34.4351597799
 20
45.3153740828
 30
0.0
  0
SPLINE
  5
309
100
AcDbEntity
  8
0
100
AcDbSpline
 62
7
  6
BYLAYER
 70
0
 71
3
 72
15
 73
11
 74
0
 42
0.0000001
 43
0.0000001
 44
0.0000000001
 40
0.0
 40
0.0
 40
0.0
 40
0.0
 40
0.1040883476
 40
0.2109903622
 40
0.3231230555
 40
0.4422606144
 40
0.5694459945
 40
0.7050312774
 40
0.8487871999
 40
1.0
 40
1.0
 40
1.0
 40
1.0
 10
30.8466467893
 20
18.9152732092
 30
0.0
 10
30.739134327
 20
18.8623361194
 30
0.0
 10
30.5089323406
 20
18.7782447159
 30
0.0
 10
30.138209204
 20
18.7257452084
 30
0.0
 10
29.7472033757
 20
18.7460284565
 30
0.0
 10
29.3430635739
 20
18.8379830712
 30
0.0
 10
28.9324778913
 20
18.9993228175
 30
0.0
 10
28.5221078083
 20
19.2268823165
 30
0.0
 10
28.1187097858
 20
19.5166228285
 30
0.0
 10
27.8645777543
 20
19.7428841085
 30
0.0
 10
27.7400832216
 20
19.8645791809
 30
0.0
  0
SPLINE
  5
30A
100
AcDbEntity
  8
0
100
AcDbSpline
 62
7
  6
BYLAYER
 70
0
 71
3
 72
15
 73
11
 74
0
 42
0.0000001
 43
0.0000001
 44
0.0000000001
 40
0.0
 40
0.0
 40
0.0
 40
0.0
 40
0.1229901234
 40
0.2503495936
 40
0.3802463546
 40
0.5107055609
 40
0.639731701
 40
0.7653824993
 40
0.8859688577
 40
1.0
 40
1.0
 40
1.0
 40
1.0
 10
27.7400832216
 20
19.8645791809
 30
0.0
 10
27.5836647141
 20
20.0174803661
 30
0.0
 10
27.2833182005
 20
20.3476129127
 30
0.0
 10
26.8825569553
 20
20.8936936091
 30
0.0
 10
26.5312605161
 20
21.4883518834
 30
0.0
 10
26.2380954652
 20
22.1169494775
 30
0.0
 10
26.0102608857
 20
22.7640937981
 30
0.0
 10
25.8532348872
 20
23.4140423699
 30
0.0
 10
25.7710623553
 20
24.0507695395
 30
0.0
 10
25.7673898323
 20
24.4693787116
 30
0.0
 10
25.7798121148
 20
24.6718006744
 30
0.0
  0
SPLINE
  5
30B
100
AcDbEntity
  8
0
100
AcDbSpline
 62
7
  6
BYLAYER
 70
0
 71
3
 72
25
 73
21
 74
0
 42
0.0000001
 43
0.0000001
 44
0.0000000001
 40
0.0
 40
0.0
 40
0.0
 40
0.0
 40
0.0206683804
 40
0.0415800872
 40
0.0629650924
 40
0.08502999
 40
0.1317905595
 40
0.1828978691
 40
0.2387667187
 40
0.2993569097
 40
0.3642824274
 40
0.4328990027
 40
0.504372477
 40
0.5777348165
 40
0.651943692
 40
0.725933673
 40
0.7986579518
 40
0.8691213713
 40
0.9364780549
 40
1.0
 40
1.0
 40
1.0
 40
1.0
 10
34.3709501108
 20
73.9806325248
 30
0.0
 10
34.3709505013
 20
73.8987026221
 30
0.0
 10
34.3819817169
 20
73.7336755711
 30
0.0
 10
34.4312340696
 20
73.4883157107
 30
0.0
 10
34.5129510658
 20
73.2459133116
 30
0.0
 10
34.6673639971
 20
72.9225550173
 30
0.0
 10
34.9445113454
 20
72.5315969734
 30
0.0
 10
35.3862534984
 20
72.1076464534
 30
0.0
 10
35.9335157572
 20
71.7270965778
 30
0.0
 10
36.574626395
 20
71.3976364299
 30
0.0
 10
37.296246705
 20
71.1260539022
 30
0.0
 10
38.0832562698
 20
70.918330199
 30
0.0
 10
38.9190365234
 20
70.7792460817
 30
0.0
 10
39.7858095232
 20
70.7121276451
 30
0.0
 10
40.6651037313
 20
70.7188138689
 30
0.0
 10
41.5381859451
 20
70.7996035483
 30
0.0
 10
42.3864282148
 20
70.9531424337
 30
0.0
 10
43.1918335247
 20
71.1768512393
 30
0.0
 10
43.9371843883
 20
71.4658955712
 30
0.0
 10
44.3986202632
 20
71.7063098985
 30
0.0
 10
44.6136084527
 20
71.8373995705
 30
0.0
  0
SPLINE
  5
30C
100
AcDbEntity
  8
0
100
AcDbSpline
 62
7
  6
BYLAYER
 70
0
 71
3
 72
25
 73
21
 74
0
 42
0.0000001
 43
0.0000001
 44
0.0000000001
 40
0.0
 40
0.0
 40
0.0
 40
0.0
 40
0.0206692922
 40
0.041581938
 40
0.0629674645
 40
0.0850324911
 40
0.1317925681
 40
0.1828983903
 40
0.2387637604
 40
0.2993517207
 40
0.3642777996
 40
0.4328964876
 40
0.5043704292
 40
0.5777308734
 40
0.6519393856
 40
0.7259320446
 40
0.7986575507
 40
0.8691218426
 40
0.9364809727
 40
1.0
 40
1.0
 40
1.0
 40
1.0
 10
34.3709500194
 20
74.7971554253
 30
0.0
 10
34.370949916
 20
74.7152217904
 30
0.0
 10
34.381982518
 20
74.5501870378
 30
0.0
 10
34.4312386596
 20
74.3048183113
 30
0.0
 10
34.5129506689
 20
74.062407106
 30
0.0
 10
34.6673689272
 20
73.7390497174
 30
0.0
 10
34.9445121432
 20
73.3480975568
 30
0.0
 10
35.3862404014
 20
72.9241627708
 30
0.0
 10
35.9334744259
 20
72.5436214105
 30
0.0
 10
36.5745658356
 20
72.2141657567
 30
0.0
 10
37.2961865475
 20
71.9425765782
 30
0.0
 10
38.083207601
 20
71.7348422348
 30
0.0
 10
38.9189912783
 20
71.5957552075
 30
0.0
 10
39.7857579964
 20
71.5286291732
 30
0.0
 10
40.6650546965
 20
71.5353167809
 30
0.0
 10
41.5381544489
 20
71.6160945243
 30
0.0
 10
42.3864104885
 20
71.7696634433
 30
0.0
 10
43.1918518607
 20
71.993309034
 30
0.0
 10
43.9371878292
 20
72.2824339989
 30
0.0
 10
44.3985615193
 20
72.5229302416
 30
0.0
 10
44.6136084527
 20
72.6539019877
 30
0.0
  0
SPLINE
  5
30D
100
AcDbEntity
  8
0
100
AcDbSpline
 62
7
  6
BYLAYER
 70
0
 71
3
 72
15
 73
11
 74
0
 42
0.0000001
 43
0.0000001
 44
0.0000000001
 40
0.0
 40
0.0
 40
0.0
 40
0.0
 40
0.115349337
 40
0.2393846458
 40
0.3695548616
 40
0.5027423261
 40
0.6356166795
 40
0.764764025
 40
0.887081752
 40
1.0
 40
1.0
 40
1.0
 40
1.0
 10
44.6136084527
 20
71.0208971534
 30
0.0
 10
44.323848558
 20
70.8450504874
 30
0.0
 10
43.6896544546
 20
70.5330280402
 30
0.0
 10
42.6554111328
 20
70.1931680626
 30
0.0
 10
41.5358084616
 20
69.9725941251
 30
0.0
 10
40.3723957439
 20
69.882974994
 30
0.0
 10
39.2094813487
 20
69.924050736
 30
0.0
 10
38.0897574126
 20
70.0906559263
 30
0.0
 10
37.0558462857
 20
70.3794001413
 30
0.0
 10
36.4193287254
 20
70.6573478794
 30
0.0
 10
36.1283270785
 20
70.816751153
 30
0.0
  0
SPLINE
  5
30E
100
AcDbEntity
  8
0
100
AcDbSpline
 62
7
  6
BYLAYER
 70
0
 71
3
 72
24
 73
20
 74
0
 42
0.0000001
 43
0.0000001
 44
0.0000000001
 40
0.0
 40
0.0
 40
0.0
 40
0.0
 40
0.0634898839
 40
0.1308713931
 40
0.2013548324
 40
0.2740785471
 40
0.3480767677
 40
0.4222949081
 40
0.495659188
 40
0.5671417923
 40
0.6357889179
 40
0.7007354534
 40
0.7613081685
 40
0.8171479492
 40
0.8682893453
 40
0.915106478
 40
0.9584785379
 40
0.9793612198
 40
1.0
 40
1.0
 40
1.0
 40
1.0
 10
44.6136084527
 20
73.4704044048
 30
0.0
 10
44.3984802436
 20
73.3398543126
 30
0.0
 10
43.9368194597
 20
73.1002006068
 30
0.0
 10
43.1918674954
 20
72.8104063418
 30
0.0
 10
42.3865701044
 20
72.5858921223
 30
0.0
 10
41.5381190971
 20
72.4333614803
 30
0.0
 10
40.6650524563
 20
72.3533137462
 30
0.0
 10
39.7858302823
 20
72.3461612582
 30
0.0
 10
38.9190188587
 20
72.4123594817
 30
0.0
 10
38.0831248853
 20
72.5513318783
 30
0.0
 10
37.2962515078
 20
72.760137756
 30
0.0
 10
36.574779877
 20
73.032084103
 30
0.0
 10
35.9335664271
 20
73.3608516559
 30
0.0
 10
35.3859375673
 20
73.7406187141
 30
0.0
 10
34.9443809045
 20
74.165339396
 30
0.0
 10
34.6184182784
 20
74.6255392776
 30
0.0
 10
34.4484193058
 20
75.0367521191
 30
0.0
 10
34.3819925543
 20
75.3674283506
 30
0.0
 10
34.3709513822
 20
75.5322128724
 30
0.0
 10
34.3709501547
 20
75.6140144831
 30
0.0
  0
SPLINE
  5
30F
100
AcDbEntity
  8
0
100
AcDbSpline
 62
7
  6
BYLAYER
 70
0
 71
3
 72
11
 73
7
 74
0
 42
0.0000001
 43
0.0000001
 44
0.0000000001
 40
0.0
 40
0.0
 40
0.0
 40
0.0
 40
0.2250444281
 40
0.4654773646
 40
0.7236823799
 40
1.0
 40
1.0
 40
1.0
 40
1.0
 10
46.1665117931
 20
75.0913099705
 30
0.0
 10
46.0969294356
 20
74.9353601633
 30
0.0
 10
45.919986141
 20
74.6268873568
 30
0.0
 10
45.5678187446
 20
74.2027102771
 30
0.0
 10
45.1282367942
 20
73.8093527371
 30
0.0
 10
44.7928605789
 20
73.5791831731
 30
0.0
 10
44.6136084527
 20
73.4704044048
 30
0.0
  0
SPLINE
  5
310
100
AcDbEntity
  8
0
100
AcDbSpline
 62
7
  6
BYLAYER
 70
0
 71
3
 72
23
 73
19
 74
0
 42
0.0000001
 43
0.0000001
 44
0.0000000001
 40
0.0
 40
0.0
 40
0.0
 40
0.0
 40
0.063517883
 40
0.1308637588
 40
0.2013298136
 40
0.2740709889
 40
0.3480734813
 40
0.4222946086
 40
0.4956759219
 40
0.5671592658
 40
0.6357680116
 40
0.7007018627
 40
0.7613295435
 40
0.8172270253
 40
0.8683086885
 40
0.9150323938
 40
0.9584299649
 40
1.0
 40
1.0
 40
1.0
 40
1.0
 10
44.6136084527
 20
74.2869068219
 30
0.0
 10
44.3986103709
 20
74.155937171
 30
0.0
 10
43.9372187406
 20
73.9157167713
 30
0.0
 10
43.1917322576
 20
73.6274660671
 30
0.0
 10
42.3863597685
 20
73.4041169024
 30
0.0
 10
41.5383052863
 20
73.2496918075
 30
0.0
 10
40.665228398
 20
73.1681286055
 30
0.0
 10
39.7858549905
 20
73.1621569951
 30
0.0
 10
38.9191399136
 20
73.2302105706
 30
0.0
 10
38.0834094524
 20
73.3690540681
 30
0.0
 10
37.296182854
 20
73.5756530311
 30
0.0
 10
36.5744763017
 20
73.8472337152
 30
0.0
 10
35.9335554846
 20
74.1775282583
 30
0.0
 10
35.3865576809
 20
74.5584225146
 30
0.0
 10
34.9445522097
 20
74.9819022249
 30
0.0
 10
34.6180454009
 20
75.4414311698
 30
0.0
 10
34.4167868532
 20
75.9282983765
 30
0.0
 10
34.370949068
 20
76.2665905927
 30
0.0
 10
34.3709501059
 20
76.4313502897
 30
0.0
  0
SPLINE
  5
311
100
AcDbEntity
  8
0
100
AcDbSpline
 62
7
  6
BYLAYER
 70
0
 71
3
 72
11
 73
7
 74
0
 42
0.0000001
 43
0.0000001
 44
0.0000000001
 40
0.0
 40
0.0
 40
0.0
 40
0.0
 40
0.2790880275
 40
0.5377579444
 40
0.7769035146
 40
1.0
 40
1.0
 40
1.0
 40
1.0
 10
44.6136084527
 20
76.7364140887
 30
0.0
 10
44.8121384725
 20
76.8570856314
 30
0.0
 10
45.1811917613
 20
77.1132007504
 30
0.0
 10
45.6554875114
 20
77.5567457888
 30
0.0
 10
46.0196632786
 20
78.037783745
 30
0.0
 10
46.1875892603
 20
78.3879101864
 30
0.0
 10
46.2478848284
 20
78.5635665212
 30
0.0
  0
SPLINE
  5
312
100
AcDbEntity
  8
0
100
AcDbSpline
 62
7
  6
BYLAYER
 70
0
 71
3
 72
9
 73
5
 74
0
 42
0.0000001
 43
0.0000001
 44
0.0000000001
 40
0.0
 40
0.0
 40
0.0
 40
0.0
 40
0.5045466934
 40
1.0
 40
1.0
 40
1.0
 40
1.0
 10
46.2478848284
 20
78.5635665212
 30
0.0
 10
46.2881424317
 20
78.6808471651
 30
0.0
 10
46.3498790952
 20
78.9199803005
 30
0.0
 10
46.3709497369
 20
79.1661712431
 30
0.0
 10
46.3709501404
 20
79.2879341249
 30
0.0
  0
SPLINE
  5
313
100
AcDbEntity
  8
0
100
AcDbSpline
 62
7
  6
BYLAYER
 70
0
 71
3
 72
14
 73
10
 74
0
 42
0.0000001
 43
0.0000001
 44
0.0000000001
 40
0.0
 40
0.0
 40
0.0
 40
0.0
 40
0.1080440985
 40
0.2181337643
 40
0.3321070175
 40
0.4514834691
 40
0.5774328552
 40
0.7107567452
 40
1.0
 40
1.0
 40
1.0
 40
1.0
 10
44.5584191713
 20
79.9800294524
 30
0.0
 10
44.5584209958
 20
79.9007576874
 30
0.0
 10
44.5446991196
 20
79.7403847813
 30
0.0
 10
44.4831732392
 20
79.5035394473
 30
0.0
 10
44.3817939543
 20
79.2717731659
 30
0.0
 10
44.2416973737
 20
79.0474778115
 30
0.0
 10
44.064437632
 20
78.8326012938
 30
0.0
 10
43.7731641286
 20
78.553897013
 30
0.0
 10
43.5157578948
 20
78.3766294558
 30
0.0
 10
43.3319720758
 20
78.2705212971
 30
0.0
  0
SPLINE
  5
314
100
AcDbEntity
  8
0
100
AcDbSpline
 62
7
  6
BYLAYER
 70
0
 71
3
 72
9
 73
5
 74
0
 42
0.0000001
 43
0.0000001
 44
0.0000000001
 40
0.0
 40
0.0
 40
0.0
 40
0.0
 40
0.2597072077
 40
1.0
 40
1.0
 40
1.0
 40
1.0
 10
36.7116572742
 20
82.0926753613
 30
0.0
 10
36.6530704174
 20
82.0588504257
 30
0.0
 10
36.4302680247
 20
81.923911006
 30
0.0
 10
36.2188290514
 20
81.7696824235
 30
0.0
 10
36.0726821257
 20
81.6438775974
 30
0.0
  0
SPLINE
  5
315
100
AcDbEntity
  8
0
100
AcDbSpline
 62
7
  6
BYLAYER
 70
0
 71
3
 72
11
 73
7
 74
0
 42
0.0000001
 43
0.0000001
 44
0.0000000001
 40
0.0
 40
0.0
 40
0.0
 40
0.0
 40
0.2766032406
 40
0.5317457064
 40
0.7704205575
 40
1.0
 40
1.0
 40
1.0
 40
1.0
 10
36.0307103619
 20
81.6071648333
 30
0.0
 10
35.9010375218
 20
81.4918963866
 30
0.0
 10
35.6676625942
 20
81.2510302267
 30
0.0
 10
35.3989996473
 20
80.8455633327
 30
0.0
 10
35.2334921725
 20
80.4189508089
 30
0.0
 10
35.1959826412
 20
80.1240327406
 30
0.0
 10
35.195968032
 20
79.9800294558
 30
0.0
  0
SPLINE
  5
316
100
AcDbEntity
  8
0
100
AcDbSpline
 62
7
  6
BYLAYER
 70
0
 71
3
 72
17
 73
13
 74
0
 42
0.0000001
 43
0.0000001
 44
0.0000000001
 40
0.0
 40
0.0
 40
0.0
 40
0.0
 40
0.1566041844
 40
0.3074621804
 40
0.4496425505
 40
0.5810921058
 40
0.7006321649
 40
0.8085074755
 40
0.8587390995
 40
0.907000408
 40
0.9538639135
 40
1.0
 40
1.0
 40
1.0
 40
1.0
 10
39.7959673709
 20
77.5853089299
 30
0.0
 10
39.5513448709
 20
77.604886676
 30
0.0
 10
39.0726323339
 20
77.6681411299
 30
0.0
 10
38.386910883
 20
77.8364776142
 30
0.0
 10
37.7629605403
 20
78.0722500257
 30
0.0
 10
37.2199891752
 20
78.3683385803
 30
0.0
 10
36.7746355272
 20
78.7164082297
 30
0.0
 10
36.4898766148
 20
79.0508623588
 30
0.0
 10
36.3303177491
 20
79.3331314951
 30
0.0
 10
36.245937505
 20
79.5455443471
 30
0.0
 10
36.194859965
 20
79.7617482043
 30
0.0
 10
36.1834819422
 20
79.9077324595
 30
0.0
 10
36.1834829257
 20
79.9800294512
 30
0.0
  0
SPLINE
  5
317
100
AcDbEntity
  8
0
100
AcDbSpline
 62
7
  6
BYLAYER
 70
0
 71
3
 72
17
 73
13
 74
0
 42
0.0000001
 43
0.0000001
 44
0.0000000001
 40
0.0
 40
0.0
 40
0.0
 40
0.0
 40
0.1286721209
 40
0.2703135246
 40
0.4174424614
 40
0.5617803619
 40
0.6954393827
 40
0.8126940246
 40
0.8646544793
 40
0.912525523
 40
0.957212286
 40
1.0
 40
1.0
 40
1.0
 40
1.0
 10
40.7775496403
 20
78.1579889151
 30
0.0
 10
40.7349921943
 20
78.1825589121
 30
0.0
 10
40.6386035994
 20
78.2223049805
 30
0.0
 10
40.4815440264
 20
78.2537618557
 30
0.0
 10
40.315413003
 20
78.2583172235
 30
0.0
 10
40.1538029404
 20
78.2356340466
 30
0.0
 10
40.0097981541
 20
78.1875085581
 30
0.0
 10
39.9096267572
 20
78.1265661242
 30
0.0
 10
39.8508222122
 20
78.0675780457
 30
0.0
 10
39.819579417
 20
78.0216051214
 30
0.0
 10
39.8004028698
 20
77.9731266438
 30
0.0
 10
39.7959648161
 20
77.9395880866
 30
0.0
 10
39.7959649339
 20
77.9232471445
 30
0.0
  0
SPLINE
  5
318
100
AcDbEntity
  8
0
100
AcDbSpline
 62
7
  6
BYLAYER
 70
0
 71
3
 72
11
 73
7
 74
0
 42
0.0000001
 43
0.0000001
 44
0.0000000001
 40
0.0
 40
0.0
 40
0.0
 40
0.0
 40
0.2177159471
 40
0.4509403815
 40
0.7102937689
 40
1.0
 40
1.0
 40
1.0
 40
1.0
 10
40.9459649339
 20
77.9232499087
 30
0.0
 10
40.945964776
 20
77.945144018
 30
0.0
 10
40.9378565546
 20
77.9907906063
 30
0.0
 10
40.9032762456
 20
78.0544067165
 30
0.0
 10
40.8485461438
 20
78.1118909543
 30
0.0
 10
40.8027802627
 20
78.143422338
 30
0.0
 10
40.7775496403
 20
78.1579889151
 30
0.0
  0
SPLINE
  5
319
100
AcDbEntity
  8
0
100
AcDbSpline
 62
7
  6
BYLAYER
 70
0
 71
3
 72
11
 73
7
 74
0
 42
0.0000001
 43
0.0000001
 44
0.0000000001
 40
0.0
 40
0.0
 40
0.0
 40
0.0
 40
0.229814141
 40
0.4754206426
 40
0.7335275319
 40
1.0
 40
1.0
 40
1.0
 40
1.0
 10
43.3319720758
 20
78.2705212971
 30
0.0
 10
43.1660586075
 20
78.1747316833
 30
0.0
 10
42.808215283
 20
78.0013061038
 30
0.0
 10
42.228952102
 20
77.8017046197
 30
0.0
 10
41.6019800138
 20
77.6583525872
 30
0.0
 10
41.1673988462
 20
77.6030344899
 30
0.0
 10
40.9459673709
 20
77.5853116941
 30
0.0
  0
SPLINE
  5
31A
100
AcDbEntity
  8
0
100
AcDbSpline
 62
7
  6
BYLAYER
 70
0
 71
3
 72
23
 73
19
 74
0
 42
0.0000001
 43
0.0000001
 44
0.0000000001
 40
0.0
 40
0.0
 40
0.0
 40
0.0
 40
0.0427730312
 40
0.0872117228
 40
0.1346836331
 40
0.1860951364
 40
0.241879219
 40
0.30206399
 40
0.3663483975
 40
0.4341809589
 40
0.5048281781
 40
0.5774220971
 40
0.6510082687
 40
0.7245959063
 40
0.7971937904
 40
0.8678393176
 40
0.9356828657
 40
1.0
 40
1.0
 40
1.0
 40
1.0
 10
45.5459321716
 20
79.9800294576
 30
0.0
 10
45.5459466595
 20
80.1228371216
 30
0.0
 10
45.508971444
 20
80.4151820236
 30
0.0
 10
45.3463807014
 20
80.8384234878
 30
0.0
 10
45.0819147157
 20
81.2410496466
 30
0.0
 10
44.7227603498
 20
81.6154454267
 30
0.0
 10
44.2768110584
 20
81.9553704525
 30
0.0
 10
43.7530029702
 20
82.2547386259
 30
0.0
 10
43.161690984
 20
82.5080303924
 30
0.0
 10
42.5145840904
 20
82.7104498388
 30
0.0
 10
41.8245266103
 20
82.8579897898
 30
0.0
 10
41.1053082549
 20
82.9476920365
 30
0.0
 10
40.3713548589
 20
82.9778404804
 30
0.0
 10
39.6373791134
 20
82.9477924847
 30
0.0
 10
38.9181547501
 20
82.8580864677
 30
0.0
 10
38.2280137344
 20
82.7106425523
 30
0.0
 10
37.5808033782
 20
82.5083215007
 30
0.0
 10
37.1742754672
 20
82.3341156595
 30
0.0
 10
36.9822159721
 20
82.238066691
 30
0.0
  0
SPLINE
  5
31B
100
AcDbEntity
  8
0
100
AcDbSpline
 62
7
  6
BYLAYER
 70
0
 71
3
 72
25
 73
21
 74
0
 42
0.0000001
 43
0.0000001
 44
0.0000000001
 40
0.0
 40
0.0
 40
0.0
 40
0.0
 40
0.0206689952
 40
0.0415815337
 40
0.0629674788
 40
0.0850331787
 40
0.1317942383
 40
0.1828997102
 40
0.2387644285
 40
0.2993530301
 40
0.3642792601
 40
0.4328965176
 40
0.504369483
 40
0.5777309711
 40
0.6519407987
 40
0.7259334743
 40
0.798659039
 40
0.8691221291
 40
0.9364855016
 40
1.0
 40
1.0
 40
1.0
 40
1.0
 10
34.3709503975
 20
78.0631645293
 30
0.0
 10
34.3709533109
 20
77.9812321241
 30
0.0
 10
34.3819845893
 20
77.8161996786
 30
0.0
 10
34.4312315198
 20
77.570828579
 30
0.0
 10
34.5129559044
 20
77.3284173959
 30
0.0
 10
34.6673738496
 20
77.0050515786
 30
0.0
 10
34.9445230726
 20
76.6140966577
 30
0.0
 10
35.3862517364
 20
76.1901638121
 30
0.0
 10
35.9334836564
 20
75.8096222194
 30
0.0
 10
36.5745782838
 20
75.4801725598
 30
0.0
 10
37.2961954999
 20
75.208583118
 30
0.0
 10
38.0832078534
 20
75.0008531206
 30
0.0
 10
38.9189849052
 20
74.8617622707
 30
0.0
 10
39.7857573824
 20
74.7946431801
 30
0.0
 10
40.6650619056
 20
74.8013256078
 30
0.0
 10
41.5381701114
 20
74.8820943112
 30
0.0
 10
42.3864067645
 20
75.0357232968
 30
0.0
 10
43.1918975248
 20
75.2592240894
 30
0.0
 10
43.9371909013
 20
75.5485130992
 30
0.0
 10
44.3984359721
 20
75.7891811531
 30
0.0
 10
44.6136084527
 20
75.9199116562
 30
0.0
  0
SPLINE
  5
31C
100
AcDbEntity
  8
0
100
AcDbSpline
 62
7
  6
BYLAYER
 70
0
 71
3
 72
25
 73
21
 74
0
 42
0.0000001
 43
0.0000001
 44
0.0000000001
 40
0.0
 40
0.0
 40
0.0
 40
0.0
 40
0.0206691508
 40
0.0415818348
 40
0.0629674624
 40
0.0850323762
 40
0.1317921578
 40
0.1828982566
 40
0.2387659102
 40
0.2993562554
 40
0.3642827088
 40
0.43289951
 40
0.5043716112
 40
0.5777338959
 40
0.651944486
 40
0.7259360242
 40
0.7986599007
 40
0.8691207255
 40
0.9364831182
 40
1.0
 40
1.0
 40
1.0
 40
1.0
 10
34.3709502153
 20
78.8796604039
 30
0.0
 10
34.3709526754
 20
78.7977274186
 30
0.0
 10
34.3819859848
 20
78.6326937726
 30
0.0
 10
34.4312366284
 20
78.3873238727
 30
0.0
 10
34.5129556665
 20
78.1449151632
 30
0.0
 10
34.6673690243
 20
77.821557496
 30
0.0
 10
34.9445168724
 20
77.4306093523
 30
0.0
 10
35.3862477512
 20
77.0066660174
 30
0.0
 10
35.9335006218
 20
76.6261174565
 30
0.0
 10
36.5746117816
 20
76.2966585889
 30
0.0
 10
37.2962364231
 20
76.0250721192
 30
0.0
 10
38.0832452544
 20
75.8173479828
 30
0.0
 10
38.9190202553
 20
75.6782594271
 30
0.0
 10
39.7857954482
 20
75.6111458422
 30
0.0
 10
40.6651013782
 20
75.6178280722
 30
0.0
 10
41.5382001007
 20
75.6986033438
 30
0.0
 10
42.3864179746
 20
75.852221663
 30
0.0
 10
43.1918845455
 20
76.0757377701
 30
0.0
 10
43.9371779466
 20
76.3650030415
 30
0.0
 10
44.3984531788
 20
76.6056372981
 30
0.0
 10
44.6136084527
 20
76.7364140887
 30
0.0
  0
SPLINE
  5
31D
100
AcDbEntity
  8
0
100
AcDbSpline
 62
7
  6
BYLAYER
 70
0
 71
3
 72
9
 73
5
 74
0
 42
0.0000001
 43
0.0000001
 44
0.0000000001
 40
0.0
 40
0.0
 40
0.0
 40
0.0
 40
0.4918272218
 40
1.0
 40
1.0
 40
1.0
 40
1.0
 10
34.3709500493
 20
79.2247858491
 30
0.0
 10
34.3709506603
 20
79.364425379
 30
0.0
 10
34.4036015449
 20
79.6492102959
 30
0.0
 10
34.497687377
 20
79.9195534868
 30
0.0
 10
34.5580909333
 20
80.0505810879
 30
0.0
  0
SPLINE
  5
31E
100
AcDbEntity
  8
0
100
AcDbSpline
 62
7
  6
BYLAYER
 70
0
 71
3
 72
23
 73
19
 74
0
 42
0.0000001
 43
0.0000001
 44
0.0000000001
 40
0.0
 40
0.0
 40
0.0
 40
0.0
 40
0.0427962284
 40
0.0871210323
 40
0.1342499237
 40
0.1850632281
 40
0.2400231357
 40
0.2992174798
 40
0.3624373191
 40
0.4292390763
 40
0.4989970569
 40
0.5709578144
 40
0.6442769684
 40
0.7180599801
 40
0.7913893043
 40
0.8633635628
 40
0.9331786353
 40
1.0
 40
1.0
 40
1.0
 40
1.0
 10
46.3709142936
 20
79.571778204
 30
0.0
 10
46.3708940023
 20
79.7300292788
 30
0.0
 10
46.3320002902
 20
80.0533897795
 30
0.0
 10
46.1598602876
 20
80.523093001
 30
0.0
 10
45.8793561517
 20
80.9720567531
 30
0.0
 10
45.4973644963
 20
81.3923634083
 30
0.0
 10
45.0215903905
 20
81.7773612387
 30
0.0
 10
44.4609624854
 20
82.1208671869
 30
0.0
 10
43.8256177022
 20
82.4170769513
 30
0.0
 10
43.1270315644
 20
82.6607472518
 30
0.0
 10
42.3779366608
 20
82.8476046596
 30
0.0
 10
41.5920117587
 20
82.9742543539
 30
0.0
 10
40.7836475784
 20
83.0383245891
 30
0.0
 10
39.9677030623
 20
83.0386832551
 30
0.0
 10
39.1591993252
 20
82.9753605048
 30
0.0
 10
38.3728319591
 20
82.8494548333
 30
0.0
 10
37.6233089491
 20
82.6632195627
 30
0.0
 10
37.1451765891
 20
82.4970718261
 30
0.0
 10
36.9162814684
 20
82.4040080276
 30
0.0
  0
SPLINE
  5
31F
100
AcDbEntity
  8
0
100
AcDbSpline
 62
7
  6
BYLAYER
 70
0
 71
3
 72
25
 73
21
 74
0
 42
0.0000001
 43
0.0000001
 44
0.0000000001
 40
0.0
 40
0.0
 40
0.0
 40
0.0
 40
0.0206692129
 40
0.0415816211
 40
0.0629668546
 40
0.085031646
 40
0.1317919401
 40
0.1828989122
 40
0.238765194
 40
0.2993531639
 40
0.3642791246
 40
0.432897626
 40
0.5043701664
 40
0.5777307707
 40
0.6519395557
 40
0.7259309018
 40
0.7986555653
 40
0.8691200773
 40
0.9364784965
 40
1.0
 40
1.0
 40
1.0
 40
1.0
 10
34.3709501559
 20
77.2466568538
 30
0.0
 10
34.3709491859
 20
77.1647235543
 30
0.0
 10
34.3819812113
 20
76.9996899072
 30
0.0
 10
34.4312395173
 20
76.754324182
 30
0.0
 10
34.5129498692
 20
76.5119158237
 30
0.0
 10
34.6673667199
 20
76.1885591543
 30
0.0
 10
34.9445132611
 20
75.7976039407
 30
0.0
 10
35.3862479769
 20
75.3736628618
 30
0.0
 10
35.9334909746
 20
74.9931202129
 30
0.0
 10
36.5745850876
 20
74.663663453
 30
0.0
 10
37.2962058786
 20
74.3920780677
 30
0.0
 10
38.0832204883
 20
74.184347328
 30
0.0
 10
38.918998254
 20
74.0452600562
 30
0.0
 10
39.7857610794
 20
73.9781382316
 30
0.0
 10
40.6650544019
 20
73.9848224107
 30
0.0
 10
41.5381450119
 20
74.0656059277
 30
0.0
 10
42.3863988666
 20
74.2191490027
 30
0.0
 10
43.191820992
 20
74.4428471305
 30
0.0
 10
43.937179244
 20
74.7319092935
 30
0.0
 10
44.3986056274
 20
74.9723463644
 30
0.0
 10
44.6136084527
 20
75.1034092391
 30
0.0
  0
SPLINE
  5
320
100
AcDbEntity
  8
0
100
AcDbSpline
 62
7
  6
BYLAYER
 70
0
 71
3
 72
9
 73
5
 74
0
 42
0.0000001
 43
0.0000001
 44
0.0000000001
 40
0.0
 40
0.0
 40
0.0
 40
0.0
 40
0.4948870542
 40
1.0
 40
1.0
 40
1.0
 40
1.0
 10
46.3709545863
 20
76.0221445568
 30
0.0
 10
46.3709602807
 20
75.890532526
 30
0.0
 10
46.3462810079
 20
75.6240476359
 30
0.0
 10
46.2742986158
 20
75.3664678534
 30
0.0
 10
46.2275480606
 20
75.2405339481
 30
0.0
  0
SPLINE
  5
321
100
AcDbEntity
  8
0
100
AcDbSpline
 62
7
  6
BYLAYER
 70
0
 71
3
 72
14
 73
10
 74
0
 42
0.0000001
 43
0.0000001
 44
0.0000000001
 40
0.0
 40
0.0
 40
0.0
 40
0.0
 40
0.1092443762
 40
0.220265647
 40
0.3348745723
 40
0.454569073
 40
0.5804763446
 40
0.7132909699
 40
1.0
 40
1.0
 40
1.0
 40
1.0
 10
46.3709499127
 20
73.5725253859
 30
0.0
 10
46.3709473372
 20
73.4547188047
 30
0.0
 10
46.3512558698
 20
73.216746222
 30
0.0
 10
46.2633756311
 20
72.8649893911
 30
0.0
 10
46.1180414952
 20
72.5206207844
 30
0.0
 10
45.9173966606
 20
72.1866544528
 30
0.0
 10
45.6635094015
 20
71.8658392884
 30
0.0
 10
45.2471973161
 20
71.4489891512
 30
0.0
 10
44.8779238825
 20
71.1813023301
 30
0.0
 10
44.6136084527
 20
71.0208971534
 30
0.0
  0
SPLINE
  5
322
100
AcDbEntity
  8
0
100
AcDbSpline
 62
7
  6
BYLAYER
 70
0
 71
3
 72
18
 73
14
 74
0
 42
0.0000001
 43
0.0000001
 44
0.0000000001
 40
0.0
 40
0.0
 40
0.0
 40
0.0
 40
0.0524298372
 40
0.1051176028
 40
0.1584376879
 40
0.2127020541
 40
0.2681613157
 40
0.3250676158
 40
0.4439633525
 40
0.5707436623
 40
0.7058987811
 40
0.8492405438
 40
1.0
 40
1.0
 40
1.0
 40
1.0
 10
57.4011139855
 20
68.8756262134
 30
0.0
 10
57.4011139855
 20
69.1626280388
 30
0.0
 10
57.3671362991
 20
69.7386011744
 30
0.0
 10
57.2155093561
 20
70.5943932403
 30
0.0
 10
56.9647805503
 20
71.4370595731
 30
0.0
 10
56.6184060023
 20
72.2614020808
 30
0.0
 10
56.1795901436
 20
73.0628215117
 30
0.0
 10
55.4662762071
 20
74.1106650048
 30
0.0
 10
54.350539551
 20
75.3464765073
 30
0.0
 10
52.7275550791
 20
76.6654108404
 30
0.0
 10
50.8320355743
 20
77.8290117089
 30
0.0
 10
48.6980221412
 20
78.8228692782
 30
0.0
 10
47.1743615638
 20
79.3518117184
 30
0.0
 10
46.3833059078
 20
79.5869388209
 30
0.0
  0
SPLINE
  5
323
100
AcDbEntity
  8
0
100
AcDbSpline
 62
7
  6
BYLAYER
 70
0
 71
3
 72
16
 73
12
 74
0
 42
0.0000001
 43
0.0000001
 44
0.0000000001
 40
0.0
 40
0.0
 40
0.0
 40
0.0
 40
0.1430973436
 40
0.2799418049
 40
0.4106948947
 40
0.4739841037
 40
0.5359753177
 40
0.6564285615
 40
0.773127125
 40
0.8872044117
 40
1.0
 40
1.0
 40
1.0
 40
1.0
 10
51.6519358202
 20
16.83823564
 30
0.0
 10
52.0876504607
 20
17.1013733512
 30
0.0
 10
52.9191899196
 20
17.6520343289
 30
0.0
 10
54.0579474052
 20
18.5706351048
 30
0.0
 10
54.8936974918
 20
19.403179804
 30
0.0
 10
55.4800035357
 20
20.1007561887
 30
0.0
 10
56.0005192075
 20
20.8035270509
 30
0.0
 10
56.5505536421
 20
21.7184984132
 30
0.0
 10
57.0370876153
 20
22.8742048816
 30
0.0
 10
57.334353156
 20
24.0646465415
 30
0.0
 10
57.4011139855
 20
24.8731750999
 30
0.0
 10
57.4011139855
 20
25.2743971387
 30
0.0
  0
SPLINE
  5
324
100
AcDbEntity
  8
0
100
AcDbSpline
 62
7
  6
BYLAYER
 70
0
 71
3
 72
24
 73
20
 74
0
 42
0.0000001
 43
0.0000001
 44
0.0000000001
 40
0.0
 40
0.0
 40
0.0
 40
0.0
 40
0.0213327071
 40
0.0428947598
 40
0.0874720844
 40
0.1352508901
 40
0.1871561313
 40
0.2435968157
 40
0.3045480498
 40
0.3696406876
 40
0.4382422335
 40
0.5095334834
 40
0.5825638101
 40
0.656299324
 40
0.729682694
 40
0.8016669578
 40
0.8712583799
 40
0.9376261926
 40
1.0
 40
1.0
 40
1.0
 40
1.0
 10
35.195968032
 20
79.9800294558
 30
0.0
 10
35.1959605844
 20
79.9066190287
 30
0.0
 10
35.2054419913
 20
79.7588259781
 30
0.0
 10
35.2626396415
 20
79.4626238498
 30
0.0
 10
35.4085338119
 20
79.0944838912
 30
0.0
 10
35.6896036639
 20
78.6813165815
 30
0.0
 10
36.0705388824
 20
78.2987504069
 30
0.0
 10
36.5425384676
 20
77.9538577395
 30
0.0
 10
37.0955770725
 20
77.6530382383
 30
0.0
 10
37.7180906889
 20
77.402275804
 30
0.0
 10
38.3969744032
 20
77.2066210607
 30
0.0
 10
39.1178846428
 20
77.0701555803
 30
0.0
 10
39.8655100688
 20
76.9958179313
 30
0.0
 10
40.6239186202
 20
76.9851469398
 30
0.0
 10
41.3769404215
 20
77.0383715141
 30
0.0
 10
42.1084831732
 20
77.1543655801
 30
0.0
 10
42.8031370465
 20
77.3306762573
 30
0.0
 10
43.4458617532
 20
77.5636421512
 30
0.0
 10
43.8443575135
 20
77.7600631977
 30
0.0
 10
44.0302429294
 20
77.867383552
 30
0.0
  0
SPLINE
  5
325
100
AcDbEntity
  8
0
100
AcDbSpline
 62
7
  6
BYLAYER
 70
0
 71
3
 72
11
 73
7
 74
0
 42
0.0000001
 43
0.0000001
 44
0.0000000001
 40
0.0
 40
0.0
 40
0.0
 40
0.0
 40
0.2762273468
 40
0.5342706268
 40
0.7749061953
 40
1.0
 40
1.0
 40
1.0
 40
1.0
 10
44.6136084527
 20
72.9990618809
 30
0.0
 10
44.7926354008
 20
73.1080983933
 30
0.0
 10
45.1281964667
 20
73.337595882
 30
0.0
 10
45.5681729505
 20
73.7306007457
 30
0.0
 10
45.919903628
 20
74.1553086819
 30
0.0
 10
46.0967613126
 20
74.464009423
 30
0.0
 10
46.1665115257
 20
74.6199341875
 30
0.0
  0
SPLINE
  5
326
100
AcDbEntity
  8
0
100
AcDbSpline
 62
7
  6
BYLAYER
 70
0
 71
3
 72
14
 73
10
 74
0
 42
0.0000001
 43
0.0000001
 44
0.0000000001
 40
0.0
 40
0.0
 40
0.0
 40
0.0
 40
0.1080439176
 40
0.2181284779
 40
0.3321078684
 40
0.45149037
 40
0.5774362713
 40
0.7107375391
 40
1.0
 40
1.0
 40
1.0
 40
1.0
 10
45.5459295024
 20
79.5717782488
 30
0.0
 10
45.5459197354
 20
79.4738125207
 30
0.0
 10
45.5289232054
 20
79.275633332
 30
0.0
 10
45.4529802215
 20
78.9829076979
 30
0.0
 10
45.3276063778
 20
78.696513199
 30
0.0
 10
45.1545082963
 20
78.4192962538
 30
0.0
 10
44.9354337427
 20
78.1537784193
 30
0.0
 10
44.5755125571
 20
77.8093179177
 30
0.0
 10
44.2573848042
 20
77.5902719832
 30
0.0
 10
44.0302429294
 20
77.4591323435
 30
0.0
  0
SPLINE
  5
327
100
AcDbEntity
  8
0
100
AcDbSpline
 62
7
  6
BYLAYER
 70
0
 71
3
 72
11
 73
7
 74
0
 42
0.0000001
 43
0.0000001
 44
0.0000000001
 40
0.0
 40
0.0
 40
0.0
 40
0.0
 40
0.281378666
 40
0.5406283611
 40
0.7785266795
 40
1.0
 40
1.0
 40
1.0
 40
1.0
 10
51.8578082557
 20
17.2952883814
 30
0.0
 10
51.8578082557
 20
17.2543408879
 30
0.0
 10
51.852518203
 20
17.1755126433
 30
0.0
 10
51.8268589266
 20
17.064562872
 30
0.0
 10
51.7837529852
 20
16.9684795336
 30
0.0
 10
51.7427733979
 20
16.9146635135
 30
0.0
 10
51.7200307252
 20
16.8918264674
 30
0.0
  0
SPLINE
  5
328
100
AcDbEntity
  8
0
100
AcDbSpline
 62
7
  6
BYLAYER
 70
0
 71
3
 72
13
 73
9
 74
0
 42
0.0000001
 43
0.0000001
 44
0.0000000001
 40
0.0
 40
0.0
 40
0.0
 40
0.0
 40
0.2837142705
 40
0.5427266741
 40
0.6636158536
 40
0.7794025035
 40
0.8911071852
 40
1.0
 40
1.0
 40
1.0
 40
1.0
 10
44.6136084527
 20
72.1824940973
 30
0.0
 10
44.8497513309
 20
72.3258003618
 30
0.0
 10
45.2832702645
 20
72.6324439738
 30
0.0
 10
45.7372995834
 20
73.0988183545
 30
0.0
 10
46.01257885
 20
73.4963801858
 30
0.0
 10
46.1716323914
 20
73.7969786658
 30
0.0
 10
46.2863722238
 20
74.1047276083
 30
0.0
 10
46.3328961389
 20
74.3152815082
 30
0.0
 10
46.3481997785
 20
74.4201894331
 30
0.0
  0
SPLINE
  5
329
100
AcDbEntity
  8
0
100
AcDbSpline
 62
7
  6
BYLAYER
 70
0
 71
3
 72
12
 73
8
 74
0
 42
0.0000001
 43
0.0000001
 44
0.0000000001
 40
0.0
 40
0.0
 40
0.0
 40
0.0
 40
0.2836820512
 40
0.542578948
 40
0.7791758999
 40
0.8910876747
 40
1.0
 40
1.0
 40
1.0
 40
1.0
 10
44.6136084527
 20
71.3659916802
 30
0.0
 10
44.8496566921
 20
71.5090931773
 30
0.0
 10
45.2828149143
 20
71.8158125751
 30
0.0
 10
45.8158806993
 20
72.3614459385
 30
0.0
 10
46.1301625407
 20
72.8695384729
 30
0.0
 10
46.2859283347
 20
73.2877201806
 30
0.0
 10
46.3326332754
 20
73.4983446513
 30
0.0
 10
46.3480046499
 20
73.6032014392
 30
0.0
  0
SPLINE
  5
32A
100
AcDbEntity
  8
0
100
AcDbSpline
 62
7
  6
BYLAYER
 70
0
 71
3
 72
15
 73
11
 74
0
 42
0.0000001
 43
0.0000001
 44
0.0000000001
 40
0.0
 40
0.0
 40
0.0
 40
0.0
 40
0.1129164289
 40
0.2352466023
 40
0.3644126308
 40
0.4972600257
 40
0.6304363425
 40
0.7605522631
 40
0.8845630481
 40
1.0
 40
1.0
 40
1.0
 40
1.0
 10
36.1283270785
 20
70.3453432627
 30
0.0
 10
36.4196222055
 20
70.186392324
 30
0.0
 10
37.0557687145
 20
69.9074462859
 30
0.0
 10
38.0898869007
 20
69.6185957718
 30
0.0
 10
39.209348004
 20
69.4490024879
 30
0.0
 10
40.3726394344
 20
69.4102140117
 30
0.0
 10
41.5355820937
 20
69.5019327572
 30
0.0
 10
42.6556447888
 20
69.7192133698
 30
0.0
 10
43.6903292657
 20
70.0590142943
 30
0.0
 10
44.3238814567
 20
70.3730026842
 30
0.0
 10
44.6136084527
 20
70.5494892631
 30
0.0
  0
SPLINE
  5
32B
100
AcDbEntity
  8
0
100
AcDbSpline
 62
7
  6
BYLAYER
 70
0
 71
3
 72
15
 73
11
 74
0
 42
0.0000001
 43
0.0000001
 44
0.0000000001
 40
0.0
 40
0.0
 40
0.0
 40
0.0
 40
0.1080089897
 40
0.2180553128
 40
0.3319991729
 40
0.4513502459
 40
0.577255002
 40
0.7104978041
 40
0.8514744008
 40
1.0
 40
1.0
 40
1.0
 40
1.0
 10
46.3709427775
 20
71.4067540763
 30
0.0
 10
46.3709432048
 20
71.2931707816
 30
0.0
 10
46.3511807675
 20
71.0634063444
 30
0.0
 10
46.2631979836
 20
70.7240014015
 30
0.0
 10
46.1177966021
 20
70.3919593513
 30
0.0
 10
45.9170982838
 20
70.0705338792
 30
0.0
 10
45.6631208197
 20
69.7627302789
 30
0.0
 10
45.3585439649
 20
69.4711567688
 30
0.0
 10
45.006382024
 20
69.1986854327
 30
0.0
 10
44.7488739866
 20
69.0354046759
 30
0.0
 10
44.6136084527
 20
68.9573095497
 30
0.0
  0
SPLINE
  5
32C
100
AcDbEntity
  8
0
100
AcDbSpline
 62
7
  6
BYLAYER
 70
0
 71
3
 72
22
 73
18
 74
0
 42
0.0000001
 43
0.0000001
 44
0.0000000001
 40
0.0
 40
0.0
 40
0.0
 40
0.0
 40
0.0207339436
 40
0.0419418937
 40
0.086446889
 40
0.1347728471
 40
0.1875248216
 40
0.2448160278
 40
0.3064216515
 40
0.3719137012
 40
0.4406615622
 40
0.5118516551
 40
0.58455592
 40
0.7305631362
 40
0.8020636464
 40
0.8713027833
 40
1.0
 40
1.0
 40
1.0
 40
1.0
 10
34.3968825607
 20
78.0976648592
 30
0.0
 10
34.4101165107
 20
78.0187491076
 30
0.0
 10
34.4469923761
 20
77.8606313738
 30
0.0
 10
34.5616990829
 20
77.5466347351
 30
0.0
 10
34.7842222396
 20
77.1625770181
 30
0.0
 10
35.1573485831
 20
76.738714213
 30
0.0
 10
35.6323490704
 20
76.3504141303
 30
0.0
 10
36.199990185
 20
76.0053831457
 30
0.0
 10
36.8496524289
 20
75.7113081519
 30
0.0
 10
37.5683907493
 20
75.4735135874
 30
0.0
 10
38.3420379339
 20
75.2956137963
 30
0.0
 10
39.1556884248
 20
75.1809785426
 30
0.0
 10
40.2737388526
 20
75.1185463608
 30
0.0
 10
41.3971570961
 20
75.1942426638
 30
0.0
 10
42.4848921879
 20
75.4045695012
 30
0.0
 10
43.4850653695
 20
75.6912118837
 30
0.0
 10
44.1895466039
 20
76.0064355269
 30
0.0
 10
44.6136084527
 20
76.265006183
 30
0.0
  0
SPLINE
  5
32D
100
AcDbEntity
  8
0
100
AcDbSpline
 62
7
  6
BYLAYER
 70
0
 71
3
 72
9
 73
5
 74
0
 42
0.0000001
 43
0.0000001
 44
0.0000000001
 40
0.0
 40
0.0
 40
0.0
 40
0.0
 40
0.2541579605
 40
1.0
 40
1.0
 40
1.0
 40
1.0
 10
46.1665115257
 20
74.6199341875
 30
0.0
 10
46.1827591744
 20
74.6563488147
 30
0.0
 10
46.2433437293
 20
74.8010839197
 30
0.0
 10
46.290123626
 20
74.9516656371
 30
0.0
 10
46.3160725443
 20
75.0657676552
 30
0.0
  0
SPLINE
  5
32E
100
AcDbEntity
  8
0
100
AcDbSpline
 62
7
  6
BYLAYER
 70
0
 71
3
 72
12
 73
8
 74
0
 42
0.0000001
 43
0.0000001
 44
0.0000000001
 40
0.0
 40
0.0
 40
0.0
 40
0.0
 40
0.283967676
 40
0.5429582971
 40
0.7791546246
 40
0.8909323002
 40
1.0
 40
1.0
 40
1.0
 40
1.0
 10
44.6136084527
 20
75.4485037659
 30
0.0
 10
44.8497386796
 20
75.5921478358
 30
0.0
 10
45.2831122461
 20
75.899426516
 30
0.0
 10
45.8160236637
 20
76.4453681386
 30
0.0
 10
46.1308504467
 20
76.9527833318
 30
0.0
 10
46.2865327131
 20
77.3707643155
 30
0.0
 10
46.3329855116
 20
77.5815320477
 30
0.0
 10
46.3482604305
 20
77.6865843466
 30
0.0
  0
SPLINE
  5
32F
100
AcDbEntity
  8
0
100
AcDbSpline
 62
7
  6
BYLAYER
 70
0
 71
3
 72
12
 73
8
 74
0
 42
0.0000001
 43
0.0000001
 44
0.0000000001
 40
0.0
 40
0.0
 40
0.0
 40
0.0
 40
0.1090325355
 40
0.2209075124
 40
0.4572444067
 40
0.7160826168
 40
1.0
 40
1.0
 40
1.0
 40
1.0
 10
46.3479553567
 20
78.5022747885
 30
0.0
 10
46.3325773782
 20
78.3973108557
 30
0.0
 10
46.2859135126
 20
78.186613927
 30
0.0
 10
46.1301364355
 20
77.7686478628
 30
0.0
 10
45.8155256017
 20
77.2612249899
 30
0.0
 10
45.2823963423
 20
76.7159378173
 30
0.0
 10
44.8494625596
 20
76.4088176372
 30
0.0
 10
44.6136084527
 20
76.265006183
 30
0.0
  0
SPLINE
  5
330
100
AcDbEntity
  8
0
100
AcDbSpline
 62
7
  6
BYLAYER
 70
0
 71
3
 72
12
 73
8
 74
0
 42
0.0000001
 43
0.0000001
 44
0.0000000001
 40
0.0
 40
0.0
 40
0.0
 40
0.0
 40
0.2837583974
 40
0.5428472981
 40
0.7793122063
 40
0.8911006014
 40
1.0
 40
1.0
 40
1.0
 40
1.0
 10
44.6136084527
 20
74.6320013487
 30
0.0
 10
44.8497142212
 20
74.7751613662
 30
0.0
 10
45.2832405545
 20
75.0819023471
 30
0.0
 10
45.8157697729
 20
75.6282426781
 30
0.0
 10
46.1303495434
 20
76.1360245455
 30
0.0
 10
46.2861646638
 20
76.5539363159
 30
0.0
 10
46.3327739466
 20
76.7644540061
 30
0.0
 10
46.3481077411
 20
76.8693056182
 30
0.0
  0
SPLINE
  5
331
100
AcDbEntity
  8
0
100
AcDbSpline
 62
7
  6
BYLAYER
 70
0
 71
3
 72
10
 73
6
 74
0
 42
0.0000001
 43
0.0000001
 44
0.0000000001
 40
0.0
 40
0.0
 40
0.0
 40
0.0
 40
0.2721107188
 40
0.5294533692
 40
1.0
 40
1.0
 40
1.0
 40
1.0
 10
44.6136084527
 20
73.8154989316
 30
0.0
 10
44.7647608835
 20
73.9072261144
 30
0.0
 10
45.0510245263
 20
74.0995122194
 30
0.0
 10
45.5496255375
 20
74.5167764171
 30
0.0
 10
45.8586739111
 20
74.8847947678
 30
0.0
 10
46.0157600944
 20
75.1470986839
 30
0.0
  0
SPLINE
  5
332
100
AcDbEntity
  8
0
100
AcDbSpline
 62
7
  6
BYLAYER
 70
0
 71
3
 72
9
 73
5
 74
0
 42
0.0000001
 43
0.0000001
 44
0.0000000001
 40
0.0
 40
0.0
 40
0.0
 40
0.0
 40
0.5116712944
 40
1.0
 40
1.0
 40
1.0
 40
1.0
 10
46.0157600944
 20
75.1470986839
 30
0.0
 10
46.1007166446
 20
75.2889598927
 30
0.0
 10
46.2432802153
 20
75.5813236257
 30
0.0
 10
46.3251149089
 20
75.8967066887
 30
0.0
 10
46.3479960951
 20
76.0528503879
 30
0.0
  0
SPLINE
  5
333
100
AcDbEntity
  8
0
100
AcDbSpline
 62
7
  6
BYLAYER
 70
0
 71
3
 72
23
 73
19
 74
0
 42
0.0000001
 43
0.0000001
 44
0.0000000001
 40
0.0
 40
0.0
 40
0.0
 40
0.0
 40
0.0625712729
 40
0.1288180927
 40
0.1980526529
 40
0.269539004
 40
0.3423790946
 40
0.4156254179
 40
0.488309872
 40
0.5594722438
 40
0.6282046895
 40
0.6937014992
 40
0.7553035717
 40
0.8125535907
 40
0.8652624631
 40
0.9135916581
 40
0.9581396614
 40
1.0
 40
1.0
 40
1.0
 40
1.0
 10
44.6136084527
 20
73.8154989316
 30
0.0
 10
44.4071178231
 20
73.690189642
 30
0.0
 10
43.9657604345
 20
73.4583532615
 30
0.0
 10
43.2537463262
 20
73.1765688886
 30
0.0
 10
42.4848330869
 20
72.9553658472
 30
0.0
 10
41.6745393978
 20
72.7981845569
 30
0.0
 10
40.8385559572
 20
72.7079717496
 30
0.0
 10
39.9934107979
 20
72.6860650323
 30
0.0
 10
39.1557296169
 20
72.7324919732
 30
0.0
 10
38.3420221262
 20
72.8460468291
 30
0.0
 10
37.5683020675
 20
73.0240895311
 30
0.0
 10
36.849714407
 20
73.2627703596
 30
0.0
 10
36.2002282768
 20
73.5571823274
 30
0.0
 10
35.6323971658
 20
73.901534482
 30
0.0
 10
35.1571794637
 20
74.2892754643
 30
0.0
 10
34.784062105
 20
74.7136605522
 30
0.0
 10
34.5216038053
 20
75.1669934102
 30
0.0
 10
34.4236331677
 20
75.4898827592
 30
0.0
 10
34.3968853003
 20
75.649243399
 30
0.0
  0
SPLINE
  5
334
100
AcDbEntity
  8
0
100
AcDbSpline
 62
7
  6
BYLAYER
 70
0
 71
3
 72
23
 73
19
 74
0
 42
0.0000001
 43
0.0000001
 44
0.0000000001
 40
0.0
 40
0.0
 40
0.0
 40
0.0
 40
0.0625684605
 40
0.1288197499
 40
0.1980578413
 40
0.2695462209
 40
0.3423883024
 40
0.4156345286
 40
0.4883158865
 40
0.5594740289
 40
0.6282055766
 40
0.693703927
 40
0.7553061855
 40
0.8125548055
 40
0.8652632527
 40
0.913593049
 40
0.9581403192
 40
1.0
 40
1.0
 40
1.0
 40
1.0
 10
44.6136084527
 20
74.6320013487
 30
0.0
 10
44.4070827297
 20
74.5067768517
 30
0.0
 10
43.9657636278
 20
74.2748905293
 30
0.0
 10
43.2537583157
 20
73.9930351496
 30
0.0
 10
42.4848042082
 20
73.7718713023
 30
0.0
 10
41.6744942268
 20
73.6146830014
 30
0.0
 10
40.8385059085
 20
73.5244711413
 30
0.0
 10
39.9933762965
 20
73.5025660891
 30
0.0
 10
39.1557348565
 20
73.54899499
 30
0.0
 10
38.3420690536
 20
73.6625414202
 30
0.0
 10
37.5683721354
 20
73.8405757407
 30
0.0
 10
36.8497860489
 20
74.079241141
 30
0.0
 10
36.2003065281
 20
74.3736480157
 30
0.0
 10
35.6324794828
 20
74.7179778361
 30
0.0
 10
35.1572643784
 20
75.1057011155
 30
0.0
 10
34.784132797
 20
75.5300610462
 30
0.0
 10
34.5216616311
 20
75.9833742227
 30
0.0
 10
34.4236685553
 20
76.3062459597
 30
0.0
 10
34.3969104597
 20
76.465600194
 30
0.0
  0
SPLINE
  5
335
100
AcDbEntity
  8
0
100
AcDbSpline
 62
7
  6
BYLAYER
 70
0
 71
3
 72
26
 73
22
 74
0
 42
0.0000001
 43
0.0000001
 44
0.0000000001
 40
0.0
 40
0.0
 40
0.0
 40
0.0
 40
0.0699176685
 40
0.1355275758
 40
0.1969201704
 40
0.2545180978
 40
0.3090174025
 40
0.3354385207
 40
0.3614841976
 40
0.3873159648
 40
0.4131015291
 40
0.4390108943
 40
0.4652095058
 40
0.51903291
 40
0.5757098305
 40
0.636026995
 40
0.70046525
 40
0.7692221751
 40
0.8422526425
 40
0.9193131556
 40
1.0
 40
1.0
 40
1.0
 40
1.0
 10
51.1349728809
 20
62.1119749118
 30
0.0
 10
51.6228982326
 20
62.4066438267
 30
0.0
 10
52.5415228356
 20
63.025031217
 30
0.0
 10
53.7650359707
 20
64.0703228285
 30
0.0
 10
54.7751530892
 20
65.1926188551
 30
0.0
 10
55.5575276832
 20
66.3778141755
 30
0.0
 10
56.0141303861
 20
67.4179310061
 30
0.0
 10
56.2488539656
 20
68.2589855891
 30
0.0
 10
56.3605495763
 20
68.8885250786
 30
0.0
 10
56.4093003616
 20
69.5208294947
 30
0.0
 10
56.3947977273
 20
70.1537434214
 30
0.0
 10
56.3170703301
 20
70.785063123
 30
0.0
 10
56.1282403007
 20
71.628974008
 30
0.0
 10
55.7283710765
 20
72.6765968576
 30
0.0
 10
55.0098409402
 20
73.8765961
 30
0.0
 10
54.0600434558
 20
75.0172870181
 30
0.0
 10
52.8927124074
 20
76.0847373854
 30
0.0
 10
51.5235410111
 20
77.0663707881
 30
0.0
 10
49.9703949035
 20
77.9502846521
 30
0.0
 10
48.2535139263
 20
78.7254742851
 30
0.0
 10
47.0393772904
 20
79.1544009877
 30
0.0
 10
46.4112558204
 20
79.3497444403
 30
0.0
  0
SPLINE
  5
336
100
AcDbEntity
  8
0
100
AcDbSpline
 62
7
  6
BYLAYER
 70
0
 71
3
 72
12
 73
8
 74
0
 42
0.0000001
 43
0.0000001
 44
0.0000000001
 40
0.0
 40
0.0
 40
0.0
 40
0.0
 40
0.2655665501
 40
0.5231675828
 40
0.7689855078
 40
0.8865498238
 40
1.0
 40
1.0
 40
1.0
 40
1.0
 10
34.8823423291
 20
80.5648055621
 30
0.0
 10
33.9036530707
 20
80.4892463149
 30
0.0
 10
31.9810292675
 20
80.2527105011
 30
0.0
 10
29.2017645364
 20
79.6373813763
 30
0.0
 10
27.0186780002
 20
78.9118867303
 30
0.0
 10
25.4005346876
 20
78.2111450746
 30
0.0
 10
24.6387323174
 20
77.8238343425
 30
0.0
 10
24.2716005649
 20
77.621199289
 30
0.0
  0
SPLINE
  5
337
100
AcDbEntity
  8
0
100
AcDbSpline
 62
7
  6
BYLAYER
 70
0
 71
3
 72
23
 73
19
 74
0
 42
0.0000001
 43
0.0000001
 44
0.0000000001
 40
0.0
 40
0.0
 40
0.0
 40
0.0
 40
0.0623834444
 40
0.1287492767
 40
0.1983468128
 40
0.270336726
 40
0.3437251061
 40
0.4174679034
 40
0.4905049296
 40
0.5618042279
 40
0.6304129153
 40
0.6955105962
 40
0.7564679619
 40
0.8129146365
 40
0.8648229638
 40
0.9126047898
 40
0.9571862183
 40
1.0
 40
1.0
 40
1.0
 40
1.0
 10
44.6136084527
 20
68.9573095497
 30
0.0
 10
44.398074029
 20
68.832871435
 30
0.0
 10
43.9360706184
 20
68.6051230433
 30
0.0
 10
43.1908829018
 20
68.3350479202
 30
0.0
 10
42.3855176027
 20
68.1306434539
 30
0.0
 10
41.5373632516
 20
67.9961213124
 30
0.0
 10
40.6642952992
 20
67.9344166194
 30
0.0
 10
39.7849796445
 20
67.9468020576
 30
0.0
 10
38.9181544257
 20
68.0329926053
 30
0.0
 10
38.0822936859
 20
68.1911777726
 30
0.0
 10
37.2951724232
 20
68.418039588
 30
0.0
 10
36.5734252314
 20
68.7088167504
 30
0.0
 10
35.932203657
 20
69.0575642743
 30
0.0
 10
35.3849341746
 20
69.4574392284
 30
0.0
 10
34.943299283
 20
69.9009510791
 30
0.0
 10
34.6174624849
 20
70.3802341892
 30
0.0
 10
34.4166438863
 20
70.8858049823
 30
0.0
 10
34.3709580687
 20
71.2359494612
 30
0.0
 10
34.3709574261
 20
71.4067540773
 30
0.0
  0
SPLINE
  5
338
100
AcDbEntity
  8
0
100
AcDbSpline
 62
7
  6
BYLAYER
 70
0
 71
3
 72
24
 73
20
 74
0
 42
0.0000001
 43
0.0000001
 44
0.0000000001
 40
0.0
 40
0.0
 40
0.0
 40
0.0
 40
0.0207563921
 40
0.0419954203
 40
0.0865371519
 40
0.1348157661
 40
0.187510834
 40
0.2447878724
 40
0.3064107374
 40
0.3718950574
 40
0.4406031971
 40
0.5117497342
 40
0.5844252725
 40
0.6576587389
 40
0.730489666
 40
0.8019741793
 40
0.8711909869
 40
0.9374162393
 40
1.0
 40
1.0
 40
1.0
 40
1.0
 10
34.3971393878
 20
77.2802127507
 30
0.0
 10
34.4104384023
 20
77.2012011048
 30
0.0
 10
34.4474389055
 20
77.0428623594
 30
0.0
 10
34.5623364097
 20
76.7284901746
 30
0.0
 10
34.784812953
 20
76.344166046
 30
0.0
 10
35.1584837684
 20
75.9208887025
 30
0.0
 10
35.6338445508
 20
75.5335711854
 30
0.0
 10
36.2014995485
 20
75.1887642152
 30
0.0
 10
36.8509172578
 20
74.8938172237
 30
0.0
 10
37.5696407215
 20
74.6556765992
 30
0.0
 10
38.3433668739
 20
74.4786329546
 30
0.0
 10
39.1568914846
 20
74.3654766375
 30
0.0
 10
39.9943482624
 20
74.3181138772
 30
0.0
 10
40.8394024153
 20
74.3395070821
 30
0.0
 10
41.6752577614
 20
74.4302912601
 30
0.0
 10
42.4851662636
 20
74.5886902646
 30
0.0
 10
43.2540347137
 20
74.809274244
 30
0.0
 10
43.9661711325
 20
75.0905572401
 30
0.0
 10
44.4072142541
 20
75.3229488842
 30
0.0
 10
44.6136084527
 20
75.4485037659
 30
0.0
  0
SPLINE
  5
339
100
AcDbEntity
  8
0
100
AcDbSpline
 62
7
  6
BYLAYER
 70
0
 71
3
 72
13
 73
9
 74
0
 42
0.0000001
 43
0.0000001
 44
0.0000000001
 40
0.0
 40
0.0
 40
0.0
 40
0.0
 40
0.1150339243
 40
0.2389218928
 40
0.501404427
 40
0.7631171943
 40
0.8861055759
 40
1.0
 40
1.0
 40
1.0
 40
1.0
 10
51.1349735422
 20
62.1119753111
 30
0.0
 10
51.1843185256
 20
62.0847402475
 30
0.0
 10
51.2819057334
 20
62.0190533795
 30
0.0
 10
51.4648248901
 20
61.8541596188
 30
0.0
 10
51.6581636111
 20
61.5983576126
 30
0.0
 10
51.7905595571
 20
61.3067471758
 30
0.0
 10
51.8473020948
 20
61.0685012285
 30
0.0
 10
51.8578082557
 20
60.9523211559
 30
0.0
 10
51.8578082557
 20
60.8965174562
 30
0.0
  0
SPLINE
  5
33A
100
AcDbEntity
  8
0
100
AcDbSpline
 62
7
  6
BYLAYER
 70
0
 71
3
 72
9
 73
5
 74
0
 42
0.0000001
 43
0.0000001
 44
0.0000000001
 40
0.0
 40
0.0
 40
0.0
 40
0.0
 40
0.479248233
 40
1.0
 40
1.0
 40
1.0
 40
1.0
 10
45.7170005874
 20
77.9991443573
 30
0.0
 10
45.5685255416
 20
77.8234990117
 30
0.0
 10
45.2214955927
 20
77.4879237826
 30
0.0
 10
44.8273047336
 20
77.2110790031
 30
0.0
 10
44.6136084527
 20
77.0815086135
 30
0.0
  0
SPLINE
  5
33B
100
AcDbEntity
  8
0
100
AcDbSpline
 62
7
  6
BYLAYER
 70
0
 71
3
 72
14
 73
10
 74
0
 42
0.0000001
 43
0.0000001
 44
0.0000000001
 40
0.0
 40
0.0
 40
0.0
 40
0.0
 40
0.108045529
 40
0.218133832
 40
0.3321070086
 40
0.4514822558
 40
0.5774289585
 40
0.7107488228
 40
1.0
 40
1.0
 40
1.0
 40
1.0
 10
36.1834829257
 20
79.9800294512
 30
0.0
 10
36.1834840042
 20
80.0593022445
 30
0.0
 10
36.197206862
 20
80.2196740354
 30
0.0
 10
36.258718797
 20
80.4565238056
 30
0.0
 10
36.3601130792
 20
80.6882816167
 30
0.0
 10
36.5001994215
 20
80.9125789614
 30
0.0
 10
36.6774583459
 20
81.1274490731
 30
0.0
 10
36.96872623
 20
81.4061598347
 30
0.0
 10
37.2261373242
 20
81.5834265797
 30
0.0
 10
37.4099281277
 20
81.6895376162
 30
0.0
  0
SPLINE
  5
33C
100
AcDbEntity
  8
0
100
AcDbSpline
 62
7
  6
BYLAYER
 70
0
 71
3
 72
16
 73
12
 74
0
 42
0.0000001
 43
0.0000001
 44
0.0000000001
 40
0.0
 40
0.0
 40
0.0
 40
0.0
 40
0.1478493438
 40
0.2882058096
 40
0.4210593849
 40
0.4848290084
 40
0.546917092
 40
0.6664150944
 40
0.7807257335
 40
0.8913302732
 40
1.0
 40
1.0
 40
1.0
 40
1.0
 10
51.8578082557
 20
60.8965174562
 30
0.0
 10
52.2860891094
 20
61.1551657391
 30
0.0
 10
53.1007747277
 20
61.6940742694
 30
0.0
 10
54.2126456127
 20
62.5885115627
 30
0.0
 10
55.0240832189
 20
63.3933793806
 30
0.0
 10
55.5892096231
 20
64.0626831727
 30
0.0
 10
56.0852602057
 20
64.7290211233
 30
0.0
 10
56.6054083508
 20
65.5884716541
 30
0.0
 10
57.0624470544
 20
66.6653157769
 30
0.0
 10
57.3391009801
 20
67.7644576091
 30
0.0
 10
57.4011219076
 20
68.5078870202
 30
0.0
 10
57.4011061496
 20
68.8756262133
 30
0.0
  0
SPLINE
  5
33D
100
AcDbEntity
  8
0
100
AcDbSpline
 62
7
  6
BYLAYER
 70
0
 71
3
 72
23
 73
19
 74
0
 42
0.0000001
 43
0.0000001
 44
0.0000000001
 40
0.0
 40
0.0
 40
0.0
 40
0.0
 40
0.0625668719
 40
0.1288135344
 40
0.1980452814
 40
0.2695278959
 40
0.3423654896
 40
0.4156100225
 40
0.4882917984
 40
0.5594502095
 40
0.6281814799
 40
0.6936811354
 40
0.7552882256
 40
0.8125422048
 40
0.8652545989
 40
0.913587105
 40
0.9581376973
 40
1.0
 40
1.0
 40
1.0
 40
1.0
 10
44.6136084527
 20
77.0815086136
 30
0.0
 10
44.4070985415
 20
76.956295533
 30
0.0
 10
43.9658269471
 20
76.7244304632
 30
0.0
 10
43.2539109032
 20
76.4425960646
 30
0.0
 10
42.4850657438
 20
76.2214485808
 30
0.0
 10
41.6748707606
 20
76.0642446554
 30
0.0
 10
40.8389776207
 20
75.9740112791
 30
0.0
 10
39.9939181955
 20
75.9520702572
 30
0.0
 10
39.156324191
 20
75.9984463895
 30
0.0
 10
38.3426946214
 20
76.1119347415
 30
0.0
 10
37.5690220042
 20
76.2899015658
 30
0.0
 10
36.8504351804
 20
76.5285019266
 30
0.0
 10
36.2009163689
 20
76.8228337456
 30
0.0
 10
35.6330320598
 20
77.1671025117
 30
0.0
 10
35.1577415202
 20
77.5547519599
 30
0.0
 10
34.7845217097
 20
77.9790416667
 30
0.0
 10
34.5219240994
 20
78.4322848789
 30
0.0
 10
34.4238302804
 20
78.7551295263
 30
0.0
 10
34.3970180047
 20
78.9144758878
 30
0.0
  0
SPLINE
  5
33E
100
AcDbEntity
  8
0
100
AcDbSpline
 62
7
  6
BYLAYER
 70
0
 71
3
 72
11
 73
7
 74
0
 42
0.0000001
 43
0.0000001
 44
0.0000000001
 40
0.0
 40
0.0
 40
0.0
 40
0.0
 40
0.2675615625
 40
0.5217215023
 40
0.7646999178
 40
1.0
 40
1.0
 40
1.0
 40
1.0
 10
45.7170005874
 20
77.9991443573
 30
0.0
 10
45.8038602986
 20
78.0975658923
 30
0.0
 10
45.9621343605
 20
78.2997449085
 30
0.0
 10
46.1524279615
 20
78.6245050241
 30
0.0
 10
46.2864247771
 20
78.959425664
 30
0.0
 10
46.3376590632
 20
79.1897173701
 30
0.0
 10
46.3530134448
 20
79.3041323389
 30
0.0
  0
SPLINE
  5
33F
100
AcDbEntity
  8
0
100
AcDbSpline
 62
7
  6
BYLAYER
 70
0
 71
3
 72
11
 73
7
 74
0
 42
0.0000001
 43
0.0000001
 44
0.0000000001
 40
0.0
 40
0.0
 40
0.0
 40
0.0
 40
0.2166525798
 40
0.4492368223
 40
0.7091280763
 40
1.0
 40
1.0
 40
1.0
 40
1.0
 10
23.7884006591
 20
77.6801542779
 30
0.0
 10
23.8205382567
 20
77.697897272
 30
0.0
 10
23.8942360746
 20
77.7229870404
 30
0.0
 10
24.016063172
 20
77.7232208795
 30
0.0
 10
24.1454456224
 20
77.6887551389
 30
0.0
 10
24.2294117331
 20
77.6466784278
 30
0.0
 10
24.2716012524
 20
77.6211996685
 30
0.0
  0
SPLINE
  5
340
100
AcDbEntity
  8
0
100
AcDbSpline
 62
7
  6
BYLAYER
 70
0
 71
3
 72
17
 73
13
 74
0
 42
0.0000001
 43
0.0000001
 44
0.0000000001
 40
0.0
 40
0.0
 40
0.0
 40
0.0
 40
0.0582634211
 40
0.1195537015
 40
0.2491700988
 40
0.3848235101
 40
0.5218418479
 40
0.6555268346
 40
0.7816391413
 40
0.8408647504
 40
0.8971129026
 40
1.0
 40
1.0
 40
1.0
 40
1.0
 10
36.768220899
 20
77.1724833166
 30
0.0
 10
36.9295218362
 20
77.0830721475
 30
0.0
 10
37.2702854675
 20
76.9168716584
 30
0.0
 10
38.0079046622
 20
76.6354051427
 30
0.0
 10
39.0158704226
 20
76.3871910777
 30
0.0
 10
40.2862143095
 20
76.2571186242
 30
0.0
 10
41.5756781488
 20
76.2945584731
 30
0.0
 10
42.8192429102
 20
76.4956016843
 30
0.0
 10
43.7875476113
 20
76.7969348611
 30
0.0
 10
44.4847527417
 20
77.1135095646
 30
0.0
 10
45.0864594217
 20
77.454515482
 30
0.0
 10
45.4878822504
 20
77.7676958298
 30
0.0
 10
45.7170005874
 20
77.9991443573
 30
0.0
  0
SPLINE
  5
341
100
AcDbEntity
  8
0
100
AcDbSpline
 62
7
  6
BYLAYER
 70
0
 71
3
 72
24
 73
20
 74
0
 42
0.0000001
 43
0.0000001
 44
0.0000000001
 40
0.0
 40
0.0
 40
0.0
 40
0.0
 40
0.0623734634
 40
0.1287397605
 40
0.1983300583
 40
0.2703134248
 40
0.3436961883
 40
0.417431866
 40
0.4904631552
 40
0.5617557765
 40
0.6303585535
 40
0.6954520657
 40
0.7564037421
 40
0.8128443822
 40
0.8647492813
 40
0.9125278082
 40
0.9571050188
 40
0.978667124
 40
1.0
 40
1.0
 40
1.0
 40
1.0
 10
44.0302429294
 20
77.4591323435
 30
0.0
 10
43.8443585372
 20
77.3518125802
 30
0.0
 10
43.4458692839
 20
77.155392863
 30
0.0
 10
42.8031541424
 20
76.9224305316
 30
0.0
 10
42.1085125769
 20
76.7461215901
 30
0.0
 10
41.3769798246
 20
76.6301223072
 30
0.0
 10
40.623962622
 20
76.5768960613
 30
0.0
 10
39.8655523814
 20
76.5875652292
 30
0.0
 10
39.1179177471
 20
76.6618974403
 30
0.0
 10
38.396995061
 20
76.7983639888
 30
0.0
 10
37.7180997829
 20
76.9940218042
 30
0.0
 10
37.0955776644
 20
77.244786641
 30
0.0
 10
36.5425349069
 20
77.5456077245
 30
0.0
 10
36.0705357762
 20
77.8905017775
 30
0.0
 10
35.6896045966
 20
78.2730681227
 30
0.0
 10
35.4085326173
 20
78.6862313281
 30
0.0
 10
35.2626422689
 20
79.0543711758
 30
0.0
 10
35.2054406513
 20
79.3505731176
 30
0.0
 10
35.1959633822
 20
79.4983672386
 30
0.0
 10
35.1959707012
 20
79.5717782474
 30
0.0
  0
SPLINE
  5
342
100
AcDbEntity
  8
0
100
AcDbSpline
 62
7
  6
BYLAYER
 70
0
 71
3
 72
16
 73
12
 74
0
 42
0.0000001
 43
0.0000001
 44
0.0000000001
 40
0.0
 40
0.0
 40
0.0
 40
0.0
 40
0.1086697268
 40
0.2192742665
 40
0.3335849056
 40
0.453082908
 40
0.5151709916
 40
0.5789406151
 40
0.7117941904
 40
0.8521506562
 40
1.0
 40
1.0
 40
1.0
 40
1.0
 10
57.4011061496
 20
25.2743971386
 30
0.0
 10
57.4011219076
 20
24.9066579455
 30
0.0
 10
57.3391009801
 20
24.1632285344
 30
0.0
 10
57.0624470544
 20
23.0640867022
 30
0.0
 10
56.6054083508
 20
21.9872425794
 30
0.0
 10
56.0852602057
 20
21.1277920486
 30
0.0
 10
55.5892096231
 20
20.4614540979
 30
0.0
 10
55.0240832189
 20
19.7921503059
 30
0.0
 10
54.2126456127
 20
18.987282488
 30
0.0
 10
53.1007747277
 20
18.0928451947
 30
0.0
 10
52.2860891094
 20
17.5539366644
 30
0.0
 10
51.8578082557
 20
17.2952883814
 30
0.0
  0
SPLINE
  5
343
100
AcDbEntity
  8
0
100
AcDbSpline
 62
7
  6
BYLAYER
 70
0
 71
3
 72
14
 73
10
 74
0
 42
0.0000001
 43
0.0000001
 44
0.0000000001
 40
0.0
 40
0.0
 40
0.0
 40
0.0
 40
0.2892633947
 40
0.4225628886
 40
0.5485081363
 40
0.6678908765
 40
0.7818705721
 40
0.8919551978
 40
1.0
 40
1.0
 40
1.0
 40
1.0
 10
44.0302429294
 20
77.867383552
 30
0.0
 10
44.2573856271
 20
77.9985236669
 30
0.0
 10
44.5755138482
 20
78.2175681515
 30
0.0
 10
44.9354329166
 20
78.5620290363
 30
0.0
 10
45.1545075838
 20
78.8275445262
 30
0.0
 10
45.3276043077
 20
79.104762
 30
0.0
 10
45.4529842224
 20
79.391154932
 30
0.0
 10
45.5289211703
 20
79.6838833807
 30
0.0
 10
45.5459222328
 20
79.8820628888
 30
0.0
 10
45.5459321716
 20
79.9800294576
 30
0.0
  0
SPLINE
  5
344
100
AcDbEntity
  8
0
100
AcDbSpline
 62
7
  6
BYLAYER
 70
0
 71
3
 72
23
 73
19
 74
0
 42
0.0000001
 43
0.0000001
 44
0.0000000001
 40
0.0
 40
0.0
 40
0.0
 40
0.0
 40
0.0625664253
 40
0.1288113442
 40
0.1980451288
 40
0.2695285884
 40
0.3423664577
 40
0.4156081195
 40
0.488285403
 40
0.5594431561
 40
0.628175867
 40
0.6936767915
 40
0.7552837371
 40
0.8125375099
 40
0.8652509877
 40
0.913585637
 40
0.9581375975
 40
1.0
 40
1.0
 40
1.0
 40
1.0
 10
44.6136084527
 20
72.1824940973
 30
0.0
 10
44.4071567185
 20
72.0572062756
 30
0.0
 10
43.9658730742
 20
71.8253997285
 30
0.0
 10
43.2539658897
 20
71.543646738
 30
0.0
 10
42.4851655278
 20
71.3224377092
 30
0.0
 10
41.6749848264
 20
71.1652533194
 30
0.0
 10
40.8391330767
 20
71.0750123194
 30
0.0
 10
39.9941337099
 20
71.0530485958
 30
0.0
 10
39.1566021034
 20
71.0994080665
 30
0.0
 10
38.3430146356
 20
71.2128643992
 30
0.0
 10
37.5693572117
 20
71.3907956341
 30
0.0
 10
36.8507760906
 20
71.6293526453
 30
0.0
 10
36.2012645967
 20
71.9236417796
 30
0.0
 10
35.6333714799
 20
72.2678511103
 30
0.0
 10
35.1580521076
 20
72.65544497
 30
0.0
 10
34.7847754093
 20
73.0796782681
 30
0.0
 10
34.5221054186
 20
73.5328705163
 30
0.0
 10
34.4239400778
 20
73.8556845764
 30
0.0
 10
34.3970919802
 20
74.0150190183
 30
0.0
  0
SPLINE
  5
345
100
AcDbEntity
  8
0
100
AcDbSpline
 62
7
  6
BYLAYER
 70
0
 71
3
 72
25
 73
21
 74
0
 42
0.0000001
 43
0.0000001
 44
0.0000000001
 40
0.0
 40
0.0
 40
0.0
 40
0.0
 40
0.0635129252
 40
0.1308800743
 40
0.2013404694
 40
0.2740656936
 40
0.3480567883
 40
0.422267513
 40
0.4956321033
 40
0.5671074617
 40
0.6357244524
 40
0.7006488737
 40
0.7612370259
 40
0.8171037972
 40
0.8682097591
 40
0.9149696547
 40
0.9370344581
 40
0.9584195034
 40
0.9793313986
 40
1.0
 40
1.0
 40
1.0
 40
1.0
 10
44.6136084527
 20
71.3659916802
 30
0.0
 10
44.3983146204
 20
71.2354723008
 30
0.0
 10
43.9371706784
 20
70.9946531815
 30
0.0
 10
43.1919145644
 20
70.7052061128
 30
0.0
 10
42.3863821393
 20
70.4818472701
 30
0.0
 10
41.5381759112
 20
70.3281638062
 30
0.0
 10
40.6650670158
 20
70.247402773
 30
0.0
 10
39.7857521877
 20
70.2407261314
 30
0.0
 10
38.9189525777
 20
70.3078450081
 30
0.0
 10
38.0831540479
 20
70.4469437603
 30
0.0
 10
37.2961410892
 20
70.6546812019
 30
0.0
 10
36.5745323967
 20
70.9262694504
 30
0.0
 10
35.9334435229
 20
71.2557310777
 30
0.0
 10
35.3862050214
 20
71.6362797007
 30
0.0
 10
34.9444786772
 20
72.0602255276
 30
0.0
 10
34.6673430431
 20
72.451182916
 30
0.0
 10
34.512935073
 20
72.7745415075
 30
0.0
 10
34.4312247098
 20
73.0169474143
 30
0.0
 10
34.3819755819
 20
73.2623102946
 30
0.0
 10
34.3709480076
 20
73.4273397825
 30
0.0
 10
34.3709501559
 20
73.5092707705
 30
0.0
  0
SPLINE
  5
346
100
AcDbEntity
  8
0
100
AcDbSpline
 62
7
  6
BYLAYER
 70
0
 71
3
 72
23
 73
19
 74
0
 42
0.0000001
 43
0.0000001
 44
0.0000000001
 40
0.0
 40
0.0
 40
0.0
 40
0.0
 40
0.0623726845
 40
0.1287522367
 40
0.1983486056
 40
0.2703358513
 40
0.3437254913
 40
0.4174672372
 40
0.4905030649
 40
0.5618020643
 40
0.6304121402
 40
0.6955096675
 40
0.7564675854
 40
0.8129148429
 40
0.8648225325
 40
0.9126054356
 40
0.9571873383
 40
1.0
 40
1.0
 40
1.0
 40
1.0
 10
37.4099281277
 20
81.6895376162
 30
0.0
 10
37.5603269596
 20
81.776369904
 30
0.0
 10
37.8827877948
 20
81.9352921456
 30
0.0
 10
38.4028516026
 20
82.1238293053
 30
0.0
 10
38.964955747
 20
82.2665037702
 30
0.0
 10
39.5568969148
 20
82.3603298326
 30
0.0
 10
40.1662131045
 20
82.4034288895
 30
0.0
 10
40.779900463
 20
82.3948057247
 30
0.0
 10
41.3848606954
 20
82.3346165508
 30
0.0
 10
41.9682195258
 20
82.2242220465
 30
0.0
 10
42.5175750017
 20
82.0659177535
 30
0.0
 10
43.0212889352
 20
81.8629543975
 30
0.0
 10
43.4688138833
 20
81.6195677983
 30
0.0
 10
43.8507678639
 20
81.3404911393
 30
0.0
 10
44.158973239
 20
81.0309372572
 30
0.0
 10
44.3864075362
 20
80.6964570878
 30
0.0
 10
44.5265692158
 20
80.3436061435
 30
0.0
 10
44.5584164277
 20
80.0992334928
 30
0.0
 10
44.5584191713
 20
79.9800294524
 30
0.0
  0
SPLINE
  5
347
100
AcDbEntity
  8
0
100
AcDbSpline
 62
7
  6
BYLAYER
 70
0
 71
3
 72
15
 73
11
 74
0
 42
0.0000001
 43
0.0000001
 44
0.0000000001
 40
0.0
 40
0.0
 40
0.0
 40
0.0
 40
0.1092176061
 40
0.220314371
 40
0.3350128655
 40
0.4547315307
 40
0.580552474
 40
0.7131949818
 40
0.8530410783
 40
1.0
 40
1.0
 40
1.0
 40
1.0
 10
46.3709500219
 20
73.1009932819
 30
0.0
 10
46.3709480457
 20
72.983170458
 30
0.0
 10
46.3512232882
 20
72.745058119
 30
0.0
 10
46.263366907
 20
72.3930051008
 30
0.0
 10
46.1181008449
 20
72.0482358092
 30
0.0
 10
45.9175148232
 20
71.7140041121
 30
0.0
 10
45.6636341507
 20
71.3933436652
 30
0.0
 10
45.3591084268
 20
71.0889559734
 30
0.0
 10
45.0068443822
 20
70.8038202644
 30
0.0
 10
44.749003982
 20
70.6319651597
 30
0.0
 10
44.6136084527
 20
70.5494892631
 30
0.0
  0
SPLINE
  5
348
100
AcDbEntity
  8
0
100
AcDbSpline
 62
7
  6
BYLAYER
 70
0
 71
3
 72
18
 73
14
 74
0
 42
0.0000001
 43
0.0000001
 44
0.0000000001
 40
0.0
 40
0.0
 40
0.0
 40
0.0
 40
0.0447284711
 40
0.0908162802
 40
0.1388217321
 40
0.1892041935
 40
0.2423048021
 40
0.2983441219
 40
0.4193557402
 40
0.5518254216
 40
0.6942808696
 40
0.8445893335
 40
1.0
 40
1.0
 40
1.0
 40
1.0
 10
34.3971143975
 20
74.8305492598
 30
0.0
 10
34.4133839209
 20
74.7338575913
 30
0.0
 10
34.4616296962
 20
74.5397961083
 30
0.0
 10
34.5778299703
 20
74.2574994495
 30
0.0
 10
34.7373283405
 20
73.9828361595
 30
0.0
 10
34.9388275857
 20
73.7179141277
 30
0.0
 10
35.1806280278
 20
73.4643824611
 30
0.0
 10
35.563910319
 20
73.1352465093
 30
0.0
 10
36.1369360649
 20
72.7655798841
 30
0.0
 10
36.9302616849
 20
72.4072120774
 30
0.0
 10
37.8239162165
 20
72.1342170366
 30
0.0
 10
38.7911739412
 20
71.9525219681
 30
0.0
 10
39.4603388491
 20
71.896365878
 30
0.0
 10
39.8008206236
 20
71.8847080034
 30
0.0
  0
SPLINE
  5
349
100
AcDbEntity
  8
0
100
AcDbSpline
 62
7
  6
BYLAYER
 70
0
 71
3
 72
12
 73
8
 74
0
 42
0.0000001
 43
0.0000001
 44
0.0000000001
 40
0.0
 40
0.0
 40
0.0
 40
0.0
 40
0.2654655719
 40
0.3957725722
 40
0.523582388
 40
0.7695753602
 40
1.0
 40
1.0
 40
1.0
 40
1.0
 10
40.9324641391
 20
71.9085134113
 30
0.0
 10
41.274058747
 20
71.9346565752
 30
0.0
 10
41.781905122
 20
71.9993156054
 30
0.0
 10
42.4436910111
 20
72.1369068601
 30
0.0
 10
43.0729996882
 20
72.3029065524
 30
0.0
 10
43.8097458186
 20
72.5640515721
 30
0.0
 10
44.3596338975
 20
72.8443130993
 30
0.0
 10
44.6136084527
 20
72.9989965145
 30
0.0
  0
ELLIPSE
  5
34A
100
AcDbEntity
  8
0
100
AcDbEllipse
 62
7
  6
BYLAYER
 10
8.1094854222
 20
24.2829343828
 30
0.0
 11
-0.4398569138
 21
0.8989013629
 31
0.0
 40
0.6190013403
 41
0.8269101794
 42
2.3977065062
  0
ELLIPSE
  5
34B
100
AcDbEntity
  8
0
100
AcDbEllipse
 62
7
  6
BYLAYER
 10
35.6840694737
 20
8.3631010126
 30
0.0
 11
-0.4408323941
 21
0.9002599035
 31
0.0
 40
0.6169663457
 41
2.3990475677
 42
3.9698438945
  0
ELLIPSE
  5
34C
100
AcDbEntity
  8
0
100
AcDbEllipse
 62
7
  6
BYLAYER
 10
38.3956780736
 20
53.6019305131
 30
0.0
 11
-0.4408323941
 21
0.9002599035
 31
0.0
 40
0.6169663457
 41
-2.3133414126
 42
-0.7425450859
  0
ELLIPSE
  5
34D
100
AcDbEntity
  8
0
100
AcDbEllipse
 62
7
  6
BYLAYER
 10
10.9459105325
 20
69.4497026676
 30
0.0
 11
-0.4398569138
 21
0.8989013629
 31
0.0
 40
0.6190013403
 41
-0.7438861474
 42
0.8269101794
  0
ENDSEC
  0
SECTION
  2
OBJECTS
  0
DICTIONARY
  5
C
100
AcDbDictionary
280
0
281
1
  3
ACAD_GROUP
350
D
  3
ACAD_MLINESTYLE
350
17
  3
ACAD_LAYOUT
350
1A
  3
ACAD_PLOTSETTINGS
350
19
  3
ACAD_PLOTSTYLENAME
350
E
  0
DICTIONARY
  5
D
102
{ACAD_REACTORS
330
C
102
}
100
AcDbDictionary
280
0
281
1
  0
ACDBDICTIONARYWDFLT
  5
E
102
{ACAD_REACTORS
330
C
102
}
100
AcDbDictionary
281
1
  3
Normal
350
F
100
AcDbDictionaryWithDefault
340
F
  0
DICTIONARY
  5
17
102
{ACAD_REACTORS
330
C
102
}
100
AcDbDictionary
280
0
281
1
  3
Standard
350
18
  0
DICTIONARY
  5
19
102
{ACAD_REACTORS
330
C
102
}
100
AcDbDictionary
281
1
  0
DICTIONARY
  5
1A
102
{ACAD_REACTORS
330
C
102
}
100
AcDbDictionary
281
1
  3
Model
350
34E
  3
Layout1
350
34F
  0
ACDBPLACEHOLDER
  5
F
102
{ACAD_REACTORS
330
E
102
}
  0
MLINESTYLE
  5
18
102
{ACAD_REACTORS
330
17
102
}
100
AcDbMlineStyle
  2
STANDARD
 70
0
  3

 62
256
 51
90.0
 52
90.0
 71
2
 49
0.5
 62
256
  6
BYLAYER
 49
-0.5
 62
256
  6
BYLAYER
  0
LAYOUT
  5
34E
102
{ACAD_REACTORS
330
1A
102
}
100
AcDbPlotSettings
  1

  2
none_device
  4

  6

 40
0.0
 41
0.0
 42
0.0
 43
0.0
 44
210.0
 45
297.0
 46
0.0
 47
0.0
 48
0.0
 49
0.0
140
0.0
141
0.0
142
1.0
143
1.0
 70
1024
 72
1
 73
0
 74
0
  7

 75
0
147
1.0
148
0.0
149
0.0
100
AcDbLayout
  1
Model
 70
0
 71
0
 10
0.0
 20
0.0
 11
210.0
 21
297.0
 12
0.0
 22
0.0
 32
0.0
 14
0.0
 24
0.0
 34
0.0
 15
0.0
 25
0.0
 35
0.0
146
0.0
 13
0.0
 23
0.0
 33
0.0
 16
1.0
 26
0.0
 36
0.0
 17
0.0
 27
1.0
 37
0.0
 76
0
330
210
345
0
346
0
  0
LAYOUT
  5
34F
102
{ACAD_REACTORS
330
1A
102
}
100
AcDbPlotSettings
  1

  2
none_device
  4

  6

 40
0.0
 41
0.0
 42
0.0
 43
0.0
 44
210.0
 45
297.0
 46
0.0
 47
0.0
 48
0.0
 49
0.0
140
0.0
141
0.0
142
1.0
143
1.0
 70
0
 72
1
 73
0
 74
0
  7

 75
0
147
1.0
148
0.0
149
0.0
100
AcDbLayout
  1
Layout1
 70
0
 71
1
 10
0.0
 20
0.0
 11
210.0
 21
297.0
 12
0.0
 22
0.0
 32
0.0
 14
0.0
 24
0.0
 34
0.0
 15
0.0
 25
0.0
 35
0.0
146
0.0
 13
0.0
 23
0.0
 33
0.0
 16
1.0
 26
0.0
 36
0.0
 17
0.0
 27
1.0
 37
0.0
 76
0
330
211
345
0
346
0
  0
ENDSEC
  0
EOF
