999
DXF file: C:\Users\sesa63760\OneDrive - Schneider Electric\Documents\7-Dev\_Creo\CAD\MCADPP0000101_3D-CAD\drw0001_4.dxf
999
Pro/ENGINEER 2019471 by Parametric Technology Corporation
  0
SECTION
  2
HEADER
  9
$ACADVER
  1
AC1024
  9
$DWGCODEPAGE
  3
ANSI_1252
  9
$EXTMAX
 10
130.1440123856
 20
184.0608175168
 30
0.0
  9
$EXTMIN
 10
0.0
 20
0.0
 30
0.0
  9
$LIMMIN
 10
0.0
 20
0.0
  9
$LIMMAX
 10
130.1440123856
 20
184.0608175168
  9
$VIEWCTR
 10
65.0720061928
 20
92.0304087584
  9
$VIEWSIZE
 40
184.0608175168
  9
$CLAYER
  8
0
  9
$LTSCALE
 40
11.9980384752
  9
$CELTYPE
  6
BYLAYER
  9
$DIMSCALE
 40
1.0
  9
$DIMASZ
 40
1.5493334808
  9
$DIMEXO
 40
1.0
  9
$DIMDLI
 40
8.2895538556
  9
$DIMEXE
 40
1.0
  9
$DIMCEN
 40
1.9633153868
  9
$DIMLFAC
 40
1.0
  9
$DIMBLK
  1
_FILLED
  9
$DIMALT
 70
0
  9
$DIMALTF
 40
0.0393700787
  9
$DIMTXT
 40
2.1690668731
  9
$DIMTOL
 70
1
  9
$DIMLIM
 70
0
  9
$DIMTFAC
 40
1.0
  9
$DIMTP
 40
0.01
  9
$DIMTM
 40
0.01
  9
$DIMGAP
 40
0.625
  9
$DIMDSEP
 70
46
  9
$AUNITS
 70
0
  9
$PDMODE
 70
3
  9
$PDSIZE
 40
0.3125
  9
$HANDSEED
  5
27D
  9
$TILEMODE
 70
1
  9
$MEASUREMENT
 70
1
  9
$INSUNITS
 70
4
  0
ENDSEC
  0
SECTION
  2
CLASSES
  0
CLASS
  1
ACDBDICTIONARYWDFLT
  2
AcDbDictionaryWithDefault
  3
AutoCAD 2000
 90
0
 91
1
280
0
281
0
  0
CLASS
  1
ACDBPLACEHOLDER
  2
AcDbPlaceHolder
  3
AutoCAD 2000
 90
0
 91
1
280
0
281
0
  0
CLASS
  1
LAYOUT
  2
AcDbLayout
  3
AutoCAD 2000
 90
0
 91
0
280
0
281
0
  0
ENDSEC
  0
SECTION
  2
TABLES
  0
TABLE
  2
VPORT
  5
8
100
AcDbSymbolTable
 70
2
  0
VPORT
  5
1F4
100
AcDbSymbolTableRecord
100
AcDbViewportTableRecord
  2
*ACTIVE
 70
0
 10
0.0
 20
0.0
 11
1.0
 21
1.0
 12
65.0720061928
 22
92.0304087584
 13
0.0
 23
0.0
 14
1.0
 24
1.0
 15
0.0
 25
0.0
 16
0.0
 26
0.0
 36
1.0
 17
0.0
 27
0.0
 37
0.0
 40
184.0608175168
 41
0.7070707071
 42
50.0
 43
0.0
 44
0.0
 50
0.0
 51
0.0
 71
0
 72
100
 73
1
 74
1
 75
0
 76
0
 77
0
 78
0
  0
ENDTAB
  0
TABLE
  2
LTYPE
  5
5
100
AcDbSymbolTable
 70
6
  0
LTYPE
  5
14
100
AcDbSymbolTableRecord
100
AcDbLinetypeTableRecord
  2
BYBLOCK
 70
0
  3

 72
65
 73
0
 40
0.0
  0
LTYPE
  5
15
100
AcDbSymbolTableRecord
100
AcDbLinetypeTableRecord
  2
BYLAYER
 70
0
  3

 72
65
 73
0
 40
0.0
  0
LTYPE
  5
16
100
AcDbSymbolTableRecord
100
AcDbLinetypeTableRecord
  2
CONTINUOUS
 70
64
  3
Solid line
 72
65
 73
0
 40
0.0
  0
LTYPE
  5
1F5
100
AcDbSymbolTableRecord
100
AcDbLinetypeTableRecord
  2
CENTER
 70
64
  3
____ _ ____ _ ____ _ ____ _ ____ _ ____ _ ____
 72
65
 73
4
 40
0.6
 49
0.375
 74
0
 49
-0.075
 74
0
 49
0.075
 74
0
 49
-0.075
 74
0
  0
LTYPE
  5
1F6
100
AcDbSymbolTableRecord
100
AcDbLinetypeTableRecord
  2
HIDDEN
 70
64
  3
- - - - - - - - - - - - - - - - - - - -
 72
65
 73
2
 40
0.2
 49
0.1
 74
0
 49
-0.1
 74
0
  0
LTYPE
  5
1F7
100
AcDbSymbolTableRecord
100
AcDbLinetypeTableRecord
  2
PHANTOM
 70
64
  3
_____ _ _ _____ _ _ _____ _ _ _____
 72
65
 73
6
 40
0.8
 49
0.45
 74
0
 49
-0.05
 74
0
 49
0.1
 74
0
 49
-0.05
 74
0
 49
0.1
 74
0
 49
-0.05
 74
0
  0
LTYPE
  5
1F8
100
AcDbSymbolTableRecord
100
AcDbLinetypeTableRecord
  2
DOT
 70
64
  3
. . . . . . . . . . . . . . . . . . . .
 72
65
 73
2
 40
0.2
 49
0.1
 74
0
 49
-0.1
 74
0
  0
LTYPE
  5
1F9
100
AcDbSymbolTableRecord
100
AcDbLinetypeTableRecord
  2
DASHED
 70
64
  3
- - - - - - - - - - - - - - - - - - - -
 72
65
 73
2
 40
0.2
 49
0.1
 74
0
 49
-0.1
 74
0
  0
ENDTAB
  0
TABLE
  2
LAYER
  5
2
100
AcDbSymbolTable
 70
36
  0
LAYER
  5
10
100
AcDbSymbolTableRecord
100
AcDbLayerTableRecord
  2
0
 70
0
 62
7
  6
CONTINUOUS
370
-3
390
F
  0
LAYER
  5
1FA
100
AcDbSymbolTableRecord
100
AcDbLayerTableRecord
  2
DEFAULT_1
 70
0
 62
7
  6
CENTER
370
-3
390
F
  0
LAYER
  5
1FB
100
AcDbSymbolTableRecord
100
AcDbLayerTableRecord
  2
DEFAULT_2
 70
0
 62
8
  6
HIDDEN
370
-3
390
F
  0
LAYER
  5
1FC
100
AcDbSymbolTableRecord
100
AcDbLayerTableRecord
  2
DEFAULT_3
 70
0
 62
7
  6
PHANTOM
370
-3
390
F
  0
LAYER
  5
1FD
100
AcDbSymbolTableRecord
100
AcDbLayerTableRecord
  2
00_COMPONENTS
 70
0
 62
7
  6
CONTINUOUS
370
-3
390
F
  0
LAYER
  5
1FE
100
AcDbSymbolTableRecord
100
AcDbLayerTableRecord
  2
01_1_DEFAULT_DATUMS
 70
0
 62
7
  6
CONTINUOUS
370
-3
390
F
  0
LAYER
  5
1FF
100
AcDbSymbolTableRecord
100
AcDbLayerTableRecord
  2
01_PLANES
 70
0
 62
7
  6
CONTINUOUS
370
-3
390
F
  0
LAYER
  5
200
100
AcDbSymbolTableRecord
100
AcDbLayerTableRecord
  2
02_COORD_SYS
 70
0
 62
7
  6
CONTINUOUS
370
-3
390
F
  0
LAYER
  5
201
100
AcDbSymbolTableRecord
100
AcDbLayerTableRecord
  2
03_AXES
 70
0
 62
7
  6
CONTINUOUS
370
-3
390
F
  0
LAYER
  5
202
100
AcDbSymbolTableRecord
100
AcDbLayerTableRecord
  2
04_POINTS
 70
0
 62
7
  6
CONTINUOUS
370
-3
390
F
  0
LAYER
  5
203
100
AcDbSymbolTableRecord
100
AcDbLayerTableRecord
  2
05_CURVES
 70
0
 62
7
  6
CONTINUOUS
370
-3
390
F
  0
LAYER
  5
204
100
AcDbSymbolTableRecord
100
AcDbLayerTableRecord
  2
06_SURFS
 70
0
 62
7
  6
CONTINUOUS
370
-3
390
F
  0
LAYER
  5
205
100
AcDbSymbolTableRecord
100
AcDbLayerTableRecord
  2
07_COSMETICS
 70
0
 62
7
  6
CONTINUOUS
370
-3
390
F
  0
LAYER
  5
206
100
AcDbSymbolTableRecord
100
AcDbLayerTableRecord
  2
10_NOTES
 70
0
 62
7
  6
CONTINUOUS
370
-3
390
F
  0
LAYER
  5
207
100
AcDbSymbolTableRecord
100
AcDbLayerTableRecord
  2
11_NOTES_PUB
 70
0
 62
7
  6
CONTINUOUS
370
-3
390
F
  0
LAYER
  5
208
100
AcDbSymbolTableRecord
100
AcDbLayerTableRecord
  2
13_REF_GTOL
 70
0
 62
7
  6
CONTINUOUS
370
-3
390
F
  0
LAYER
  5
209
100
AcDbSymbolTableRecord
100
AcDbLayerTableRecord
  2
16_MISC
 70
0
 62
7
  6
CONTINUOUS
370
-3
390
F
  0
LAYER
  5
20A
100
AcDbSymbolTableRecord
100
AcDbLayerTableRecord
  2
17_NO_PRINT
 70
0
 62
7
  6
CONTINUOUS
370
-3
390
F
  0
LAYER
  5
20B
100
AcDbSymbolTableRecord
100
AcDbLayerTableRecord
  2
18_DATUM_CAMS_JOINTS
 70
0
 62
7
  6
CONTINUOUS
370
-3
390
F
  0
LAYER
  5
20C
100
AcDbSymbolTableRecord
100
AcDbLayerTableRecord
  2
19_DATUM_FUNCTIONAL
 70
0
 62
7
  6
CONTINUOUS
370
-3
390
F
  0
LAYER
  5
20D
100
AcDbSymbolTableRecord
100
AcDbLayerTableRecord
  2
20_DATUM_KINEMATIC_SCHEME
 70
0
 62
7
  6
CONTINUOUS
370
-3
390
F
  0
ENDTAB
  0
TABLE
  2
STYLE
  5
3
100
AcDbSymbolTable
 70
1
  0
STYLE
  5
11
100
AcDbSymbolTableRecord
100
AcDbTextStyleTableRecord
  2
STANDARD
 70
0
 40
0.0
 41
0.8
 50
0.0
 71
0
 42
0.2
  3
txt
  4

  0
STYLE
  5
20E
100
AcDbSymbolTableRecord
100
AcDbTextStyleTableRecord
  2
TEXTSTYLE_1
 70
0
 40
0.0
 41
0.8
 50
0.0
 71
0
 42
0.2
  3
gdt
  4

  0
ENDTAB
  0
TABLE
  2
VIEW
  5
6
100
AcDbSymbolTable
 70
0
  0
ENDTAB
  0
TABLE
  2
UCS
  5
7
100
AcDbSymbolTable
 70
0
  0
ENDTAB
  0
TABLE
  2
APPID
  5
9
100
AcDbSymbolTable
 70
1
  0
APPID
  5
20F
100
AcDbSymbolTableRecord
100
AcDbRegAppTableRecord
  2
ACAD
 70
0
  0
ENDTAB
  0
TABLE
  2
BLOCK_RECORD
  5
1
100
AcDbSymbolTable
 70
0
  0
BLOCK_RECORD
  5
210
100
AcDbSymbolTableRecord
100
AcDbBlockTableRecord
  2
*Model_Space
  0
BLOCK_RECORD
  5
211
100
AcDbSymbolTableRecord
100
AcDbBlockTableRecord
  2
*Paper_Space
  0
BLOCK_RECORD
  5
212
100
AcDbSymbolTableRecord
100
AcDbBlockTableRecord
  2
_FILLED
  0
ENDTAB
  0
TABLE
  2
DIMSTYLE
  5
A
100
AcDbSymbolTable
 70
1
100
AcDbDimStyleTable
 71
0
  0
DIMSTYLE
105
213
100
AcDbSymbolTableRecord
100
AcDbDimStyleTableRecord
  2
STANDARD
 70
0
  3

  4

 40
1.0
 41
1.5493334808
 42
1.0
 43
0.38
 44
1.0
 45
0.0
 46
0.0
 47
0.01
 48
0.01
140
2.1690668731
141
0.09
142
0.0
143
25.4
144
1.0
145
0.0
146
1.0
147
0.625
 71
1
 72
0
 73
0
 74
0
 75
0
 76
0
 77
1
 78
8
 79
2
170
0
171
1
172
0
173
0
174
0
175
0
176
0
177
0
178
0
270
2
179
2
271
2
272
2
273
2
274
2
275
0
280
0
281
0
282
0
283
1
284
8
285
0
286
0
287
3
288
0
340
11
278
46
341
212
342
212
343
212
344
212
  0
ENDTAB
  0
ENDSEC
  0
SECTION
  2
BLOCKS
  0
BLOCK
  5
20
100
AcDbEntity
  8
0
100
AcDbBlockBegin
  2
*Model_Space
 70
0
 10
0.0
 20
0.0
 30
0.0
  3
*Model_Space
  1

  0
ENDBLK
  5
21
100
AcDbEntity
  8
0
100
AcDbBlockEnd
  0
BLOCK
  5
1C
100
AcDbEntity
  8
0
100
AcDbBlockBegin
  2
*Paper_Space
 70
0
 10
0.0
 20
0.0
 30
0.0
  3
*Paper_Space
  1

  0
ENDBLK
  5
1D
100
AcDbEntity
  8
0
100
AcDbBlockEnd
  0
BLOCK
  5
214
100
AcDbEntity
  8
0
100
AcDbBlockBegin
  2
_FILLED
 70
64
 10
0.0
 20
0.0
  3
_FILLED
  1

  0
SOLID
  5
215
100
AcDbEntity
  8
0
  6
BYBLOCK
 62
0
100
AcDbTrace
 10
0.0
 20
0.0
 11
-1.0
 21
0.25
 12
-1.0
 22
-0.25
 13
-1.0
 23
-0.25
  0
ENDBLK
  5
216
100
AcDbEntity
  8
0
  6
BYBLOCK
 62
0
100
AcDbBlockEnd
  0
ENDSEC
  0
SECTION
  2
ENTITIES
  0
LINE
  5
217
100
AcDbEntity
  8
0
100
AcDbLine
 62
7
  6
CONTINUOUS
 10
14.5116709803
 20
91.9296264972
 11
14.5116709803
 21
45.4671871626
  0
LINE
  5
218
100
AcDbEntity
  8
0
100
AcDbLine
 62
7
  6
CONTINUOUS
 10
14.5116709803
 20
92.6047478279
 11
14.5116709803
 21
133.0471871626
  0
LINE
  5
219
100
AcDbEntity
  8
0
100
AcDbLine
 62
7
  6
CONTINUOUS
 10
15.8616709803
 20
91.7671871626
 11
15.8616709803
 21
92.7671871626
  0
LINE
  5
21A
100
AcDbEntity
  8
0
100
AcDbLine
 62
7
  6
CONTINUOUS
 10
17.3616709803
 20
90.2671871626
 11
17.3616709803
 21
91.7671871626
  0
LINE
  5
21B
100
AcDbEntity
  8
0
100
AcDbLine
 62
7
  6
CONTINUOUS
 10
17.3616709803
 20
92.7671871626
 11
17.3616709803
 21
94.2671871626
  0
LINE
  5
21C
100
AcDbEntity
  8
0
100
AcDbLine
 62
7
  6
CONTINUOUS
 10
18.3616709803
 20
94.2671871626
 11
18.3616709803
 21
92.7671871626
  0
LINE
  5
21D
100
AcDbEntity
  8
0
100
AcDbLine
 62
7
  6
CONTINUOUS
 10
18.3616709803
 20
91.7671871626
 11
18.3616709803
 21
90.2671871626
  0
LINE
  5
21E
100
AcDbEntity
  8
0
100
AcDbLine
 62
7
  6
CONTINUOUS
 10
19.8616709803
 20
92.7671871626
 11
19.8616709803
 21
91.7671871626
  0
LINE
  5
21F
100
AcDbEntity
  8
0
100
AcDbLine
 62
7
  6
CONTINUOUS
 10
119.0116709803
 20
45.4671871626
 11
14.5116709803
 21
45.4671871626
  0
LINE
  5
220
100
AcDbEntity
  8
0
100
AcDbLine
 62
7
  6
CONTINUOUS
 10
21.2616709803
 20
47.4671871626
 11
21.2616709803
 21
120.4671871626
  0
LINE
  5
221
100
AcDbEntity
  8
0
100
AcDbLine
 62
7
  6
CONTINUOUS
 10
38.5160681766
 20
46.6259120386
 11
113.5160681766
 21
46.6259120386
  0
LINE
  5
222
100
AcDbEntity
  8
0
100
AcDbLine
 62
7
  6
CONTINUOUS
 10
38.5160681766
 20
47.4671871626
 11
21.2616709803
 21
47.4671871626
  0
LINE
  5
223
100
AcDbEntity
  8
0
100
AcDbLine
 62
7
  6
CONTINUOUS
 10
38.5160681766
 20
121.6259120386
 11
38.5160681766
 21
46.6259120386
  0
LINE
  5
224
100
AcDbEntity
  8
0
100
AcDbLine
 62
7
  6
CONTINUOUS
 10
50.8251151155
 20
95.1561501022
 11
60.130274971
 21
106.5734473576
  0
LINE
  5
225
100
AcDbEntity
  8
0
100
AcDbLine
 62
7
  6
CONTINUOUS
 10
64.7616709803
 20
131.4671871626
 11
64.7616709803
 21
132.4671871626
  0
LINE
  5
226
100
AcDbEntity
  8
0
100
AcDbLine
 62
7
  6
CONTINUOUS
 10
66.2616709803
 20
129.9671871626
 11
66.2616709803
 21
131.4671871626
  0
LINE
  5
227
100
AcDbEntity
  8
0
100
AcDbLine
 62
7
  6
CONTINUOUS
 10
66.2616709803
 20
132.4671871626
 11
66.2616709803
 21
133.9671871626
  0
LINE
  5
228
100
AcDbEntity
  8
0
100
AcDbLine
 62
7
  6
CONTINUOUS
 10
67.2616709803
 20
133.9671871626
 11
67.2616709803
 21
132.4671871626
  0
LINE
  5
229
100
AcDbEntity
  8
0
100
AcDbLine
 62
7
  6
CONTINUOUS
 10
67.2616709803
 20
131.4671871626
 11
67.2616709803
 21
129.9671871626
  0
LINE
  5
22A
100
AcDbEntity
  8
0
100
AcDbLine
 62
7
  6
CONTINUOUS
 10
17.8616709803
 20
88.7671871626
 11
14.5116709803
 21
88.7671871626
  0
LINE
  5
22B
100
AcDbEntity
  8
0
100
AcDbLine
 62
7
  6
CONTINUOUS
 10
115.6616709803
 20
88.7671871626
 11
119.0116709803
 21
88.7671871626
  0
LINE
  5
22C
100
AcDbEntity
  8
0
100
AcDbLine
 62
7
  6
CONTINUOUS
 10
116.1616709803
 20
90.2671871626
 11
115.1616709803
 21
90.2671871626
  0
LINE
  5
22D
100
AcDbEntity
  8
0
100
AcDbLine
 62
7
  6
CONTINUOUS
 10
18.3616709803
 20
90.2671871626
 11
17.3616709803
 21
90.2671871626
  0
LINE
  5
22E
100
AcDbEntity
  8
0
100
AcDbLine
 62
7
  6
CONTINUOUS
 10
117.6616709803
 20
91.7671871626
 11
116.1616709803
 21
91.7671871626
  0
LINE
  5
22F
100
AcDbEntity
  8
0
100
AcDbLine
 62
7
  6
CONTINUOUS
 10
115.1616709803
 20
91.7671871626
 11
113.6616709803
 21
91.7671871626
  0
LINE
  5
230
100
AcDbEntity
  8
0
100
AcDbLine
 62
7
  6
CONTINUOUS
 10
19.8616709803
 20
91.7671871626
 11
18.3616709803
 21
91.7671871626
  0
LINE
  5
231
100
AcDbEntity
  8
0
100
AcDbLine
 62
7
  6
CONTINUOUS
 10
17.3616709803
 20
91.7671871626
 11
15.8616709803
 21
91.7671871626
  0
LINE
  5
232
100
AcDbEntity
  8
0
100
AcDbLine
 62
7
  6
CONTINUOUS
 10
68.7616709803
 20
132.4671871626
 11
68.7616709803
 21
131.4671871626
  0
LINE
  5
233
100
AcDbEntity
  8
0
100
AcDbLine
 62
7
  6
CONTINUOUS
 10
85.9769911877
 20
109.7585087227
 11
52.9202323702
 21
69.1983412916
  0
LINE
  5
234
100
AcDbEntity
  8
0
100
AcDbLine
 62
7
  6
CONTINUOUS
 10
89.9643787025
 20
111.9110380263
 11
87.6239596192
 21
109.0393774864
  0
LINE
  5
235
100
AcDbEntity
  8
0
100
AcDbLine
 62
7
  6
CONTINUOUS
 10
15.8616709803
 20
92.7671871626
 11
17.3616709803
 21
92.7671871626
  0
LINE
  5
236
100
AcDbEntity
  8
0
100
AcDbLine
 62
7
  6
CONTINUOUS
 10
18.3616709803
 20
92.7671871626
 11
19.8616709803
 21
92.7671871626
  0
LINE
  5
237
100
AcDbEntity
  8
0
100
AcDbLine
 62
7
  6
CONTINUOUS
 10
113.6616709803
 20
92.7671871626
 11
115.1616709803
 21
92.7671871626
  0
LINE
  5
238
100
AcDbEntity
  8
0
100
AcDbLine
 62
7
  6
CONTINUOUS
 10
116.1616709803
 20
92.7671871626
 11
117.6616709803
 21
92.7671871626
  0
LINE
  5
239
100
AcDbEntity
  8
0
100
AcDbLine
 62
7
  6
CONTINUOUS
 10
17.3616709803
 20
94.2671871626
 11
18.3616709803
 21
94.2671871626
  0
LINE
  5
23A
100
AcDbEntity
  8
0
100
AcDbLine
 62
7
  6
CONTINUOUS
 10
115.1616709803
 20
94.2671871626
 11
116.1616709803
 21
94.2671871626
  0
LINE
  5
23B
100
AcDbEntity
  8
0
100
AcDbLine
 62
7
  6
CONTINUOUS
 10
17.8616709803
 20
95.7671871626
 11
14.5116709803
 21
95.7671871626
  0
LINE
  5
23C
100
AcDbEntity
  8
0
100
AcDbLine
 62
7
  6
CONTINUOUS
 10
115.6616709803
 20
95.7671871626
 11
119.0116709803
 21
95.7671871626
  0
LINE
  5
23D
100
AcDbEntity
  8
0
100
AcDbLine
 62
7
  6
CONTINUOUS
 10
94.7599315642
 20
108.0026361536
 11
92.9558737905
 21
105.789083223
  0
LINE
  5
23E
100
AcDbEntity
  8
0
100
AcDbLine
 62
7
  6
CONTINUOUS
 10
97.4392262689
 20
105.8189962807
 11
95.5412008645
 21
103.4901464193
  0
LINE
  5
23F
100
AcDbEntity
  8
0
100
AcDbLine
 62
7
  6
CONTINUOUS
 10
99.1451797058
 20
99.0018725073
 11
66.1124076547
 21
58.4711364936
  0
LINE
  5
240
100
AcDbEntity
  8
0
100
AcDbLine
 62
7
  6
CONTINUOUS
 10
38.5160681766
 20
120.4671871626
 11
21.2616709803
 21
120.4671871626
  0
LINE
  5
241
100
AcDbEntity
  8
0
100
AcDbLine
 62
7
  6
CONTINUOUS
 10
113.5160681766
 20
121.6259120386
 11
38.5160681766
 21
121.6259120386
  0
LINE
  5
242
100
AcDbEntity
  8
0
100
AcDbLine
 62
7
  6
CONTINUOUS
 10
97.4392262689
 20
105.8189962807
 11
89.9643787025
 21
111.9110380263
  0
LINE
  5
243
100
AcDbEntity
  8
0
100
AcDbLine
 62
7
  6
CONTINUOUS
 10
119.0116709803
 20
127.4671871626
 11
14.5116709803
 21
127.4671871626
  0
LINE
  5
244
100
AcDbEntity
  8
0
100
AcDbLine
 62
7
  6
CONTINUOUS
 10
101.2080645562
 20
73.0980529086
 11
91.8997418653
 21
61.6768748997
  0
LINE
  5
245
100
AcDbEntity
  8
0
100
AcDbLine
 62
7
  6
CONTINUOUS
 10
67.2616709803
 20
129.9671871626
 11
66.2616709803
 21
129.9671871626
  0
LINE
  5
246
100
AcDbEntity
  8
0
100
AcDbLine
 62
7
  6
CONTINUOUS
 10
68.7616709803
 20
131.4671871626
 11
67.2616709803
 21
131.4671871626
  0
LINE
  5
247
100
AcDbEntity
  8
0
100
AcDbLine
 62
7
  6
CONTINUOUS
 10
66.2616709803
 20
131.4671871626
 11
64.7616709803
 21
131.4671871626
  0
LINE
  5
248
100
AcDbEntity
  8
0
100
AcDbLine
 62
7
  6
CONTINUOUS
 10
64.7616709803
 20
132.4671871626
 11
66.2616709803
 21
132.4671871626
  0
LINE
  5
249
100
AcDbEntity
  8
0
100
AcDbLine
 62
7
  6
CONTINUOUS
 10
67.2616709803
 20
132.4671871626
 11
68.7616709803
 21
132.4671871626
  0
LINE
  5
24A
100
AcDbEntity
  8
0
100
AcDbLine
 62
7
  6
CONTINUOUS
 10
113.5160681766
 20
46.6259120386
 11
113.5160681766
 21
121.6259120386
  0
LINE
  5
24B
100
AcDbEntity
  8
0
100
AcDbLine
 62
7
  6
CONTINUOUS
 10
113.6616709803
 20
91.7671871626
 11
113.6616709803
 21
92.7671871626
  0
LINE
  5
24C
100
AcDbEntity
  8
0
100
AcDbLine
 62
7
  6
CONTINUOUS
 10
66.2616709803
 20
133.9671871626
 11
67.2616709803
 21
133.9671871626
  0
LINE
  5
24D
100
AcDbEntity
  8
0
100
AcDbLine
 62
7
  6
CONTINUOUS
 10
114.3483674302
 20
137.4671871626
 11
88.9116709803
 21
137.4671871626
  0
LINE
  5
24E
100
AcDbEntity
  8
0
100
AcDbLine
 62
7
  6
CONTINUOUS
 10
79.6116709803
 20
137.4671871626
 11
19.1749745303
 21
137.4671871626
  0
LINE
  5
24F
100
AcDbEntity
  8
0
100
AcDbLine
 62
7
  6
CONTINUOUS
 10
115.1616709803
 20
90.2671871626
 11
115.1616709803
 21
91.7671871626
  0
LINE
  5
250
100
AcDbEntity
  8
0
100
AcDbLine
 62
7
  6
CONTINUOUS
 10
115.1616709803
 20
92.7671871626
 11
115.1616709803
 21
94.2671871626
  0
LINE
  5
251
100
AcDbEntity
  8
0
100
AcDbLine
 62
7
  6
CONTINUOUS
 10
116.1616709803
 20
94.2671871626
 11
116.1616709803
 21
92.7671871626
  0
LINE
  5
252
100
AcDbEntity
  8
0
100
AcDbLine
 62
7
  6
CONTINUOUS
 10
116.1616709803
 20
91.7671871626
 11
116.1616709803
 21
90.2671871626
  0
LINE
  5
253
100
AcDbEntity
  8
0
100
AcDbLine
 62
7
  6
CONTINUOUS
 10
117.6616709803
 20
92.7671871626
 11
117.6616709803
 21
91.7671871626
  0
LINE
  5
254
100
AcDbEntity
  8
0
100
AcDbLine
 62
7
  6
CONTINUOUS
 10
119.0116709803
 20
45.4671871626
 11
119.0116709803
 21
91.9296264972
  0
LINE
  5
255
100
AcDbEntity
  8
0
100
AcDbLine
 62
7
  6
CONTINUOUS
 10
119.0116709803
 20
92.604747828
 11
119.0116709803
 21
133.0471871626
  0
CIRCLE
  5
256
100
AcDbEntity
  8
0
100
AcDbCircle
 62
7
  6
CONTINUOUS
 10
26.0116709803
 20
50.3171871626
 40
1.25
  0
ARC
  5
257
100
AcDbEntity
  8
0
100
AcDbCircle
 62
7
  6
CONTINUOUS
 10
17.8616709803
 20
92.2671871626
 40
3.5
100
AcDbArc
 50
13.7291326754
 51
90.0
  0
ARC
  5
258
100
AcDbEntity
  8
0
100
AcDbCircle
 62
7
  6
CONTINUOUS
 10
17.8616709803
 20
92.2671871626
 40
3.5
100
AcDbArc
 50
270.0
 51
346.2708673246
  0
CIRCLE
  5
259
100
AcDbEntity
  8
0
100
AcDbCircle
 62
7
  6
CONTINUOUS
 10
17.8616709803
 20
92.2671871626
 40
3.3669640929
  0
ARC
  5
25A
100
AcDbEntity
  8
0
100
AcDbCircle
 62
7
  6
CONTINUOUS
 10
76.0160681766
 20
84.1259120386
 40
28.0604902332
100
AcDbArc
 50
65.6426640891
 51
41.6194289992
  0
ARC
  5
25B
100
AcDbEntity
  8
0
100
AcDbCircle
 62
7
  6
CONTINUOUS
 10
76.0160681766
 20
84.1259120386
 40
27.5
100
AcDbArc
 50
68.9232192062
 51
212.7163572832
  0
ARC
  5
25C
100
AcDbEntity
  8
0
100
AcDbCircle
 62
7
  6
CONTINUOUS
 10
76.0160681766
 20
84.1259120386
 40
27.5
100
AcDbArc
 50
212.8758670548
 51
248.8916290194
  0
ARC
  5
25D
100
AcDbEntity
  8
0
100
AcDbCircle
 62
7
  6
CONTINUOUS
 10
76.0160681766
 20
84.1259120386
 40
27.5
100
AcDbArc
 50
32.7479253234
 51
68.7636872879
  0
ARC
  5
25E
100
AcDbEntity
  8
0
100
AcDbCircle
 62
7
  6
CONTINUOUS
 10
76.0160681766
 20
84.1259120386
 40
27.5
100
AcDbArc
 50
249.0479842834
 51
32.5915021876
  0
ARC
  5
25F
100
AcDbEntity
  8
0
100
AcDbCircle
 62
7
  6
CONTINUOUS
 10
115.6616709803
 20
92.2671871626
 40
3.5
100
AcDbArc
 50
90.0000000001
 51
128.2508967469
  0
ARC
  5
260
100
AcDbEntity
  8
0
100
AcDbCircle
 62
7
  6
CONTINUOUS
 10
115.6616709803
 20
92.2671871626
 40
3.5
100
AcDbArc
 50
231.7478309594
 51
270.0
  0
ARC
  5
261
100
AcDbEntity
  8
0
100
AcDbCircle
 62
7
  6
CONTINUOUS
 10
115.6616709803
 20
92.2671871626
 40
3.3669640929
100
AcDbArc
 50
228.774565481
 51
131.2052397291
  0
ARC
  5
262
100
AcDbEntity
  8
0
100
AcDbCircle
 62
7
  6
CONTINUOUS
 10
119.0116709803
 20
137.7171871626
 40
4.67
100
AcDbArc
 50
183.0686927871
 51
270.0
  0
ARC
  5
263
100
AcDbEntity
  8
0
100
AcDbCircle
 62
7
  6
CONTINUOUS
 10
14.5116709803
 20
137.7171871626
 40
4.67
100
AcDbArc
 50
270.0
 51
356.9313072129
  0
ARC
  5
264
100
AcDbEntity
  8
0
100
AcDbCircle
 62
7
  6
CONTINUOUS
 10
84.2616709803
 20
137.4671871626
 40
4.65
100
AcDbArc
 50
180.0
 51
360.0
  0
CIRCLE
  5
265
100
AcDbEntity
  8
0
100
AcDbCircle
 62
7
  6
CONTINUOUS
 10
66.7616709803
 20
131.9671871626
 40
3.5
  0
CIRCLE
  5
266
100
AcDbEntity
  8
0
100
AcDbCircle
 62
7
  6
CONTINUOUS
 10
66.7616709803
 20
131.9671871626
 40
3.3669640929
  0
ARC
  5
267
100
AcDbEntity
  8
0
100
AcDbCircle
 62
7
  6
CONTINUOUS
 10
300.1941286942
 20
84.1259120386
 40
233.0
100
AcDbArc
 50
170.7382944488
 51
173.3182506131
  0
ARC
  5
268
100
AcDbEntity
  8
0
100
AcDbCircle
 62
7
  6
CONTINUOUS
 10
300.1941286942
 20
84.1259120386
 40
233.0
100
AcDbArc
 50
186.6817493869
 51
189.2617055512
  0
SPLINE
  5
269
100
AcDbEntity
  8
0
100
AcDbSpline
 62
7
  6
CONTINUOUS
 70
0
 71
3
 72
9
 73
5
 74
0
 42
0.0000001
 43
0.0000001
 44
0.0000000001
 40
0.0
 40
0.0
 40
0.0
 40
0.0
 40
0.4414024256
 40
1.0
 40
1.0
 40
1.0
 40
1.0
 10
78.0767554361
 20
73.0935640684
 30
0.0
 10
78.0711796197
 20
73.0981066466
 30
0.0
 10
78.0547627082
 20
73.1038774499
 30
0.0
 10
78.0383158279
 20
73.1007728837
 30
0.0
 10
78.0295643403
 20
73.0982730895
 30
0.0
  0
SPLINE
  5
26A
100
AcDbEntity
  8
0
100
AcDbSpline
 62
7
  6
CONTINUOUS
 70
0
 71
3
 72
9
 73
5
 74
0
 42
0.0000001
 43
0.0000001
 44
0.0000000001
 40
0.0
 40
0.0
 40
0.0
 40
0.0
 40
0.4414024256
 40
1.0
 40
1.0
 40
1.0
 40
1.0
 10
85.3420158163
 20
82.0079340185
 30
0.0
 10
85.3364399999
 20
82.0124765967
 30
0.0
 10
85.3200230884
 20
82.0182474001
 30
0.0
 10
85.3035762082
 20
82.0151428338
 30
0.0
 10
85.2948247206
 20
82.0126430397
 30
0.0
  0
SPLINE
  5
26B
100
AcDbEntity
  8
0
100
AcDbSpline
 62
7
  6
CONTINUOUS
 70
0
 71
3
 72
9
 73
5
 74
0
 42
0.0000001
 43
0.0000001
 44
0.0000000001
 40
0.0
 40
0.0
 40
0.0
 40
0.0
 40
0.4414024256
 40
1.0
 40
1.0
 40
1.0
 40
1.0
 10
92.6072761965
 20
90.9223039687
 30
0.0
 10
92.6017003801
 20
90.9268465468
 30
0.0
 10
92.5852834686
 20
90.9326173502
 30
0.0
 10
92.5688365884
 20
90.9295127839
 30
0.0
 10
92.5600851008
 20
90.9270129898
 30
0.0
  0
SPLINE
  5
26C
100
AcDbEntity
  8
0
100
AcDbSpline
 62
7
  6
CONTINUOUS
 70
0
 71
3
 72
9
 73
5
 74
0
 42
0.0000001
 43
0.0000001
 44
0.0000000001
 40
0.0
 40
0.0
 40
0.0
 40
0.0
 40
0.5589104945
 40
1.0
 40
1.0
 40
1.0
 40
1.0
 10
72.6926662181
 20
66.5501360207
 30
0.0
 10
72.6919653765
 20
66.541022856
 30
0.0
 10
72.692208325
 20
66.5242259599
 30
0.0
 10
72.7011894064
 20
66.5092394441
 30
0.0
 10
72.7067805588
 20
66.50468195
 30
0.0
  0
SPLINE
  5
26D
100
AcDbEntity
  8
0
100
AcDbSpline
 62
7
  6
CONTINUOUS
 70
0
 71
3
 72
9
 73
5
 74
0
 42
0.0000001
 43
0.0000001
 44
0.0000000001
 40
0.0
 40
0.0
 40
0.0
 40
0.0
 40
0.5589104945
 40
1.0
 40
1.0
 40
1.0
 40
1.0
 10
79.9579265983
 20
75.4645059708
 30
0.0
 10
79.9572257567
 20
75.4553928061
 30
0.0
 10
79.9574687052
 20
75.43859591
 30
0.0
 10
79.9664497866
 20
75.4236093942
 30
0.0
 10
79.972040939
 20
75.4190519001
 30
0.0
  0
SPLINE
  5
26E
100
AcDbEntity
  8
0
100
AcDbSpline
 62
7
  6
CONTINUOUS
 70
0
 71
3
 72
9
 73
5
 74
0
 42
0.0000001
 43
0.0000001
 44
0.0000000001
 40
0.0
 40
0.0
 40
0.0
 40
0.0
 40
0.5589104945
 40
1.0
 40
1.0
 40
1.0
 40
1.0
 10
87.2231869785
 20
84.378875921
 30
0.0
 10
87.222486137
 20
84.3697627563
 30
0.0
 10
87.2227290854
 20
84.3529658601
 30
0.0
 10
87.2317101668
 20
84.3379793443
 30
0.0
 10
87.2373013192
 20
84.3334218503
 30
0.0
  0
SPLINE
  5
26F
100
AcDbEntity
  8
0
100
AcDbSpline
 62
7
  6
CONTINUOUS
 70
0
 71
3
 72
15
 73
11
 74
0
 42
0.0000001
 43
0.0000001
 44
0.0000000001
 40
0.0
 40
0.0
 40
0.0
 40
0.0
 40
0.0224206721
 40
0.0516687583
 40
0.1300082139
 40
0.2330398752
 40
0.3579509527
 40
0.5013444275
 40
0.6592073503
 40
1.0
 40
1.0
 40
1.0
 40
1.0
 10
72.0834869967
 20
92.7092719211
 30
0.0
 10
72.054402165
 20
92.6970105783
 30
0.0
 10
71.9895719867
 20
92.6636595722
 30
0.0
 10
71.8332607045
 20
92.5683570276
 30
0.0
 10
71.5922382456
 20
92.3950322712
 30
0.0
 10
71.255966503
 20
92.1250102057
 30
0.0
 10
70.8631416454
 20
91.7798261877
 30
0.0
 10
70.4276928966
 20
91.3669127799
 30
0.0
 10
69.7951675644
 20
90.7210331224
 30
0.0
 10
69.3319741493
 20
90.1924086544
 30
0.0
 10
69.0288761869
 20
89.8205118158
 30
0.0
  0
SPLINE
  5
270
100
AcDbEntity
  8
0
100
AcDbSpline
 62
7
  6
CONTINUOUS
 70
0
 71
3
 72
15
 73
11
 74
0
 42
0.0000001
 43
0.0000001
 44
0.0000000001
 40
0.0
 40
0.0
 40
0.0
 40
0.0
 40
0.0224206721
 40
0.0516687583
 40
0.1300082139
 40
0.2330398752
 40
0.3579509527
 40
0.5013444275
 40
0.6592073503
 40
1.0
 40
1.0
 40
1.0
 40
1.0
 10
79.3487473769
 20
101.6236418712
 30
0.0
 10
79.3196625452
 20
101.6113805285
 30
0.0
 10
79.2548323669
 20
101.5780295223
 30
0.0
 10
79.0985210847
 20
101.4827269777
 30
0.0
 10
78.8574986258
 20
101.3094022213
 30
0.0
 10
78.5212268833
 20
101.0393801559
 30
0.0
 10
78.1284020256
 20
100.6941961378
 30
0.0
 10
77.6929532768
 20
100.2812827301
 30
0.0
 10
77.0604279446
 20
99.6354030726
 30
0.0
 10
76.5972345295
 20
99.1067786046
 30
0.0
 10
76.2941365671
 20
98.7348817659
 30
0.0
  0
SPLINE
  5
271
100
AcDbEntity
  8
0
100
AcDbSpline
 62
7
  6
CONTINUOUS
 70
0
 71
3
 72
16
 73
12
 74
0
 42
0.0000001
 43
0.0000001
 44
0.0000000001
 40
0.0
 40
0.0
 40
0.0
 40
0.0
 40
0.1737369126
 40
0.3423156423
 40
0.5006744367
 40
0.6443220262
 40
0.7692002824
 40
0.871861325
 40
0.9494505779
 40
0.9781813125
 40
1.0
 40
1.0
 40
1.0
 40
1.0
 10
61.7636158067
 20
80.9061418656
 30
0.0
 10
61.6087837005
 20
80.7161650992
 30
0.0
 10
61.3105766617
 20
80.3361980239
 30
0.0
 10
60.8951222785
 20
79.7648594234
 30
0.0
 10
60.5245861413
 20
79.2138830287
 30
0.0
 10
60.2072208938
 20
78.7019693219
 30
0.0
 10
59.9486346765
 20
78.246458108
 30
0.0
 10
59.7529013694
 20
77.8630288866
 30
0.0
 10
59.6330889268
 20
77.593244905
 30
0.0
 10
59.5730639086
 20
77.4226943481
 30
0.0
 10
59.5545235001
 20
77.3536463738
 30
0.0
 10
59.5490115723
 20
77.3233656779
 30
0.0
  0
SPLINE
  5
272
100
AcDbEntity
  8
0
100
AcDbSpline
 62
7
  6
CONTINUOUS
 70
0
 71
3
 72
16
 73
12
 74
0
 42
0.0000001
 43
0.0000001
 44
0.0000000001
 40
0.0
 40
0.0
 40
0.0
 40
0.0
 40
0.1737369126
 40
0.3423156423
 40
0.5006744367
 40
0.6443220262
 40
0.7692002824
 40
0.871861325
 40
0.9494505779
 40
0.9781813125
 40
1.0
 40
1.0
 40
1.0
 40
1.0
 10
69.0288761869
 20
89.8205118158
 30
0.0
 10
68.8740440807
 20
89.6305350493
 30
0.0
 10
68.5758370419
 20
89.250567974
 30
0.0
 10
68.1603826587
 20
88.6792293735
 30
0.0
 10
67.7898465215
 20
88.1282529789
 30
0.0
 10
67.472481274
 20
87.616339272
 30
0.0
 10
67.2138950568
 20
87.1608280581
 30
0.0
 10
67.0181617496
 20
86.7773988367
 30
0.0
 10
66.8983493071
 20
86.5076148552
 30
0.0
 10
66.8383242888
 20
86.3370642982
 30
0.0
 10
66.8197838803
 20
86.2680163239
 30
0.0
 10
66.8142719525
 20
86.2377356281
 30
0.0
  0
SPLINE
  5
273
100
AcDbEntity
  8
0
100
AcDbSpline
 62
7
  6
CONTINUOUS
 70
0
 71
3
 72
16
 73
12
 74
0
 42
0.0000001
 43
0.0000001
 44
0.0000000001
 40
0.0
 40
0.0
 40
0.0
 40
0.0
 40
0.1737369126
 40
0.3423156423
 40
0.5006744367
 40
0.6443220262
 40
0.7692002824
 40
0.871861325
 40
0.9494505779
 40
0.9781813125
 40
1.0
 40
1.0
 40
1.0
 40
1.0
 10
76.2941365671
 20
98.7348817659
 30
0.0
 10
76.1393044609
 20
98.5449049994
 30
0.0
 10
75.8410974221
 20
98.1649379241
 30
0.0
 10
75.4256430389
 20
97.5935993237
 30
0.0
 10
75.0551069017
 20
97.042622929
 30
0.0
 10
74.7377416542
 20
96.5307092221
 30
0.0
 10
74.479155437
 20
96.0751980082
 30
0.0
 10
74.2834221298
 20
95.6917687869
 30
0.0
 10
74.1636096873
 20
95.4219848053
 30
0.0
 10
74.103584669
 20
95.2514342484
 30
0.0
 10
74.0850442605
 20
95.182386274
 30
0.0
 10
74.0795323327
 20
95.1521055782
 30
0.0
  0
SPLINE
  5
274
100
AcDbEntity
  8
0
100
AcDbSpline
 62
7
  6
CONTINUOUS
 70
0
 71
3
 72
20
 73
16
 74
0
 42
0.0000001
 43
0.0000001
 44
0.0000000001
 40
0.0
 40
0.0
 40
0.0
 40
0.0
 40
0.0103592206
 40
0.0180610102
 40
0.027769824
 40
0.0535201798
 40
0.0877945453
 40
0.1304171569
 40
0.1810586891
 40
0.2392684743
 40
0.3045511272
 40
0.4539517388
 40
0.6239332059
 40
0.8083001805
 40
1.0
 40
1.0
 40
1.0
 40
1.0
 10
87.2373013192
 20
84.3334218503
 30
0.0
 10
87.248933297
 20
84.323940322
 30
0.0
 10
87.2784168901
 20
84.3218541546
 30
0.0
 10
87.3170649482
 20
84.3301130881
 30
0.0
 10
87.3766340622
 20
84.3505685284
 30
0.0
 10
87.466919242
 20
84.3960925617
 30
0.0
 10
87.5940379648
 20
84.4735025772
 30
0.0
 10
87.7461723303
 20
84.5784400212
 30
0.0
 10
87.9217115699
 20
84.7101848069
 30
0.0
 10
88.1184624316
 20
84.8681135184
 30
0.0
 10
88.4198095992
 20
85.124047646
 30
0.0
 10
88.8306714847
 20
85.500811339
 30
0.0
 10
89.347219125
 20
86.0165693108
 30
0.0
 10
89.8835883523
 20
86.598266919
 30
0.0
 10
90.2363833316
 20
87.0136225639
 30
0.0
 10
90.4118256512
 20
87.2288877656
 30
0.0
  0
SPLINE
  5
275
100
AcDbEntity
  8
0
100
AcDbSpline
 62
7
  6
CONTINUOUS
 70
0
 71
3
 72
20
 73
16
 74
0
 42
0.0000001
 43
0.0000001
 44
0.0000000001
 40
0.0
 40
0.0
 40
0.0
 40
0.0
 40
0.1917025125
 40
0.3760796723
 40
0.5460695417
 40
0.6954654184
 40
0.7607409105
 40
0.8189473692
 40
0.8695878872
 40
0.9122082934
 40
0.9464791005
 40
0.9722251755
 40
0.9819343267
 40
0.9896378492
 40
1.0
 40
1.0
 40
1.0
 40
1.0
 10
75.8813048907
 20
69.4001478654
 30
0.0
 10
76.0567497609
 20
69.6154161966
 30
0.0
 10
76.3923974218
 20
70.0447708032
 30
0.0
 10
76.8539554048
 20
70.6874833242
 30
0.0
 10
77.2548378504
 20
71.2975250581
 30
0.0
 10
77.5409874877
 20
71.7759279515
 30
0.0
 10
77.7308992783
 20
72.1226683487
 30
0.0
 10
77.8458612369
 20
72.3472302797
 30
0.0
 10
77.9394403819
 20
72.5457486529
 30
0.0
 10
78.011511491
 20
72.7159211069
 30
0.0
 10
78.0616970619
 20
72.8560226431
 30
0.0
 10
78.0880789614
 20
72.9536225576
 30
0.0
 10
78.0960945609
 20
73.0160910119
 30
0.0
 10
78.0963847124
 20
73.0556170119
 30
0.0
 10
78.088393178
 20
73.0840828824
 30
0.0
 10
78.0767554361
 20
73.0935640684
 30
0.0
  0
SPLINE
  5
276
100
AcDbEntity
  8
0
100
AcDbSpline
 62
7
  6
CONTINUOUS
 70
0
 71
3
 72
20
 73
16
 74
0
 42
0.0000001
 43
0.0000001
 44
0.0000000001
 40
0.0
 40
0.0
 40
0.0
 40
0.0
 40
0.1917025125
 40
0.3760796723
 40
0.5460695417
 40
0.6954654184
 40
0.7607409105
 40
0.8189473692
 40
0.8695878872
 40
0.9122082934
 40
0.9464791005
 40
0.9722251755
 40
0.9819343267
 40
0.9896378492
 40
1.0
 40
1.0
 40
1.0
 40
1.0
 10
83.1465652709
 20
78.3145178155
 30
0.0
 10
83.3220101411
 20
78.5297861468
 30
0.0
 10
83.657657802
 20
78.9591407533
 30
0.0
 10
84.119215785
 20
79.6018532743
 30
0.0
 10
84.5200982307
 20
80.2118950082
 30
0.0
 10
84.8062478679
 20
80.6902979016
 30
0.0
 10
84.9961596585
 20
81.0370382988
 30
0.0
 10
85.1111216171
 20
81.2616002298
 30
0.0
 10
85.2047007621
 20
81.460118603
 30
0.0
 10
85.2767718712
 20
81.630291057
 30
0.0
 10
85.3269574421
 20
81.7703925933
 30
0.0
 10
85.3533393416
 20
81.8679925077
 30
0.0
 10
85.3613549411
 20
81.930460962
 30
0.0
 10
85.3616450926
 20
81.9699869621
 30
0.0
 10
85.3536535582
 20
81.9984528325
 30
0.0
 10
85.3420158163
 20
82.0079340185
 30
0.0
  0
SPLINE
  5
277
100
AcDbEntity
  8
0
100
AcDbSpline
 62
7
  6
CONTINUOUS
 70
0
 71
3
 72
20
 73
16
 74
0
 42
0.0000001
 43
0.0000001
 44
0.0000000001
 40
0.0
 40
0.0
 40
0.0
 40
0.0
 40
0.1917025125
 40
0.3760796723
 40
0.5460695417
 40
0.6954654184
 40
0.7607409105
 40
0.8189473692
 40
0.8695878872
 40
0.9122082934
 40
0.9464791005
 40
0.9722251755
 40
0.9819343267
 40
0.9896378492
 40
1.0
 40
1.0
 40
1.0
 40
1.0
 10
90.4118256512
 20
87.2288877656
 30
0.0
 10
90.5872705213
 20
87.4441560969
 30
0.0
 10
90.9229181823
 20
87.8735107034
 30
0.0
 10
91.3844761653
 20
88.5162232244
 30
0.0
 10
91.7853586109
 20
89.1262649583
 30
0.0
 10
92.0715082481
 20
89.6046678517
 30
0.0
 10
92.2614200387
 20
89.951408249
 30
0.0
 10
92.3763819974
 20
90.1759701799
 30
0.0
 10
92.4699611423
 20
90.3744885531
 30
0.0
 10
92.5420322515
 20
90.5446610072
 30
0.0
 10
92.5922178223
 20
90.6847625434
 30
0.0
 10
92.6185997218
 20
90.7823624578
 30
0.0
 10
92.6266153213
 20
90.8448309122
 30
0.0
 10
92.6269054728
 20
90.8843569122
 30
0.0
 10
92.6189139384
 20
90.9128227826
 30
0.0
 10
92.6072761965
 20
90.9223039687
 30
0.0
  0
SPLINE
  5
278
100
AcDbEntity
  8
0
100
AcDbSpline
 62
7
  6
CONTINUOUS
 70
0
 71
3
 72
20
 73
16
 74
0
 42
0.0000001
 43
0.0000001
 44
0.0000000001
 40
0.0
 40
0.0
 40
0.0
 40
0.0
 40
0.0103592206
 40
0.0180610102
 40
0.027769824
 40
0.0535201798
 40
0.0877945453
 40
0.1304171569
 40
0.1810586891
 40
0.2392684743
 40
0.3045511272
 40
0.4539517388
 40
0.6239332059
 40
0.8083001805
 40
1.0
 40
1.0
 40
1.0
 40
1.0
 10
79.972040939
 20
75.4190519001
 30
0.0
 10
79.9836729168
 20
75.4095703719
 30
0.0
 10
80.0131565098
 20
75.4074842045
 30
0.0
 10
80.051804568
 20
75.4157431379
 30
0.0
 10
80.111373682
 20
75.4361985783
 30
0.0
 10
80.2016588618
 20
75.4817226116
 30
0.0
 10
80.3287775846
 20
75.5591326271
 30
0.0
 10
80.4809119501
 20
75.664070071
 30
0.0
 10
80.6564511897
 20
75.7958148568
 30
0.0
 10
80.8532020514
 20
75.9537435682
 30
0.0
 10
81.154549219
 20
76.2096776959
 30
0.0
 10
81.5654111045
 20
76.5864413889
 30
0.0
 10
82.0819587448
 20
77.1021993606
 30
0.0
 10
82.6183279721
 20
77.6838969688
 30
0.0
 10
82.9711229514
 20
78.0992526137
 30
0.0
 10
83.1465652709
 20
78.3145178155
 30
0.0
  0
SPLINE
  5
279
100
AcDbEntity
  8
0
100
AcDbSpline
 62
7
  6
CONTINUOUS
 70
0
 71
3
 72
15
 73
11
 74
0
 42
0.0000001
 43
0.0000001
 44
0.0000000001
 40
0.0
 40
0.0
 40
0.0
 40
0.0
 40
0.0224206721
 40
0.0516687583
 40
0.1300082139
 40
0.2330398752
 40
0.3579509527
 40
0.5013444275
 40
0.6592073503
 40
1.0
 40
1.0
 40
1.0
 40
1.0
 10
64.8182266165
 20
83.794901971
 30
0.0
 10
64.7891417848
 20
83.7826406282
 30
0.0
 10
64.7243116065
 20
83.7492896221
 30
0.0
 10
64.5680003243
 20
83.6539870774
 30
0.0
 10
64.3269778654
 20
83.480662321
 30
0.0
 10
63.9907061228
 20
83.2106402556
 30
0.0
 10
63.5978812652
 20
82.8654562375
 30
0.0
 10
63.1624325164
 20
82.4525428298
 30
0.0
 10
62.5299071841
 20
81.8066631723
 30
0.0
 10
62.0667137691
 20
81.2780387043
 30
0.0
 10
61.7636158067
 20
80.9061418656
 30
0.0
  0
SPLINE
  5
27A
100
AcDbEntity
  8
0
100
AcDbSpline
 62
7
  6
CONTINUOUS
 70
0
 71
3
 72
20
 73
16
 74
0
 42
0.0000001
 43
0.0000001
 44
0.0000000001
 40
0.0
 40
0.0
 40
0.0
 40
0.0
 40
0.0103592206
 40
0.0180610102
 40
0.027769824
 40
0.0535201798
 40
0.0877945453
 40
0.1304171569
 40
0.1810586891
 40
0.2392684743
 40
0.3045511272
 40
0.4539517388
 40
0.6239332059
 40
0.8083001805
 40
1.0
 40
1.0
 40
1.0
 40
1.0
 10
72.7067805588
 20
66.50468195
 30
0.0
 10
72.7184125366
 20
66.4952004218
 30
0.0
 10
72.7478961296
 20
66.4931142543
 30
0.0
 10
72.7865441877
 20
66.5013731878
 30
0.0
 10
72.8461133018
 20
66.5218286281
 30
0.0
 10
72.9363984816
 20
66.5673526615
 30
0.0
 10
73.0635172044
 20
66.644762677
 30
0.0
 10
73.2156515699
 20
66.7497001209
 30
0.0
 10
73.3911908095
 20
66.8814449066
 30
0.0
 10
73.5879416712
 20
67.0393736181
 30
0.0
 10
73.8892888388
 20
67.2953077457
 30
0.0
 10
74.3001507243
 20
67.6720714387
 30
0.0
 10
74.8166983646
 20
68.1878294105
 30
0.0
 10
75.3530675919
 20
68.7695270187
 30
0.0
 10
75.7058625712
 20
69.1848826636
 30
0.0
 10
75.8813048907
 20
69.4001478654
 30
0.0
  0
ENDSEC
  0
SECTION
  2
OBJECTS
  0
DICTIONARY
  5
C
100
AcDbDictionary
280
0
281
1
  3
ACAD_GROUP
350
D
  3
ACAD_MLINESTYLE
350
17
  3
ACAD_LAYOUT
350
1A
  3
ACAD_PLOTSETTINGS
350
19
  3
ACAD_PLOTSTYLENAME
350
E
  0
DICTIONARY
  5
D
102
{ACAD_REACTORS
330
C
102
}
100
AcDbDictionary
280
0
281
1
  0
ACDBDICTIONARYWDFLT
  5
E
102
{ACAD_REACTORS
330
C
102
}
100
AcDbDictionary
281
1
  3
Normal
350
F
100
AcDbDictionaryWithDefault
340
F
  0
DICTIONARY
  5
17
102
{ACAD_REACTORS
330
C
102
}
100
AcDbDictionary
280
0
281
1
  3
Standard
350
18
  0
DICTIONARY
  5
19
102
{ACAD_REACTORS
330
C
102
}
100
AcDbDictionary
281
1
  0
DICTIONARY
  5
1A
102
{ACAD_REACTORS
330
C
102
}
100
AcDbDictionary
281
1
  3
Model
350
27B
  3
Layout1
350
27C
  0
ACDBPLACEHOLDER
  5
F
102
{ACAD_REACTORS
330
E
102
}
  0
MLINESTYLE
  5
18
102
{ACAD_REACTORS
330
17
102
}
100
AcDbMlineStyle
  2
STANDARD
 70
0
  3

 62
256
 51
90.0
 52
90.0
 71
2
 49
0.5
 62
256
  6
BYLAYER
 49
-0.5
 62
256
  6
BYLAYER
  0
LAYOUT
  5
27B
102
{ACAD_REACTORS
330
1A
102
}
100
AcDbPlotSettings
  1

  2
none_device
  4

  6

 40
0.0
 41
0.0
 42
0.0
 43
0.0
 44
210.0
 45
297.0
 46
0.0
 47
0.0
 48
0.0
 49
0.0
140
0.0
141
0.0
142
1.0
143
1.0
 70
1024
 72
1
 73
0
 74
0
  7

 75
0
147
1.0
148
0.0
149
0.0
100
AcDbLayout
  1
Model
 70
0
 71
0
 10
0.0
 20
0.0
 11
210.0
 21
297.0
 12
0.0
 22
0.0
 32
0.0
 14
0.0
 24
0.0
 34
0.0
 15
0.0
 25
0.0
 35
0.0
146
0.0
 13
0.0
 23
0.0
 33
0.0
 16
1.0
 26
0.0
 36
0.0
 17
0.0
 27
1.0
 37
0.0
 76
0
330
210
345
0
346
0
  0
LAYOUT
  5
27C
102
{ACAD_REACTORS
330
1A
102
}
100
AcDbPlotSettings
  1

  2
none_device
  4

  6

 40
0.0
 41
0.0
 42
0.0
 43
0.0
 44
210.0
 45
297.0
 46
0.0
 47
0.0
 48
0.0
 49
0.0
140
0.0
141
0.0
142
1.0
143
1.0
 70
0
 72
1
 73
0
 74
0
  7

 75
0
147
1.0
148
0.0
149
0.0
100
AcDbLayout
  1
Layout1
 70
0
 71
1
 10
0.0
 20
0.0
 11
210.0
 21
297.0
 12
0.0
 22
0.0
 32
0.0
 14
0.0
 24
0.0
 34
0.0
 15
0.0
 25
0.0
 35
0.0
146
0.0
 13
0.0
 23
0.0
 33
0.0
 16
1.0
 26
0.0
 36
0.0
 17
0.0
 27
1.0
 37
0.0
 76
0
330
211
345
0
346
0
  0
ENDSEC
  0
EOF
