999
DXF file: C:\Users\sesa63760\Dev\_Creo\CAD\MCADPD0003997_3D-CAD\drw0001_1.dxf
999
Pro/ENGINEER 2019471 by Parametric Technology Corporation
  0
SECTION
  2
HEADER
  9
$ACADVER
  1
AC1024
  9
$DWGCODEPAGE
  3
ANSI_1252
  9
$EXTMAX
 10
99.4015390923
 20
140.5821767163
 30
0.0
  9
$EXTMIN
 10
0.0
 20
0.0
 30
0.0
  9
$LIMMIN
 10
0.0
 20
0.0
  9
$LIMMAX
 10
99.4015390923
 20
140.5821767163
  9
$VIEWCTR
 10
49.7007695462
 20
70.2910883581
  9
$VIEWSIZE
 40
140.5821767163
  9
$CLAYER
  8
0
  9
$LTSCALE
 40
9.163875223
  9
$CELTYPE
  6
BYLAYER
  9
$DIMSCALE
 40
1.0
  9
$DIMASZ
 40
1.1833516559
  9
$DIMEXO
 40
1.0
  9
$DIMDLI
 40
6.3314046995
  9
$DIMEXE
 40
1.0
  9
$DIMCEN
 40
1.4995432183
  9
$DIMLFAC
 40
1.0
  9
$DIMBLK
  1
_FILLED
  9
$DIMALT
 70
0
  9
$DIMALTF
 40
0.0393700787
  9
$DIMTXT
 40
1.6566923182
  9
$DIMTOL
 70
1
  9
$DIMLIM
 70
0
  9
$DIMTFAC
 40
1.0
  9
$DIMTP
 40
0.01
  9
$DIMTM
 40
0.01
  9
$DIMGAP
 40
0.625
  9
$DIMDSEP
 70
46
  9
$AUNITS
 70
0
  9
$PDMODE
 70
3
  9
$PDSIZE
 40
0.3125
  9
$HANDSEED
  5
39C
  9
$TILEMODE
 70
1
  9
$MEASUREMENT
 70
1
  9
$INSUNITS
 70
4
  0
ENDSEC
  0
SECTION
  2
CLASSES
  0
CLASS
  1
ACDBDICTIONARYWDFLT
  2
AcDbDictionaryWithDefault
  3
AutoCAD 2000
 90
0
 91
1
280
0
281
0
  0
CLASS
  1
ACDBPLACEHOLDER
  2
AcDbPlaceHolder
  3
AutoCAD 2000
 90
0
 91
1
280
0
281
0
  0
CLASS
  1
LAYOUT
  2
AcDbLayout
  3
AutoCAD 2000
 90
0
 91
0
280
0
281
0
  0
ENDSEC
  0
SECTION
  2
TABLES
  0
TABLE
  2
VPORT
  5
8
100
AcDbSymbolTable
 70
2
  0
VPORT
  5
1F4
100
AcDbSymbolTableRecord
100
AcDbViewportTableRecord
  2
*ACTIVE
 70
0
 10
0.0
 20
0.0
 11
1.0
 21
1.0
 12
49.7007695462
 22
70.2910883581
 13
0.0
 23
0.0
 14
1.0
 24
1.0
 15
0.0
 25
0.0
 16
0.0
 26
0.0
 36
1.0
 17
0.0
 27
0.0
 37
0.0
 40
140.5821767163
 41
0.7070707071
 42
50.0
 43
0.0
 44
0.0
 50
0.0
 51
0.0
 71
0
 72
100
 73
1
 74
1
 75
0
 76
0
 77
0
 78
0
  0
ENDTAB
  0
TABLE
  2
LTYPE
  5
5
100
AcDbSymbolTable
 70
6
  0
LTYPE
  5
14
100
AcDbSymbolTableRecord
100
AcDbLinetypeTableRecord
  2
BYBLOCK
 70
0
  3

 72
65
 73
0
 40
0.0
  0
LTYPE
  5
15
100
AcDbSymbolTableRecord
100
AcDbLinetypeTableRecord
  2
BYLAYER
 70
0
  3

 72
65
 73
0
 40
0.0
  0
LTYPE
  5
16
100
AcDbSymbolTableRecord
100
AcDbLinetypeTableRecord
  2
CONTINUOUS
 70
64
  3
Solid line
 72
65
 73
0
 40
0.0
  0
LTYPE
  5
1F5
100
AcDbSymbolTableRecord
100
AcDbLinetypeTableRecord
  2
CENTER
 70
64
  3
____ _ ____ _ ____ _ ____ _ ____ _ ____ _ ____
 72
65
 73
4
 40
0.6
 49
0.375
 74
0
 49
-0.075
 74
0
 49
0.075
 74
0
 49
-0.075
 74
0
  0
LTYPE
  5
1F6
100
AcDbSymbolTableRecord
100
AcDbLinetypeTableRecord
  2
HIDDEN
 70
64
  3
- - - - - - - - - - - - - - - - - - - -
 72
65
 73
2
 40
0.2
 49
0.1
 74
0
 49
-0.1
 74
0
  0
LTYPE
  5
1F7
100
AcDbSymbolTableRecord
100
AcDbLinetypeTableRecord
  2
PHANTOM
 70
64
  3
_____ _ _ _____ _ _ _____ _ _ _____
 72
65
 73
6
 40
0.8
 49
0.45
 74
0
 49
-0.05
 74
0
 49
0.1
 74
0
 49
-0.05
 74
0
 49
0.1
 74
0
 49
-0.05
 74
0
  0
LTYPE
  5
1F8
100
AcDbSymbolTableRecord
100
AcDbLinetypeTableRecord
  2
DOT
 70
64
  3
. . . . . . . . . . . . . . . . . . . .
 72
65
 73
2
 40
0.2
 49
0.1
 74
0
 49
-0.1
 74
0
  0
LTYPE
  5
1F9
100
AcDbSymbolTableRecord
100
AcDbLinetypeTableRecord
  2
DASHED
 70
64
  3
- - - - - - - - - - - - - - - - - - - -
 72
65
 73
2
 40
0.2
 49
0.1
 74
0
 49
-0.1
 74
0
  0
ENDTAB
  0
TABLE
  2
LAYER
  5
2
100
AcDbSymbolTable
 70
36
  0
LAYER
  5
10
100
AcDbSymbolTableRecord
100
AcDbLayerTableRecord
  2
0
 70
0
 62
7
  6
CONTINUOUS
370
-3
390
F
  0
LAYER
  5
1FA
100
AcDbSymbolTableRecord
100
AcDbLayerTableRecord
  2
DEFAULT_1
 70
0
 62
7
  6
CENTER
370
-3
390
F
  0
LAYER
  5
1FB
100
AcDbSymbolTableRecord
100
AcDbLayerTableRecord
  2
DEFAULT_2
 70
0
 62
7
  6
HIDDEN
370
-3
390
F
  0
LAYER
  5
1FC
100
AcDbSymbolTableRecord
100
AcDbLayerTableRecord
  2
DEFAULT_3
 70
0
 62
7
  6
PHANTOM
370
-3
390
F
  0
LAYER
  5
1FD
100
AcDbSymbolTableRecord
100
AcDbLayerTableRecord
  2
00_COMPONENTS
 70
0
 62
7
  6
CONTINUOUS
370
-3
390
F
  0
LAYER
  5
1FE
100
AcDbSymbolTableRecord
100
AcDbLayerTableRecord
  2
00_COMPONENTS_1
 70
0
 62
7
  6
CONTINUOUS
370
-3
390
F
  0
LAYER
  5
1FF
100
AcDbSymbolTableRecord
100
AcDbLayerTableRecord
  2
01_1_DEFAULT_DATUMS
 70
0
 62
7
  6
CONTINUOUS
370
-3
390
F
  0
LAYER
  5
200
100
AcDbSymbolTableRecord
100
AcDbLayerTableRecord
  2
01_PLANES
 70
0
 62
7
  6
CONTINUOUS
370
-3
390
F
  0
LAYER
  5
201
100
AcDbSymbolTableRecord
100
AcDbLayerTableRecord
  2
02_COORD_SYS
 70
0
 62
7
  6
CONTINUOUS
370
-3
390
F
  0
LAYER
  5
202
100
AcDbSymbolTableRecord
100
AcDbLayerTableRecord
  2
03_AXES
 70
0
 62
7
  6
CONTINUOUS
370
-3
390
F
  0
LAYER
  5
203
100
AcDbSymbolTableRecord
100
AcDbLayerTableRecord
  2
03_AXES_1
 70
0
 62
7
  6
CONTINUOUS
370
-3
390
F
  0
LAYER
  5
204
100
AcDbSymbolTableRecord
100
AcDbLayerTableRecord
  2
04_POINTS
 70
0
 62
7
  6
CONTINUOUS
370
-3
390
F
  0
LAYER
  5
205
100
AcDbSymbolTableRecord
100
AcDbLayerTableRecord
  2
05_CURVES
 70
0
 62
7
  6
CONTINUOUS
370
-3
390
F
  0
LAYER
  5
206
100
AcDbSymbolTableRecord
100
AcDbLayerTableRecord
  2
06_SURFS
 70
0
 62
7
  6
CONTINUOUS
370
-3
390
F
  0
LAYER
  5
207
100
AcDbSymbolTableRecord
100
AcDbLayerTableRecord
  2
07_COSMETICS
 70
0
 62
7
  6
CONTINUOUS
370
-3
390
F
  0
LAYER
  5
208
100
AcDbSymbolTableRecord
100
AcDbLayerTableRecord
  2
10_NOTES
 70
0
 62
7
  6
CONTINUOUS
370
-3
390
F
  0
LAYER
  5
209
100
AcDbSymbolTableRecord
100
AcDbLayerTableRecord
  2
11_NOTES_PUB
 70
0
 62
7
  6
CONTINUOUS
370
-3
390
F
  0
LAYER
  5
20A
100
AcDbSymbolTableRecord
100
AcDbLayerTableRecord
  2
13_REF_GTOL
 70
0
 62
7
  6
CONTINUOUS
370
-3
390
F
  0
LAYER
  5
20B
100
AcDbSymbolTableRecord
100
AcDbLayerTableRecord
  2
16_MISC
 70
0
 62
7
  6
CONTINUOUS
370
-3
390
F
  0
LAYER
  5
20C
100
AcDbSymbolTableRecord
100
AcDbLayerTableRecord
  2
17_NO_PRINT
 70
0
 62
7
  6
CONTINUOUS
370
-3
390
F
  0
LAYER
  5
20D
100
AcDbSymbolTableRecord
100
AcDbLayerTableRecord
  2
18_DATUM_CAMS_JOINTS
 70
0
 62
7
  6
CONTINUOUS
370
-3
390
F
  0
LAYER
  5
20E
100
AcDbSymbolTableRecord
100
AcDbLayerTableRecord
  2
19_DATUM_FUNCTIONAL
 70
0
 62
7
  6
CONTINUOUS
370
-3
390
F
  0
LAYER
  5
20F
100
AcDbSymbolTableRecord
100
AcDbLayerTableRecord
  2
20_DATUM_KINEMATIC_SCHEME
 70
0
 62
7
  6
CONTINUOUS
370
-3
390
F
  0
LAYER
  5
210
100
AcDbSymbolTableRecord
100
AcDbLayerTableRecord
  2
INTFCLR_20
 70
0
 62
7
  6
CONTINUOUS
370
-3
390
F
  0
LAYER
  5
211
100
AcDbSymbolTableRecord
100
AcDbLayerTableRecord
  2
INTFCLR_97
 70
0
 62
7
  6
CONTINUOUS
370
-3
390
F
  0
LAYER
  5
212
100
AcDbSymbolTableRecord
100
AcDbLayerTableRecord
  2
INTF_BLANK
 70
0
 62
7
  6
CONTINUOUS
370
-3
390
F
  0
LAYER
  5
213
100
AcDbSymbolTableRecord
100
AcDbLayerTableRecord
  2
INTF_YELLOW
 70
0
 62
7
  6
CONTINUOUS
370
-3
390
F
  0
LAYER
  5
214
100
AcDbSymbolTableRecord
100
AcDbLayerTableRecord
  2
_BLACK_HOLE
 70
0
 62
7
  6
CONTINUOUS
370
-3
390
F
  0
ENDTAB
  0
TABLE
  2
STYLE
  5
3
100
AcDbSymbolTable
 70
1
  0
STYLE
  5
11
100
AcDbSymbolTableRecord
100
AcDbTextStyleTableRecord
  2
STANDARD
 70
0
 40
0.0
 41
1.0
 50
0.0
 71
0
 42
0.2
  3
ARIAL.TTF
  4

  0
STYLE
  5
215
100
AcDbSymbolTableRecord
100
AcDbTextStyleTableRecord
  2
TEXTSTYLE_1
 70
0
 40
0.0
 41
0.8
 50
0.0
 71
0
 42
0.2
  3
gdt
  4

  0
ENDTAB
  0
TABLE
  2
VIEW
  5
6
100
AcDbSymbolTable
 70
0
  0
ENDTAB
  0
TABLE
  2
UCS
  5
7
100
AcDbSymbolTable
 70
0
  0
ENDTAB
  0
TABLE
  2
APPID
  5
9
100
AcDbSymbolTable
 70
1
  0
APPID
  5
216
100
AcDbSymbolTableRecord
100
AcDbRegAppTableRecord
  2
ACAD
 70
0
  0
ENDTAB
  0
TABLE
  2
BLOCK_RECORD
  5
1
100
AcDbSymbolTable
 70
0
  0
BLOCK_RECORD
  5
217
100
AcDbSymbolTableRecord
100
AcDbBlockTableRecord
  2
*Model_Space
  0
BLOCK_RECORD
  5
218
100
AcDbSymbolTableRecord
100
AcDbBlockTableRecord
  2
*Paper_Space
  0
BLOCK_RECORD
  5
219
100
AcDbSymbolTableRecord
100
AcDbBlockTableRecord
  2
_FILLED
  0
ENDTAB
  0
TABLE
  2
DIMSTYLE
  5
A
100
AcDbSymbolTable
 70
1
100
AcDbDimStyleTable
 71
0
  0
DIMSTYLE
105
21A
100
AcDbSymbolTableRecord
100
AcDbDimStyleTableRecord
  2
STANDARD
 70
0
  3

  4

 40
1.0
 41
1.1833516559
 42
1.0
 43
0.38
 44
1.0
 45
0.0
 46
0.0
 47
0.01
 48
0.01
140
1.6566923182
141
0.09
142
0.0
143
25.4
144
1.0
145
0.0
146
1.0
147
0.625
 71
1
 72
0
 73
0
 74
0
 75
0
 76
0
 77
1
 78
8
 79
2
170
0
171
1
172
0
173
0
174
0
175
0
176
0
177
0
178
0
270
2
179
2
271
2
272
2
273
2
274
2
275
0
280
0
281
0
282
0
283
1
284
8
285
0
286
0
287
3
288
0
340
11
278
46
341
219
342
219
343
219
344
219
  0
ENDTAB
  0
ENDSEC
  0
SECTION
  2
BLOCKS
  0
BLOCK
  5
20
100
AcDbEntity
  8
0
100
AcDbBlockBegin
  2
*Model_Space
 70
0
 10
0.0
 20
0.0
 30
0.0
  3
*Model_Space
  1

  0
ENDBLK
  5
21
100
AcDbEntity
  8
0
100
AcDbBlockEnd
  0
BLOCK
  5
1C
100
AcDbEntity
  8
0
100
AcDbBlockBegin
  2
*Paper_Space
 70
0
 10
0.0
 20
0.0
 30
0.0
  3
*Paper_Space
  1

  0
ENDBLK
  5
1D
100
AcDbEntity
  8
0
100
AcDbBlockEnd
  0
BLOCK
  5
21B
100
AcDbEntity
  8
0
100
AcDbBlockBegin
  2
_FILLED
 70
64
 10
0.0
 20
0.0
  3
_FILLED
  1

  0
SOLID
  5
21C
100
AcDbEntity
  8
0
  6
BYBLOCK
 62
0
100
AcDbTrace
 10
0.0
 20
0.0
 11
-1.0
 21
0.25
 12
-1.0
 22
-0.25
 13
-1.0
 23
-0.25
  0
ENDBLK
  5
21D
100
AcDbEntity
  8
0
  6
BYBLOCK
 62
0
100
AcDbBlockEnd
  0
ENDSEC
  0
SECTION
  2
ENTITIES
  0
LINE
  5
21E
100
AcDbEntity
  8
00_COMPONENTS_1
100
AcDbLine
 62
7
  6
BYLAYER
 10
22.9457107274
 20
102.1632193957
 11
56.7647648038
 21
121.6885428199
  0
LINE
  5
21F
100
AcDbEntity
  8
00_COMPONENTS_1
100
AcDbLine
 62
7
  6
BYLAYER
 10
27.9839711467
 20
31.8076300065
 11
40.6765907131
 21
24.4797084629
  0
LINE
  5
220
100
AcDbEntity
  8
00_COMPONENTS_1
100
AcDbLine
 62
7
  6
BYLAYER
 10
41.4579333009
 20
24.9308141235
 11
42.9570107448
 21
24.0653409373
  0
LINE
  5
221
100
AcDbEntity
  8
00_COMPONENTS_1
100
AcDbLine
 62
7
  6
BYLAYER
 10
44.7459840418
 20
24.9348999141
 11
44.6045608748
 21
25.0165487705
  0
LINE
  5
222
100
AcDbEntity
  8
00_COMPONENTS_1
100
AcDbLine
 62
7
  6
BYLAYER
 10
11.5317221766
 20
54.3386244355
 11
11.5317221766
 21
76.384189698
  0
LINE
  5
223
100
AcDbEntity
  8
00_COMPONENTS_1
100
AcDbLine
 62
7
  6
BYLAYER
 10
11.5613395371
 20
42.1095819472
 11
11.5613395371
 21
54.1938177207
  0
LINE
  5
224
100
AcDbEntity
  8
00_COMPONENTS_1
100
AcDbLine
 62
7
  6
BYLAYER
 10
11.5613395371
 20
76.5659839501
 11
11.5613395371
 21
78.6888902346
  0
LINE
  5
225
100
AcDbEntity
  8
00_COMPONENTS_1
100
AcDbLine
 62
7
  6
BYLAYER
 10
12.2702960187
 20
75.9933765109
 11
12.2702960187
 21
76.0430135907
  0
LINE
  5
226
100
AcDbEntity
  8
00_COMPONENTS_1
100
AcDbLine
 62
7
  6
BYLAYER
 10
13.2796012727
 20
79.8442222611
 11
13.2796012727
 21
79.6809231886
  0
LINE
  5
227
100
AcDbEntity
  8
00_COMPONENTS_1
100
AcDbLine
 62
7
  6
BYLAYER
 10
13.3893224006
 20
56.6189055584
 11
13.3893224006
 21
57.598708459
  0
LINE
  5
228
100
AcDbEntity
  8
00_COMPONENTS_1
100
AcDbLine
 62
7
  6
BYLAYER
 10
34.4472502631
 20
105.8234143816
 11
38.2545302941
 21
108.0215354113
  0
LINE
  5
229
100
AcDbEntity
  8
00_COMPONENTS_1
100
AcDbLine
 62
7
  6
BYLAYER
 10
57.3392702204
 20
118.0194389888
 11
60.229602457
 21
119.6881631228
  0
LINE
  5
22A
100
AcDbEntity
  8
00_COMPONENTS_1
100
AcDbLine
 62
7
  6
BYLAYER
 10
27.729221678
 20
38.2742169087
 11
28.0510219822
 21
38.1005473197
  0
LINE
  5
22B
100
AcDbEntity
  8
00_COMPONENTS_1
100
AcDbLine
 62
7
  6
BYLAYER
 10
27.729221678
 20
38.2742169087
 11
28.0452104085
 21
38.0970823968
  0
LINE
  5
22C
100
AcDbEntity
  8
00_COMPONENTS_1
100
AcDbLine
 62
7
  6
BYLAYER
 10
27.9839711467
 20
37.9763057679
 11
40.6765907131
 21
30.6483842243
  0
LINE
  5
22D
100
AcDbEntity
  8
00_COMPONENTS_1
100
AcDbLine
 62
7
  6
BYLAYER
 10
14.2198351445
 20
58.9326707614
 11
14.2198351445
 21
58.4966999516
  0
LINE
  5
22E
100
AcDbEntity
  8
00_COMPONENTS_1
100
AcDbLine
 62
7
  6
BYLAYER
 10
14.6089901068
 20
57.9048890249
 11
14.6089901068
 21
57.2946044371
  0
LINE
  5
22F
100
AcDbEntity
  8
00_COMPONENTS_1
100
AcDbLine
 62
7
  6
BYLAYER
 10
15.6263775493
 20
57.5124715319
 11
15.6263775493
 21
57.9333770701
  0
LINE
  5
230
100
AcDbEntity
  8
00_COMPONENTS_1
100
AcDbLine
 62
7
  6
BYLAYER
 10
16.3767644196
 20
56.8842871386
 11
16.3767644196
 21
55.904484238
  0
LINE
  5
231
100
AcDbEntity
  8
00_COMPONENTS_1
100
AcDbLine
 62
7
  6
BYLAYER
 10
16.9775278645
 20
55.6074093864
 11
16.9775278645
 21
57.0033923215
  0
LINE
  5
232
100
AcDbEntity
  8
00_COMPONENTS_1
100
AcDbLine
 62
7
  6
BYLAYER
 10
63.7651510828
 20
117.6469593502
 11
62.6425784392
 21
116.9988456009
  0
LINE
  5
233
100
AcDbEntity
  8
00_COMPONENTS_1
100
AcDbLine
 62
7
  6
BYLAYER
 10
61.8011357655
 20
115.8190403944
 11
65.0167002925
 21
117.6755363578
  0
LINE
  5
234
100
AcDbEntity
  8
00_COMPONENTS_1
100
AcDbLine
 62
7
  6
BYLAYER
 10
46.1741474398
 20
105.8987111946
 11
53.3158961957
 21
110.0219771487
  0
LINE
  5
235
100
AcDbEntity
  8
00_COMPONENTS_1
100
AcDbLine
 62
7
  6
BYLAYER
 10
39.1031149556
 20
100.9997847475
 11
42.6386341417
 21
103.0410055169
  0
LINE
  5
236
100
AcDbEntity
  8
00_COMPONENTS_1
100
AcDbLine
 62
7
  6
BYLAYER
 10
40.3777317653
 20
37.5570422848
 11
32.5271428877
 21
42.0894793492
  0
LINE
  5
237
100
AcDbEntity
  8
00_COMPONENTS_1
100
AcDbLine
 62
7
  6
BYLAYER
 10
28.3038628764
 20
44.5277360398
 11
21.2133872853
 21
48.6213314215
  0
LINE
  5
238
100
AcDbEntity
  8
00_COMPONENTS_1
100
AcDbLine
 62
7
  6
BYLAYER
 10
24.3879768753
 20
47.6452097614
 11
32.1661838519
 21
43.1545614616
  0
LINE
  5
239
100
AcDbEntity
  8
00_COMPONENTS_1
100
AcDbLine
 62
7
  6
BYLAYER
 10
24.3288257884
 20
48.6894094804
 11
32.107032765
 21
44.1987611806
  0
LINE
  5
23A
100
AcDbEntity
  8
00_COMPONENTS_1
100
AcDbLine
 62
7
  6
BYLAYER
 10
11.5317221766
 20
54.3386244355
 11
11.6548474148
 21
54.2478041968
  0
LINE
  5
23B
100
AcDbEntity
  8
00_COMPONENTS_1
100
AcDbLine
 62
7
  6
BYLAYER
 10
11.5317221766
 20
54.3386244355
 11
11.6527881871
 21
54.2468971246
  0
LINE
  5
23C
100
AcDbEntity
  8
00_COMPONENTS_1
100
AcDbLine
 62
7
  6
BYLAYER
 10
20.0596836318
 20
70.4338960617
 11
20.0596836318
 21
68.0196927445
  0
LINE
  5
23D
100
AcDbEntity
  8
00_COMPONENTS_1
100
AcDbLine
 62
7
  6
BYLAYER
 10
20.0596836318
 20
51.8679985292
 11
20.0596836318
 21
48.3883307992
  0
LINE
  5
23E
100
AcDbEntity
  8
00_COMPONENTS_1
100
AcDbLine
 62
7
  6
BYLAYER
 10
20.3083168562
 20
72.5938643987
 11
20.3083168562
 21
70.4709581141
  0
LINE
  5
23F
100
AcDbEntity
  8
00_COMPONENTS_1
100
AcDbLine
 62
7
  6
BYLAYER
 10
21.2133872853
 20
51.2019224829
 11
21.2133872853
 21
48.6213314215
  0
LINE
  5
240
100
AcDbEntity
  8
00_COMPONENTS_1
100
AcDbLine
 62
7
  6
BYLAYER
 10
21.2133872853
 20
69.2758503172
 11
21.2133872853
 21
73.1164039354
  0
LINE
  5
241
100
AcDbEntity
  8
00_COMPONENTS_1
100
AcDbLine
 62
7
  6
BYLAYER
 10
22.9457107274
 20
31.1275091054
 11
22.9457107274
 21
34.3878459935
  0
LINE
  5
242
100
AcDbEntity
  8
00_COMPONENTS_1
100
AcDbLine
 62
7
  6
BYLAYER
 10
22.9457107274
 20
85.4249198445
 11
22.9457107274
 21
102.1632193957
  0
LINE
  5
243
100
AcDbEntity
  8
00_COMPONENTS_1
100
AcDbLine
 62
7
  6
BYLAYER
 10
42.2143771385
 20
102.061222607
 11
39.7395137083
 21
100.6323680685
  0
LINE
  5
244
100
AcDbEntity
  8
00_COMPONENTS_1
100
AcDbLine
 62
7
  6
BYLAYER
 10
43.2750328943
 20
102.6735888378
 11
47.5176559176
 21
105.123053761
  0
LINE
  5
245
100
AcDbEntity
  8
00_COMPONENTS_1
100
AcDbLine
 62
7
  6
BYLAYER
 10
50.3814267527
 20
106.7356183388
 11
48.8257983109
 21
105.8374812003
  0
LINE
  5
246
100
AcDbEntity
  8
00_COMPONENTS_1
100
AcDbLine
 62
7
  6
BYLAYER
 10
42.2143771385
 20
101.2447201899
 11
39.7395137083
 21
99.8158656513
  0
LINE
  5
247
100
AcDbEntity
  8
00_COMPONENTS_1
100
AcDbLine
 62
7
  6
BYLAYER
 10
50.3814267527
 20
105.9191159217
 11
49.5329202553
 21
105.4292333911
  0
LINE
  5
248
100
AcDbEntity
  8
00_COMPONENTS_1
100
AcDbLine
 62
7
  6
BYLAYER
 10
49.8157519261
 20
105.265944144
 11
51.3713803679
 21
106.1640812825
  0
LINE
  5
249
100
AcDbEntity
  8
00_COMPONENTS_1
100
AcDbLine
 62
7
  6
BYLAYER
 10
48.5783205053
 20
104.5106926293
 11
44.3356974821
 21
102.061227706
  0
LINE
  5
24A
100
AcDbEntity
  8
00_COMPONENTS_1
100
AcDbLine
 62
7
  6
BYLAYER
 10
40.800178296
 20
100.0200069367
 11
43.2750417262
 21
101.4488614752
  0
LINE
  5
24B
100
AcDbEntity
  8
00_COMPONENTS_1
100
AcDbLine
 62
7
  6
BYLAYER
 10
44.9720962347
 20
101.693811027
 11
41.4365770486
 21
99.6525902576
  0
LINE
  5
24C
100
AcDbEntity
  8
00_COMPONENTS_1
100
AcDbLine
 62
7
  6
BYLAYER
 10
48.5783205053
 20
103.6941902121
 11
44.9720962347
 21
101.6121480868
  0
LINE
  5
24D
100
AcDbEntity
  8
00_COMPONENTS_1
100
AcDbLine
 62
7
  6
BYLAYER
 10
57.063577739
 20
107.8583011498
 11
53.8109000878
 21
105.980378042
  0
LINE
  5
24E
100
AcDbEntity
  8
00_COMPONENTS_1
100
AcDbLine
 62
7
  6
BYLAYER
 10
52.750244332
 20
105.3680118112
 11
49.9218289831
 21
103.7350351957
  0
LINE
  5
24F
100
AcDbEntity
  8
00_COMPONENTS_1
100
AcDbLine
 62
7
  6
BYLAYER
 10
43.9932315526
 20
100.3121641956
 11
41.4365770486
 21
98.8360878405
  0
LINE
  5
250
100
AcDbEntity
  8
00_COMPONENTS_1
100
AcDbLine
 62
7
  6
BYLAYER
 10
44.9720962347
 20
100.8773086098
 11
47.8005115836
 21
102.5102852253
  0
LINE
  5
251
100
AcDbEntity
  8
00_COMPONENTS_1
100
AcDbLine
 62
7
  6
BYLAYER
 10
57.063577739
 20
107.0417987326
 11
54.5180220322
 21
105.5721302328
  0
LINE
  5
252
100
AcDbEntity
  8
00_COMPONENTS_1
100
AcDbLine
 62
7
  6
BYLAYER
 10
52.750244332
 20
104.551509394
 11
49.9218289831
 21
102.9185327785
  0
LINE
  5
253
100
AcDbEntity
  8
00_COMPONENTS_1
100
AcDbLine
 62
7
  6
BYLAYER
 10
32.3785212608
 20
43.1090095411
 11
32.16622585
 21
43.1546340161
  0
LINE
  5
254
100
AcDbEntity
  8
00_COMPONENTS_1
100
AcDbLine
 62
7
  6
BYLAYER
 10
18.7778323933
 20
52.6080589444
 11
24.5798922462
 21
49.2583139078
  0
LINE
  5
255
100
AcDbEntity
  8
00_COMPONENTS_1
100
AcDbLine
 62
7
  6
BYLAYER
 10
18.589693677
 20
53.2741071124
 11
24.7759429241
 21
49.7025552436
  0
LINE
  5
256
100
AcDbEntity
  8
00_COMPONENTS_1
100
AcDbLine
 62
7
  6
BYLAYER
 10
37.2216867056
 20
45.3342928002
 11
37.3455676032
 21
45.2627717486
  0
LINE
  5
257
100
AcDbEntity
  8
00_COMPONENTS_1
100
AcDbLine
 62
7
  6
BYLAYER
 10
37.5493700213
 20
45.2684406767
 11
37.4146427016
 21
45.3462237713
  0
LINE
  5
258
100
AcDbEntity
  8
00_COMPONENTS_1
100
AcDbLine
 62
7
  6
BYLAYER
 10
39.4454588627
 20
45.4397608473
 11
39.4527725227
 21
45.4355383992
  0
LINE
  5
259
100
AcDbEntity
  8
00_COMPONENTS_1
100
AcDbLine
 62
7
  6
BYLAYER
 10
27.729221678
 20
38.2742169087
 11
27.729221678
 21
31.5625670399
  0
LINE
  5
25A
100
AcDbEntity
  8
00_COMPONENTS_1
100
AcDbLine
 62
7
  6
BYLAYER
 10
13.2796012727
 20
79.8442222611
 11
22.9457107274
 21
85.4249198445
  0
LINE
  5
25B
100
AcDbEntity
  8
00_COMPONENTS_1
100
AcDbLine
 62
7
  6
BYLAYER
 10
11.5613395371
 20
78.6888902346
 11
13.3503122452
 21
79.7217479439
  0
LINE
  5
25C
100
AcDbEntity
  8
00_COMPONENTS_1
100
AcDbLine
 62
7
  6
BYLAYER
 10
55.7201287293
 20
100.3874610086
 11
58.5485440782
 21
102.0204376241
  0
LINE
  5
25D
100
AcDbEntity
  8
00_COMPONENTS_1
100
AcDbLine
 62
7
  6
BYLAYER
 10
59.609199834
 20
102.6328038549
 11
62.8618774852
 21
104.5107269627
  0
LINE
  5
25E
100
AcDbEntity
  8
00_COMPONENTS_1
100
AcDbLine
 62
7
  6
BYLAYER
 10
48.6490962451
 20
95.4885345615
 11
52.1846154312
 21
97.5297553309
  0
LINE
  5
25F
100
AcDbEntity
  8
00_COMPONENTS_1
100
AcDbLine
 62
7
  6
BYLAYER
 10
11.6866282369
 20
76.473563219
 11
11.5317221766
 21
76.384189698
  0
LINE
  5
260
100
AcDbEntity
  8
00_COMPONENTS_1
100
AcDbLine
 62
7
  6
BYLAYER
 10
33.730494615
 20
43.1980900944
 11
32.3785212608
 21
43.1090095411
  0
LINE
  5
261
100
AcDbEntity
  8
00_COMPONENTS_1
100
AcDbLine
 62
7
  6
BYLAYER
 10
39.4921736804
 20
45.4331988452
 11
39.2871135676
 21
45.4620035148
  0
LINE
  5
262
100
AcDbEntity
  8
00_COMPONENTS_1
100
AcDbLine
 62
7
  6
BYLAYER
 10
23.4294720141
 20
58.7829286498
 11
23.2699438449
 21
58.8678615161
  0
LINE
  5
263
100
AcDbEntity
  8
00_COMPONENTS_1
100
AcDbLine
 62
7
  6
BYLAYER
 10
36.9773829854
 20
52.1244461994
 11
37.9673366007
 21
51.552909143
  0
LINE
  5
264
100
AcDbEntity
  8
00_COMPONENTS_1
100
AcDbLine
 62
7
  6
BYLAYER
 10
37.0392324259
 20
52.2416204047
 11
37.0082365605
 21
52.2644753383
  0
LINE
  5
265
100
AcDbEntity
  8
00_COMPONENTS_1
100
AcDbLine
 62
7
  6
BYLAYER
 10
37.9673401019
 20
51.5529152072
 11
37.0392324259
 21
52.2416204047
  0
LINE
  5
266
100
AcDbEntity
  8
00_COMPONENTS_1
100
AcDbLine
 62
7
  6
BYLAYER
 10
27.9839711467
 20
37.9763057679
 11
27.9839711467
 21
31.8076300065
  0
LINE
  5
267
100
AcDbEntity
  8
00_COMPONENTS_1
100
AcDbLine
 62
7
  6
BYLAYER
 10
28.3038628764
 20
43.3253794375
 11
28.3038628764
 21
45.3844230703
  0
LINE
  5
268
100
AcDbEntity
  8
00_COMPONENTS_1
100
AcDbLine
 62
7
  6
BYLAYER
 10
28.3038628764
 20
58.4922368902
 11
28.3038628764
 21
67.8204519514
  0
LINE
  5
269
100
AcDbEntity
  8
00_COMPONENTS_1
100
AcDbLine
 62
7
  6
BYLAYER
 10
31.5875995948
 20
66.042109528
 11
31.5875995948
 21
64.8990096717
  0
LINE
  5
26A
100
AcDbEntity
  8
00_COMPONENTS_1
100
AcDbLine
 62
7
  6
BYLAYER
 10
31.5875995948
 20
43.4885996813
 11
31.5875995948
 21
41.5470370141
  0
LINE
  5
26B
100
AcDbEntity
  8
00_COMPONENTS_1
100
AcDbLine
 62
7
  6
BYLAYER
 10
32.5271428877
 20
42.0894793492
 11
32.5271428877
 21
43.1188021134
  0
LINE
  5
26C
100
AcDbEntity
  8
00_COMPONENTS_1
100
AcDbLine
 62
7
  6
BYLAYER
 10
32.5271428877
 20
65.4414520068
 11
32.5271428877
 21
66.5845518631
  0
LINE
  5
26D
100
AcDbEntity
  8
00_COMPONENTS_1
100
AcDbLine
 62
7
  6
BYLAYER
 10
21.3901647166
 20
69.4683263558
 11
19.6347928238
 21
67.5570697785
  0
LINE
  5
26E
100
AcDbEntity
  8
00_COMPONENTS_1
100
AcDbLine
 62
7
  6
BYLAYER
 10
51.760358428
 20
96.549972421
 11
49.2854949978
 21
95.1211178824
  0
LINE
  5
26F
100
AcDbEntity
  8
00_COMPONENTS_1
100
AcDbLine
 62
7
  6
BYLAYER
 10
52.8210141838
 20
97.1623386518
 11
57.0636372071
 21
99.611803575
  0
LINE
  5
270
100
AcDbEntity
  8
00_COMPONENTS_1
100
AcDbLine
 62
7
  6
BYLAYER
 10
59.9274080422
 20
101.2243681528
 11
58.3717796004
 21
100.3262310143
  0
LINE
  5
271
100
AcDbEntity
  8
00_COMPONENTS_1
100
AcDbLine
 62
7
  6
BYLAYER
 10
51.760358428
 20
95.7334700039
 11
49.2854949978
 21
94.3046154653
  0
LINE
  5
272
100
AcDbEntity
  8
00_COMPONENTS_1
100
AcDbLine
 62
7
  6
BYLAYER
 10
59.9274080422
 20
100.4078657356
 11
59.0789015447
 21
99.9179832051
  0
LINE
  5
273
100
AcDbEntity
  8
00_COMPONENTS_1
100
AcDbLine
 62
7
  6
BYLAYER
 10
59.3617332156
 20
99.7546939579
 11
60.9173616574
 21
100.6528310964
  0
LINE
  5
274
100
AcDbEntity
  8
00_COMPONENTS_1
100
AcDbLine
 62
7
  6
BYLAYER
 10
58.0818755646
 20
98.974947794
 11
53.8816787715
 21
96.54997752
  0
LINE
  5
275
100
AcDbEntity
  8
00_COMPONENTS_1
100
AcDbLine
 62
7
  6
BYLAYER
 10
50.3461595855
 20
94.5087567507
 11
52.8210230157
 21
95.9376112892
  0
LINE
  5
276
100
AcDbEntity
  8
00_COMPONENTS_1
100
AcDbLine
 62
7
  6
BYLAYER
 10
54.5180775242
 20
96.1825608409
 11
50.9825583381
 21
94.1413400716
  0
LINE
  5
277
100
AcDbEntity
  8
00_COMPONENTS_1
100
AcDbLine
 62
7
  6
BYLAYER
 10
58.0818755646
 20
98.1584453769
 11
54.5180775242
 21
96.1008979008
  0
LINE
  5
278
100
AcDbEntity
  8
00_COMPONENTS_1
100
AcDbLine
 62
7
  6
BYLAYER
 10
66.6095590285
 20
102.3470509637
 11
59.4253840424
 21
98.1992903604
  0
LINE
  5
279
100
AcDbEntity
  8
00_COMPONENTS_1
100
AcDbLine
 62
7
  6
BYLAYER
 10
53.5392128421
 20
94.8009140096
 11
50.9825583381
 21
93.3248376545
  0
LINE
  5
27A
100
AcDbEntity
  8
00_COMPONENTS_1
100
AcDbLine
 62
7
  6
BYLAYER
 10
54.5180775242
 20
95.3660584238
 11
57.346492873
 21
96.9990350393
  0
LINE
  5
27B
100
AcDbEntity
  8
00_COMPONENTS_1
100
AcDbLine
 62
7
  6
BYLAYER
 10
66.6095590285
 20
101.5305485466
 11
59.4253840424
 21
97.3827879433
  0
LINE
  5
27C
100
AcDbEntity
  8
00_COMPONENTS_1
100
AcDbLine
 62
7
  6
BYLAYER
 10
79.8660045206
 20
109.1024805129
 11
76.6504399936
 21
107.2459845495
  0
LINE
  5
27D
100
AcDbEntity
  8
00_COMPONENTS_1
100
AcDbLine
 62
7
  6
BYLAYER
 10
79.8660045206
 20
108.2859780958
 11
76.6504399936
 21
106.4294821324
  0
LINE
  5
27E
100
AcDbEntity
  8
00_COMPONENTS_1
100
AcDbLine
 62
7
  6
BYLAYER
 10
37.0060888993
 20
52.2607553958
 11
37.0392324259
 21
52.2416204047
  0
LINE
  5
27F
100
AcDbEntity
  8
00_COMPONENTS_1
100
AcDbLine
 62
7
  6
BYLAYER
 10
31.8397062775
 20
56.5508218702
 11
32.6229412455
 21
56.0986311805
  0
LINE
  5
280
100
AcDbEntity
  8
00_COMPONENTS_1
100
AcDbLine
 62
7
  6
BYLAYER
 10
31.9834845097
 20
56.5602953147
 11
32.6483022789
 21
56.1764712799
  0
LINE
  5
281
100
AcDbEntity
  8
00_COMPONENTS_1
100
AcDbLine
 62
7
  6
BYLAYER
 10
27.2874246754
 20
62.7508439727
 11
19.5092176988
 21
67.2414922724
  0
LINE
  5
282
100
AcDbEntity
  8
00_COMPONENTS_1
100
AcDbLine
 62
7
  6
BYLAYER
 10
19.6347928238
 20
67.5570697785
 11
27.4129998004
 21
63.0664214788
  0
LINE
  5
283
100
AcDbEntity
  8
00_COMPONENTS_1
100
AcDbLine
 62
7
  6
BYLAYER
 10
12.1967398024
 20
75.8936561537
 11
12.118729801
 21
75.9511982714
  0
LINE
  5
284
100
AcDbEntity
  8
00_COMPONENTS_1
100
AcDbLine
 62
7
  6
BYLAYER
 10
11.5613395371
 20
76.5659839501
 11
11.6866282369
 21
76.473563219
  0
LINE
  5
285
100
AcDbEntity
  8
00_COMPONENTS_1
100
AcDbLine
 62
7
  6
BYLAYER
 10
12.2159972538
 20
76.0830677341
 11
12.2940084189
 21
76.0255218506
  0
LINE
  5
286
100
AcDbEntity
  8
00_COMPONENTS_1
100
AcDbLine
 62
7
  6
BYLAYER
 10
12.2070128531
 20
76.0790699244
 11
12.2843218593
 21
76.0212047274
  0
LINE
  5
287
100
AcDbEntity
  8
00_COMPONENTS_1
100
AcDbLine
 62
7
  6
BYLAYER
 10
12.1879489573
 20
75.8897407121
 11
12.1106749243
 21
75.9476163417
  0
LINE
  5
288
100
AcDbEntity
  8
00_COMPONENTS_1
100
AcDbLine
 62
7
  6
BYLAYER
 10
11.5613395371
 20
76.5659839501
 11
11.6844793431
 21
76.4726173186
  0
LINE
  5
289
100
AcDbEntity
  8
00_COMPONENTS_1
100
AcDbLine
 62
7
  6
BYLAYER
 10
33.110066858
 20
60.1477103313
 11
31.9834845097
 21
56.5602953147
  0
LINE
  5
28A
100
AcDbEntity
  8
00_COMPONENTS_1
100
AcDbLine
 62
7
  6
BYLAYER
 10
24.3955459652
 20
61.1880424012
 11
24.1599135484
 21
60.8651951303
  0
LINE
  5
28B
100
AcDbEntity
  8
00_COMPONENTS_1
100
AcDbLine
 62
7
  6
BYLAYER
 10
21.2133872853
 20
73.1164039354
 11
20.3083168562
 21
72.5938643987
  0
LINE
  5
28C
100
AcDbEntity
  8
00_COMPONENTS_1
100
AcDbLine
 62
7
  6
BYLAYER
 10
80.1081886503
 20
106.9152989643
 11
81.2307612939
 21
107.5634127135
  0
LINE
  5
28D
100
AcDbEntity
  8
00_COMPONENTS_1
100
AcDbLine
 62
7
  6
BYLAYER
 10
20.3083168562
 20
70.4709581141
 11
21.2133872853
 21
70.9934976509
  0
LINE
  5
28E
100
AcDbEntity
  8
00_COMPONENTS_1
100
AcDbLine
 62
7
  6
BYLAYER
 10
20.0596836318
 20
70.4338960617
 11
20.2222131816
 21
70.527667978
  0
LINE
  5
28F
100
AcDbEntity
  8
00_COMPONENTS_1
100
AcDbLine
 62
7
  6
BYLAYER
 10
33.7557282777
 20
59.7749459699
 11
32.9724933097
 21
60.2271366596
  0
LINE
  5
290
100
AcDbEntity
  8
00_COMPONENTS_1
100
AcDbLine
 62
7
  6
BYLAYER
 10
29.9315709678
 20
63.9429068053
 11
37.7097779444
 21
59.4522585056
  0
LINE
  5
291
100
AcDbEntity
  8
00_COMPONENTS_1
100
AcDbLine
 62
7
  6
BYLAYER
 10
21.3901647166
 20
69.4683263558
 11
28.3038628764
 21
65.4767911628
  0
LINE
  5
292
100
AcDbEntity
  8
00_COMPONENTS_1
100
AcDbLine
 62
7
  6
BYLAYER
 10
12.2702960187
 20
75.9933765109
 11
12.5798989976
 21
75.814631193
  0
LINE
  5
293
100
AcDbEntity
  8
00_COMPONENTS_1
100
AcDbLine
 62
7
  6
BYLAYER
 10
38.2545302941
 20
103.0746607643
 11
38.2545302941
 21
108.0215354113
  0
LINE
  5
294
100
AcDbEntity
  8
00_COMPONENTS_1
100
AcDbLine
 62
7
  6
BYLAYER
 10
39.1031149556
 20
100.9997847475
 11
39.1031149556
 21
100.1832823304
  0
LINE
  5
295
100
AcDbEntity
  8
00_COMPONENTS_1
100
AcDbLine
 62
7
  6
BYLAYER
 10
39.2906491162
 20
43.7251015375
 11
39.2906491162
 21
44.8019136217
  0
LINE
  5
296
100
AcDbEntity
  8
00_COMPONENTS_1
100
AcDbLine
 62
7
  6
BYLAYER
 10
39.4921736804
 20
45.4331988452
 11
39.4921736804
 21
51.0011571018
  0
LINE
  5
297
100
AcDbEntity
  8
00_COMPONENTS_1
100
AcDbLine
 62
7
  6
BYLAYER
 10
39.7395137083
 20
100.6323680685
 11
39.7395137083
 21
99.8158656513
  0
LINE
  5
298
100
AcDbEntity
  8
00_COMPONENTS_1
100
AcDbLine
 62
7
  6
BYLAYER
 10
40.3777317653
 20
37.2323763562
 11
40.3777317653
 21
61.7274488701
  0
LINE
  5
299
100
AcDbEntity
  8
00_COMPONENTS_1
100
AcDbLine
 62
7
  6
BYLAYER
 10
40.6765907131
 20
30.6483842243
 11
40.6765907131
 21
24.4797084629
  0
LINE
  5
29A
100
AcDbEntity
  8
00_COMPONENTS_1
100
AcDbLine
 62
7
  6
BYLAYER
 10
40.800178296
 20
100.0200069367
 11
40.800178296
 21
99.2035045195
  0
LINE
  5
29B
100
AcDbEntity
  8
00_COMPONENTS_1
100
AcDbLine
 62
7
  6
BYLAYER
 10
41.4365770486
 20
99.6525902576
 11
41.4365770486
 21
98.8360878405
  0
LINE
  5
29C
100
AcDbEntity
  8
00_COMPONENTS_1
100
AcDbLine
 62
7
  6
BYLAYER
 10
41.7372464689
 20
31.2607504551
 11
41.7372464689
 21
25.0920746937
  0
LINE
  5
29D
100
AcDbEntity
  8
00_COMPONENTS_1
100
AcDbLine
 62
7
  6
BYLAYER
 10
27.4129998004
 20
63.0664214787
 11
28.3038628764
 21
64.0363970836
  0
LINE
  5
29E
100
AcDbEntity
  8
00_COMPONENTS_1
100
AcDbLine
 62
7
  6
BYLAYER
 10
84.7663099196
 20
105.5222089409
 11
81.875977683
 21
103.853484807
  0
LINE
  5
29F
100
AcDbEntity
  8
00_COMPONENTS_1
100
AcDbLine
 62
7
  6
BYLAYER
 10
64.5590120695
 20
92.8349793432
 11
60.7517320386
 21
90.6368583135
  0
LINE
  5
2A0
100
AcDbEntity
  8
00_COMPONENTS_1
100
AcDbLine
 62
7
  6
BYLAYER
 10
88.2311475729
 20
103.5218292438
 11
54.4120934965
 21
83.9965058195
  0
LINE
  5
2A1
100
AcDbEntity
  8
00_COMPONENTS_1
100
AcDbLine
 62
7
  6
BYLAYER
 10
29.3451491245
 20
68.4216352584
 11
28.3038628764
 21
67.8204519514
  0
LINE
  5
2A2
100
AcDbEntity
  8
00_COMPONENTS_1
100
AcDbLine
 62
7
  6
BYLAYER
 10
31.9834845097
 20
56.5602953147
 11
31.8397062775
 21
56.5508218702
  0
LINE
  5
2A3
100
AcDbEntity
  8
00_COMPONENTS_1
100
AcDbLine
 62
7
  6
BYLAYER
 10
40.3777317653
 20
61.0062268873
 11
32.611332105
 21
65.490058384
  0
LINE
  5
2A4
100
AcDbEntity
  8
00_COMPONENTS_1
100
AcDbLine
 62
7
  6
BYLAYER
 10
40.6589047269
 20
61.8897831861
 11
32.5271428877
 21
66.5845518631
  0
LINE
  5
2A5
100
AcDbEntity
  8
00_COMPONENTS_1
100
AcDbLine
 62
7
  6
BYLAYER
 10
29.3451491245
 20
68.4216352584
 11
21.2133872853
 21
73.1164039354
  0
LINE
  5
2A6
100
AcDbEntity
  8
00_COMPONENTS_1
100
AcDbLine
 62
7
  6
BYLAYER
 10
44.6752730692
 20
61.6366825187
 11
13.3503122452
 21
79.7217479439
  0
LINE
  5
2A7
100
AcDbEntity
  8
00_COMPONENTS_1
100
AcDbLine
 62
7
  6
BYLAYER
 10
44.7459840418
 20
61.6775086849
 11
13.2796012727
 21
79.8442222611
  0
LINE
  5
2A8
100
AcDbEntity
  8
00_COMPONENTS_1
100
AcDbLine
 62
7
  6
BYLAYER
 10
42.2143771385
 20
102.061222607
 11
42.2143771385
 21
101.2447201899
  0
LINE
  5
2A9
100
AcDbEntity
  8
00_COMPONENTS_1
100
AcDbLine
 62
7
  6
BYLAYER
 10
42.8863003611
 20
60.6038248094
 11
42.8863003611
 21
30.7361663908
  0
LINE
  5
2AA
100
AcDbEntity
  8
00_COMPONENTS_1
100
AcDbLine
 62
7
  6
BYLAYER
 10
42.9570107448
 20
30.7769908062
 11
42.9570107448
 21
24.0653409373
  0
LINE
  5
2AB
100
AcDbEntity
  8
00_COMPONENTS_1
100
AcDbLine
 62
7
  6
BYLAYER
 10
44.6752730692
 20
25.0573742313
 11
44.6752730692
 21
61.6366825187
  0
LINE
  5
2AC
100
AcDbEntity
  8
00_COMPONENTS_1
100
AcDbLine
 62
7
  6
BYLAYER
 10
44.7459840418
 20
61.6775086849
 11
44.7459840418
 21
24.9348999141
  0
LINE
  5
2AD
100
AcDbEntity
  8
00_COMPONENTS_1
100
AcDbLine
 62
7
  6
BYLAYER
 10
44.9720962347
 20
101.693811027
 11
44.9720962347
 21
100.8773086098
  0
LINE
  5
2AE
100
AcDbEntity
  8
00_COMPONENTS_1
100
AcDbLine
 62
7
  6
BYLAYER
 10
46.1741474398
 20
105.8987111946
 11
46.1741474398
 21
105.0822087775
  0
LINE
  5
2AF
100
AcDbEntity
  8
00_COMPONENTS_1
100
AcDbLine
 62
7
  6
BYLAYER
 10
39.4527725228
 20
45.4355383992
 11
39.2906491162
 21
44.8019136217
  0
LINE
  5
2B0
100
AcDbEntity
  8
00_COMPONENTS_1
100
AcDbLine
 62
7
  6
BYLAYER
 10
36.4350386269
 20
51.8102628453
 11
33.730494615
 21
43.1980900944
  0
LINE
  5
2B1
100
AcDbEntity
  8
00_COMPONENTS_1
100
AcDbLine
 62
7
  6
BYLAYER
 10
14.5568193951
 20
58.691256738
 11
13.9018803816
 21
58.3131297794
  0
LINE
  5
2B2
100
AcDbEntity
  8
00_COMPONENTS_1
100
AcDbLine
 62
7
  6
BYLAYER
 10
23.073642673
 20
63.2399442007
 11
22.8511882585
 21
63.1115108512
  0
LINE
  5
2B3
100
AcDbEntity
  8
00_COMPONENTS_1
100
AcDbLine
 62
7
  6
BYLAYER
 10
14.6089901068
 20
57.9048890249
 11
15.1886958869
 21
58.2395803152
  0
LINE
  5
2B4
100
AcDbEntity
  8
00_COMPONENTS_1
100
AcDbLine
 62
7
  6
BYLAYER
 10
15.040561114
 20
57.1742522742
 11
15.6263775493
 21
57.5124715319
  0
LINE
  5
2B5
100
AcDbEntity
  8
00_COMPONENTS_1
100
AcDbLine
 62
7
  6
BYLAYER
 10
16.1490998259
 20
57.5693340164
 11
15.6696546945
 21
57.2925278931
  0
LINE
  5
2B6
100
AcDbEntity
  8
00_COMPONENTS_1
100
AcDbLine
 62
7
  6
BYLAYER
 10
32.5271428877
 20
66.5845518631
 11
31.5875995948
 21
66.042109528
  0
LINE
  5
2B7
100
AcDbEntity
  8
00_COMPONENTS_1
100
AcDbLine
 62
7
  6
BYLAYER
 10
11.5613395371
 20
54.1938177207
 11
11.6548474148
 21
54.2478041968
  0
LINE
  5
2B8
100
AcDbEntity
  8
00_COMPONENTS_1
100
AcDbLine
 62
7
  6
BYLAYER
 10
16.3767644196
 20
56.8842871386
 11
16.7968504895
 21
57.1268224964
  0
LINE
  5
2B9
100
AcDbEntity
  8
00_COMPONENTS_1
100
AcDbLine
 62
7
  6
BYLAYER
 10
24.3736368531
 20
60.9882747907
 11
24.1600476644
 21
60.8649597512
  0
LINE
  5
2BA
100
AcDbEntity
  8
00_COMPONENTS_1
100
AcDbLine
 62
7
  6
BYLAYER
 10
29.9315709678
 20
63.9429068053
 11
32.611332105
 21
65.490058384
  0
LINE
  5
2BB
100
AcDbEntity
  8
00_COMPONENTS_1
100
AcDbLine
 62
7
  6
BYLAYER
 10
16.3767644196
 20
55.904484238
 11
16.9775278645
 21
56.2513331042
  0
LINE
  5
2BC
100
AcDbEntity
  8
00_COMPONENTS_1
100
AcDbLine
 62
7
  6
BYLAYER
 10
86.9388700083
 20
53.7855918698
 11
89.4137334386
 21
53.2134223923
  0
LINE
  5
2BD
100
AcDbEntity
  8
00_COMPONENTS_1
100
AcDbLine
 62
7
  6
BYLAYER
 10
47.8005115836
 20
97.5611364795
 11
47.8005115836
 21
102.5102852253
  0
LINE
  5
2BE
100
AcDbEntity
  8
00_COMPONENTS_1
100
AcDbLine
 62
7
  6
BYLAYER
 10
48.5783205053
 20
104.5106926293
 11
48.5783205053
 21
103.6941902121
  0
LINE
  5
2BF
100
AcDbEntity
  8
00_COMPONENTS_1
100
AcDbLine
 62
7
  6
BYLAYER
 10
48.6490962451
 20
95.4885345615
 11
48.6490962451
 21
94.6720321444
  0
LINE
  5
2C0
100
AcDbEntity
  8
00_COMPONENTS_1
100
AcDbLine
 62
7
  6
BYLAYER
 10
49.2854949978
 20
95.1211178824
 11
49.2854949978
 21
94.3046154653
  0
LINE
  5
2C1
100
AcDbEntity
  8
00_COMPONENTS_1
100
AcDbLine
 62
7
  6
BYLAYER
 10
49.9218289831
 20
103.7350351957
 11
49.9218289831
 21
102.9185327785
  0
LINE
  5
2C2
100
AcDbEntity
  8
00_COMPONENTS_1
100
AcDbLine
 62
7
  6
BYLAYER
 10
50.3461595855
 20
94.5087567507
 11
50.3461595855
 21
93.6922543335
  0
LINE
  5
2C3
100
AcDbEntity
  8
00_COMPONENTS_1
100
AcDbLine
 62
7
  6
BYLAYER
 10
50.3814267527
 20
106.7356183388
 11
50.3814267527
 21
105.9191159217
  0
LINE
  5
2C4
100
AcDbEntity
  8
00_COMPONENTS_1
100
AcDbLine
 62
7
  6
BYLAYER
 10
50.9825583381
 20
94.1413400716
 11
50.9825583381
 21
93.3248376545
  0
LINE
  5
2C5
100
AcDbEntity
  8
00_COMPONENTS_1
100
AcDbLine
 62
7
  6
BYLAYER
 10
51.760358428
 20
96.549972421
 11
51.760358428
 21
95.7334700039
  0
LINE
  5
2C6
100
AcDbEntity
  8
00_COMPONENTS_1
100
AcDbLine
 62
7
  6
BYLAYER
 10
52.750244332
 20
105.3680118112
 11
52.750244332
 21
104.551509394
  0
LINE
  5
2C7
100
AcDbEntity
  8
00_COMPONENTS_1
100
AcDbLine
 62
7
  6
BYLAYER
 10
54.4120934965
 20
83.9965058195
 11
54.4120934965
 21
67.2582062683
  0
LINE
  5
2C8
100
AcDbEntity
  8
00_COMPONENTS_1
100
AcDbLine
 62
7
  6
BYLAYER
 10
54.4120934965
 20
30.5155974975
 11
54.4120934965
 21
12.9607955292
  0
LINE
  5
2C9
100
AcDbEntity
  8
00_COMPONENTS_1
100
AcDbLine
 62
7
  6
BYLAYER
 10
54.5180775242
 20
96.1825608409
 11
54.5180775242
 21
95.3660584238
  0
LINE
  5
2CA
100
AcDbEntity
  8
00_COMPONENTS_1
100
AcDbLine
 62
7
  6
BYLAYER
 10
55.7201287293
 20
100.3874610086
 11
55.7201287293
 21
99.5709585915
  0
LINE
  5
2CB
100
AcDbEntity
  8
00_COMPONENTS_1
100
AcDbLine
 62
7
  6
BYLAYER
 10
40.6589047269
 20
61.8897831861
 11
40.3777317653
 21
61.7274488701
  0
LINE
  5
2CC
100
AcDbEntity
  8
00_COMPONENTS_1
100
AcDbLine
 62
7
  6
BYLAYER
 10
37.7097779444
 20
59.4522585056
 11
40.3777317653
 21
60.9925931677
  0
LINE
  5
2CD
100
AcDbEntity
  8
00_COMPONENTS_1
100
AcDbLine
 62
7
  6
BYLAYER
 10
54.4120934965
 20
67.2582062683
 11
44.7459840418
 21
61.6775086849
  0
LINE
  5
2CE
100
AcDbEntity
  8
00_COMPONENTS_1
100
AcDbLine
 62
7
  6
BYLAYER
 10
44.6752730692
 20
61.6366825187
 11
42.8863003611
 21
60.6038248094
  0
LINE
  5
2CF
100
AcDbEntity
  8
00_COMPONENTS_1
100
AcDbLine
 62
7
  6
BYLAYER
 10
20.0596836318
 20
48.3883307992
 11
21.2133872853
 21
49.0540553679
  0
LINE
  5
2D0
100
AcDbEntity
  8
00_COMPONENTS_1
100
AcDbLine
 62
7
  6
BYLAYER
 10
86.4438973223
 20
52.683318545
 11
85.5246623339
 21
53.2140271067
  0
LINE
  5
2D1
100
AcDbEntity
  8
00_COMPONENTS_1
100
AcDbLine
 62
7
  6
BYLAYER
 10
86.4438973223
 20
53.1732199953
 11
85.5246623339
 21
53.703928557
  0
LINE
  5
2D2
100
AcDbEntity
  8
00_COMPONENTS_1
100
AcDbLine
 62
7
  6
BYLAYER
 10
86.7267388571
 20
53.6631186237
 11
85.5246623339
 21
54.3571221275
  0
LINE
  5
2D3
100
AcDbEntity
  8
00_COMPONENTS_1
100
AcDbLine
 62
7
  6
BYLAYER
 10
86.9388700083
 20
53.7855918698
 11
85.5246623339
 21
54.6020665802
  0
LINE
  5
2D4
100
AcDbEntity
  8
00_COMPONENTS_1
100
AcDbLine
 62
7
  6
BYLAYER
 10
85.5246623339
 20
55.4587278459
 11
89.4137334386
 21
53.2134223923
  0
LINE
  5
2D5
100
AcDbEntity
  8
00_COMPONENTS_1
100
AcDbLine
 62
7
  6
BYLAYER
 10
57.063577739
 20
107.8583011498
 11
57.063577739
 21
107.0417987326
  0
LINE
  5
2D6
100
AcDbEntity
  8
00_COMPONENTS_1
100
AcDbLine
 62
7
  6
BYLAYER
 10
57.346492873
 20
92.0498862934
 11
57.346492873
 21
96.9990350393
  0
LINE
  5
2D7
100
AcDbEntity
  8
00_COMPONENTS_1
100
AcDbLine
 62
7
  6
BYLAYER
 10
58.0818755646
 20
98.974947794
 11
58.0818755646
 21
98.1584453769
  0
LINE
  5
2D8
100
AcDbEntity
  8
00_COMPONENTS_1
100
AcDbLine
 62
7
  6
BYLAYER
 10
59.4253840424
 20
98.1992903604
 11
59.4253840424
 21
97.3827879433
  0
LINE
  5
2D9
100
AcDbEntity
  8
00_COMPONENTS_1
100
AcDbLine
 62
7
  6
BYLAYER
 10
59.9274080422
 20
101.2243681528
 11
59.9274080422
 21
100.4078657356
  0
LINE
  5
2DA
100
AcDbEntity
  8
00_COMPONENTS_1
100
AcDbLine
 62
7
  6
BYLAYER
 10
85.3408153362
 20
82.5832286224
 11
89.4137334386
 21
84.9347149487
  0
LINE
  5
2DB
100
AcDbEntity
  8
00_COMPONENTS_1
100
AcDbLine
 62
7
  6
BYLAYER
 10
87.0095603731
 20
82.975493047
 11
85.3408153362
 21
82.0120484018
  0
LINE
  5
2DC
100
AcDbEntity
  8
00_COMPONENTS_1
100
AcDbLine
 62
7
  6
BYLAYER
 10
85.3408153362
 20
79.9708403308
 11
85.5246623339
 21
80.0769838108
  0
LINE
  5
2DD
100
AcDbEntity
  8
00_COMPONENTS_1
100
AcDbLine
 62
7
  6
BYLAYER
 10
61.8011357655
 20
115.8190403944
 11
61.8011357655
 21
115.0025379773
  0
LINE
  5
2DE
100
AcDbEntity
  8
00_COMPONENTS_1
100
AcDbLine
 62
7
  6
BYLAYER
 10
85.826188072
 20
73.8667121936
 11
88.3157092762
 21
73.291153951
  0
LWPOLYLINE
  5
2DF
100
AcDbEntity
  8
00_COMPONENTS_1
100
AcDbPolyline
 62
7
  6
BYLAYER
 90
3
 70
0
 10
52.9283972095
 20
84.7448978147
 10
37.6182485568
 20
92.4674976473
 10
22.9457107274
 20
102.1632193957
  0
LINE
  5
2E0
100
AcDbEntity
  8
00_COMPONENTS_1
100
AcDbLine
 62
7
  6
BYLAYER
 10
66.6095590285
 20
102.3470509637
 11
66.6095590285
 21
101.5305485466
  0
LINE
  5
2E1
100
AcDbEntity
  8
00_COMPONENTS_1
100
AcDbLine
 62
7
  6
BYLAYER
 10
31.5875995948
 20
41.5470370141
 11
32.5271428877
 21
42.0894793492
  0
LINE
  5
2E2
100
AcDbEntity
  8
00_COMPONENTS_1
100
AcDbLine
 62
7
  6
BYLAYER
 10
28.1275911995
 20
38.0592243491
 11
27.9839711467
 21
37.9763057679
  0
LINE
  5
2E3
100
AcDbEntity
  8
00_COMPONENTS_1
100
AcDbLine
 62
7
  6
BYLAYER
 10
88.3157092762
 20
73.291153951
 11
88.5045072644
 21
73.217166835
  0
LINE
  5
2E4
100
AcDbEntity
  8
00_COMPONENTS_1
100
AcDbLine
 62
7
  6
BYLAYER
 10
85.7318815731
 20
73.9038664581
 11
85.826188072
 21
73.8667121936
  0
LINE
  5
2E5
100
AcDbEntity
  8
00_COMPONENTS_1
100
AcDbLine
 62
7
  6
BYLAYER
 10
60.229602457
 20
119.6881631228
 11
60.6305915693
 21
116.625060481
  0
LINE
  5
2E6
100
AcDbEntity
  8
00_COMPONENTS_1
100
AcDbLine
 62
7
  6
BYLAYER
 10
27.729221678
 20
31.5625670399
 11
28.0688291403
 21
31.7586383294
  0
LINE
  5
2E7
100
AcDbEntity
  8
00_COMPONENTS_1
100
AcDbLine
 62
7
  6
BYLAYER
 10
50.9825583381
 20
93.3248376545
 11
50.3461595855
 21
93.6922543335
  0
LINE
  5
2E8
100
AcDbEntity
  8
00_COMPONENTS_1
100
AcDbLine
 62
7
  6
BYLAYER
 10
49.2854949978
 20
94.3046154653
 11
48.6490962451
 21
94.6720321444
  0
LINE
  5
2E9
100
AcDbEntity
  8
00_COMPONENTS_1
100
AcDbLine
 62
7
  6
BYLAYER
 10
41.4365770486
 20
98.8360878405
 11
40.800178296
 21
99.2035045195
  0
LINE
  5
2EA
100
AcDbEntity
  8
00_COMPONENTS_1
100
AcDbLine
 62
7
  6
BYLAYER
 10
39.7395137083
 20
99.8158656513
 11
39.1031149556
 21
100.1832823304
  0
LINE
  5
2EB
100
AcDbEntity
  8
00_COMPONENTS_1
100
AcDbLine
 62
7
  6
BYLAYER
 10
85.6595741551
 20
73.9629046073
 11
85.826188072
 21
73.8667121936
  0
LINE
  5
2EC
100
AcDbEntity
  8
00_COMPONENTS_1
100
AcDbLine
 62
7
  6
BYLAYER
 10
50.9825583381
 20
94.1413400716
 11
50.3461595855
 21
94.5087567507
  0
LINE
  5
2ED
100
AcDbEntity
  8
00_COMPONENTS_1
100
AcDbLine
 62
7
  6
BYLAYER
 10
49.2854949978
 20
95.1211178824
 11
48.6490962451
 21
95.4885345615
  0
LINE
  5
2EE
100
AcDbEntity
  8
00_COMPONENTS_1
100
AcDbLine
 62
7
  6
BYLAYER
 10
41.4365770486
 20
99.6525902576
 11
40.800178296
 21
100.0200069367
  0
LINE
  5
2EF
100
AcDbEntity
  8
00_COMPONENTS_1
100
AcDbLine
 62
7
  6
BYLAYER
 10
39.7395137083
 20
100.6323680685
 11
39.1031149556
 21
100.9997847475
  0
LINE
  5
2F0
100
AcDbEntity
  8
00_COMPONENTS_1
100
AcDbLine
 62
7
  6
BYLAYER
 10
88.3157092762
 20
73.291153951
 11
85.5246623339
 21
74.9025292003
  0
LINE
  5
2F1
100
AcDbEntity
  8
00_COMPONENTS_1
100
AcDbLine
 62
7
  6
BYLAYER
 10
88.5045361111
 20
73.2172168522
 11
85.5246623339
 21
74.9376088591
  0
LINE
  5
2F2
100
AcDbEntity
  8
00_COMPONENTS_1
100
AcDbLine
 62
7
  6
BYLAYER
 10
52.1139010713
 20
95.5293566812
 11
51.760358428
 21
95.7334700039
  0
LINE
  5
2F3
100
AcDbEntity
  8
00_COMPONENTS_1
100
AcDbLine
 62
7
  6
BYLAYER
 10
42.5679197819
 20
101.0406068672
 11
42.2143771385
 21
101.2447201899
  0
LINE
  5
2F4
100
AcDbEntity
  8
00_COMPONENTS_1
100
AcDbLine
 62
7
  6
BYLAYER
 10
52.8210230157
 20
95.9376112892
 11
51.760358428
 21
96.549972421
  0
LINE
  5
2F5
100
AcDbEntity
  8
00_COMPONENTS_1
100
AcDbLine
 62
7
  6
BYLAYER
 10
43.2750417262
 20
101.4488614752
 11
42.2143771385
 21
102.061222607
  0
LINE
  5
2F6
100
AcDbEntity
  8
00_COMPONENTS_1
100
AcDbLine
 62
7
  6
BYLAYER
 10
76.6504399936
 20
107.2459845495
 11
76.6504399936
 21
106.4294821324
  0
LINE
  5
2F7
100
AcDbEntity
  8
00_COMPONENTS_1
100
AcDbLine
 62
7
  6
BYLAYER
 10
42.6386341417
 20
103.0410055169
 11
43.2750328943
 21
102.6735888378
  0
LINE
  5
2F8
100
AcDbEntity
  8
00_COMPONENTS_1
100
AcDbLine
 62
7
  6
BYLAYER
 10
44.3356974821
 20
102.061227706
 11
44.9720962347
 21
101.693811027
  0
LINE
  5
2F9
100
AcDbEntity
  8
00_COMPONENTS_1
100
AcDbLine
 62
7
  6
BYLAYER
 10
52.1846154312
 20
97.5297553309
 11
52.8210141838
 21
97.1623386518
  0
LINE
  5
2FA
100
AcDbEntity
  8
00_COMPONENTS_1
100
AcDbLine
 62
7
  6
BYLAYER
 10
53.8816787715
 20
96.54997752
 11
54.5180775242
 21
96.1825608409
  0
LINE
  5
2FB
100
AcDbEntity
  8
00_COMPONENTS_1
100
AcDbLine
 62
7
  6
BYLAYER
 10
85.5246623339
 20
80.0769838108
 11
85.3408153362
 21
80.1831255231
  0
LINE
  5
2FC
100
AcDbEntity
  8
00_COMPONENTS_1
100
AcDbLine
 62
7
  6
BYLAYER
 10
38.2545302941
 20
108.0215354113
 11
45.4034096153
 21
103.8942213831
  0
LINE
  5
2FD
100
AcDbEntity
  8
00_COMPONENTS_1
100
AcDbLine
 62
7
  6
BYLAYER
 10
47.8005115836
 20
102.5102852253
 11
54.9423075883
 21
98.3870606593
  0
LINE
  5
2FE
100
AcDbEntity
  8
00_COMPONENTS_1
100
AcDbLine
 62
7
  6
BYLAYER
 10
57.346492873
 20
96.9990350393
 11
64.5590120695
 21
92.8349793432
  0
LINE
  5
2FF
100
AcDbEntity
  8
00_COMPONENTS_1
100
AcDbLine
 62
7
  6
BYLAYER
 10
59.4253840424
 20
97.3827879433
 11
58.0818755646
 21
98.1584453769
  0
LINE
  5
300
100
AcDbEntity
  8
00_COMPONENTS_1
100
AcDbLine
 62
7
  6
BYLAYER
 10
56.3565152627
 20
99.203548967
 11
55.7201287293
 21
99.5709585915
  0
LINE
  5
301
100
AcDbEntity
  8
00_COMPONENTS_1
100
AcDbLine
 62
7
  6
BYLAYER
 10
49.9218289831
 20
102.9185327785
 11
48.5783205053
 21
103.6941902121
  0
LINE
  5
302
100
AcDbEntity
  8
00_COMPONENTS_1
100
AcDbLine
 62
7
  6
BYLAYER
 10
46.8105339732
 20
104.7147991531
 11
46.1741474398
 21
105.0822087775
  0
LINE
  5
303
100
AcDbEntity
  8
00_COMPONENTS_1
100
AcDbLine
 62
7
  6
BYLAYER
 10
79.8660045206
 20
109.1024805129
 11
79.8660045206
 21
108.2859780958
  0
LINE
  5
304
100
AcDbEntity
  8
00_COMPONENTS_1
100
AcDbLine
 62
7
  6
BYLAYER
 10
80.1081886503
 20
106.9152989643
 11
80.1081886503
 21
104.8740866933
  0
LINE
  5
305
100
AcDbEntity
  8
00_COMPONENTS_1
100
AcDbLine
 62
7
  6
BYLAYER
 10
40.6765907131
 20
30.6483842243
 11
41.7372464689
 21
31.2607504551
  0
LINE
  5
306
100
AcDbEntity
  8
00_COMPONENTS_1
100
AcDbLine
 62
7
  6
BYLAYER
 10
42.9570107448
 20
30.7769908062
 11
42.8863003611
 21
30.7361663908
  0
LINE
  5
307
100
AcDbEntity
  8
00_COMPONENTS_1
100
AcDbLine
 62
7
  6
BYLAYER
 10
86.7267388571
 20
53.6631186237
 11
86.9388700083
 21
53.7855918698
  0
LINE
  5
308
100
AcDbEntity
  8
00_COMPONENTS_1
100
AcDbLine
 62
7
  6
BYLAYER
 10
59.4253840424
 20
98.1992903604
 11
58.0818755646
 21
98.974947794
  0
LINE
  5
309
100
AcDbEntity
  8
00_COMPONENTS_1
100
AcDbLine
 62
7
  6
BYLAYER
 10
57.0636372071
 20
99.611803575
 11
55.7201287293
 21
100.3874610086
  0
LINE
  5
30A
100
AcDbEntity
  8
00_COMPONENTS_1
100
AcDbLine
 62
7
  6
BYLAYER
 10
49.9218289831
 20
103.7350351957
 11
48.5783205053
 21
104.5106926293
  0
LINE
  5
30B
100
AcDbEntity
  8
00_COMPONENTS_1
100
AcDbLine
 62
7
  6
BYLAYER
 10
47.5176559176
 20
105.123053761
 11
46.1741474398
 21
105.8987111946
  0
LINE
  5
30C
100
AcDbEntity
  8
00_COMPONENTS_1
100
AcDbLine
 62
7
  6
BYLAYER
 10
48.8257983109
 20
105.8374812003
 11
49.8157519261
 21
105.265944144
  0
LINE
  5
30D
100
AcDbEntity
  8
00_COMPONENTS_1
100
AcDbLine
 62
7
  6
BYLAYER
 10
58.3717796004
 20
100.3262310143
 11
59.3617332156
 21
99.7546939579
  0
LINE
  5
30E
100
AcDbEntity
  8
00_COMPONENTS_1
100
AcDbLine
 62
7
  6
BYLAYER
 10
60.210239713
 20
100.2445764885
 11
59.9274080422
 21
100.4078657356
  0
LINE
  5
30F
100
AcDbEntity
  8
00_COMPONENTS_1
100
AcDbLine
 62
7
  6
BYLAYER
 10
57.8414221338
 20
101.6121830161
 11
52.750244332
 21
104.551509394
  0
LINE
  5
310
100
AcDbEntity
  8
00_COMPONENTS_1
100
AcDbLine
 62
7
  6
BYLAYER
 10
50.6642584236
 20
105.7558266745
 11
50.3814267527
 21
105.9191159217
  0
LINE
  5
311
100
AcDbEntity
  8
00_COMPONENTS_1
100
AcDbLine
 62
7
  6
BYLAYER
 10
60.9173616574
 20
100.6528310964
 11
59.9274080422
 21
101.2243681528
  0
LINE
  5
312
100
AcDbEntity
  8
00_COMPONENTS_1
100
AcDbLine
 62
7
  6
BYLAYER
 10
58.5485440782
 20
102.0204376241
 11
52.750244332
 21
105.3680118112
  0
LINE
  5
313
100
AcDbEntity
  8
00_COMPONENTS_1
100
AcDbLine
 62
7
  6
BYLAYER
 10
51.3713803679
 20
106.1640812825
 11
50.3814267527
 21
106.7356183388
  0
LINE
  5
314
100
AcDbEntity
  8
00_COMPONENTS_1
100
AcDbLine
 62
7
  6
BYLAYER
 10
53.8109000878
 20
105.980378042
 11
59.609199834
 21
102.6328038549
  0
LINE
  5
315
100
AcDbEntity
  8
00_COMPONENTS_1
100
AcDbLine
 62
7
  6
BYLAYER
 10
85.3408153362
 20
82.5832286224
 11
85.3408153362
 21
79.9708403308
  0
LINE
  5
316
100
AcDbEntity
  8
00_COMPONENTS_1
100
AcDbLine
 62
7
  6
BYLAYER
 10
85.5246623339
 20
80.0769838108
 11
85.5246623339
 21
74.3614668909
  0
LINE
  5
317
100
AcDbEntity
  8
00_COMPONENTS_1
100
AcDbLine
 62
7
  6
BYLAYER
 10
85.5246623339
 20
58.5213199986
 11
85.5246623339
 21
52.1526011449
  0
LINE
  5
318
100
AcDbEntity
  8
00_COMPONENTS_1
100
AcDbLine
 62
7
  6
BYLAYER
 10
86.4438973223
 20
52.683318545
 11
86.4438973223
 21
53.1732199953
  0
LINE
  5
319
100
AcDbEntity
  8
00_COMPONENTS_1
100
AcDbLine
 62
7
  6
BYLAYER
 10
87.0095603731
 20
83.5466732677
 11
87.0095603731
 21
82.975493047
  0
LINE
  5
31A
100
AcDbEntity
  8
00_COMPONENTS_1
100
AcDbLine
 62
7
  6
BYLAYER
 10
88.3157092762
 20
62.8144371078
 11
85.826188072
 21
59.3642445496
  0
LINE
  5
31B
100
AcDbEntity
  8
00_COMPONENTS_1
100
AcDbLine
 62
7
  6
BYLAYER
 10
85.5246623339
 20
52.1526011449
 11
86.4438973223
 21
52.683318545
  0
LINE
  5
31C
100
AcDbEntity
  8
00_COMPONENTS_1
100
AcDbLine
 62
7
  6
BYLAYER
 10
40.6765907131
 20
24.4797084629
 11
41.7372464689
 21
25.0920746937
  0
LINE
  5
31D
100
AcDbEntity
  8
00_COMPONENTS_1
100
AcDbLine
 62
7
  6
BYLAYER
 10
44.6752730692
 20
25.0573742313
 11
42.9570107448
 21
24.0653409373
  0
LINE
  5
31E
100
AcDbEntity
  8
00_COMPONENTS_1
100
AcDbLine
 62
7
  6
BYLAYER
 10
54.4120934965
 20
30.5155974975
 11
44.7459840418
 21
24.9348999141
  0
LINE
  5
31F
100
AcDbEntity
  8
00_COMPONENTS_1
100
AcDbLine
 62
7
  6
BYLAYER
 10
53.3158961957
 20
110.0219771487
 11
57.063577739
 21
107.8583011498
  0
LINE
  5
320
100
AcDbEntity
  8
00_COMPONENTS_1
100
AcDbLine
 62
7
  6
BYLAYER
 10
62.8618774852
 20
104.5107269627
 11
66.6095590285
 21
102.3470509637
  0
LINE
  5
321
100
AcDbEntity
  8
00_COMPONENTS_1
100
AcDbLine
 62
7
  6
BYLAYER
 10
81.2307612939
 20
107.5634127135
 11
81.7033813076
 21
103.9531311165
  0
LINE
  5
322
100
AcDbEntity
  8
00_COMPONENTS_1
100
AcDbLine
 62
7
  6
BYLAYER
 10
88.9187607525
 20
72.3016445566
 11
88.9187607525
 21
64.50028621
  0
LINE
  5
323
100
AcDbEntity
  8
00_COMPONENTS_1
100
AcDbLine
 62
7
  6
BYLAYER
 10
89.4137334386
 20
94.4882126723
 11
89.4137334386
 21
84.9347149487
  0
LINE
  5
324
100
AcDbEntity
  8
00_COMPONENTS_1
100
AcDbLine
 62
7
  6
BYLAYER
 10
89.4137334386
 20
53.2134223923
 11
89.4137334386
 21
33.1688811459
  0
LINE
  5
325
100
AcDbEntity
  8
00_COMPONENTS_1
100
AcDbLine
 62
7
  6
BYLAYER
 10
86.4438973223
 20
53.1732199953
 11
86.7267388571
 21
53.6631186237
  0
LINE
  5
326
100
AcDbEntity
  8
00_COMPONENTS_1
100
AcDbLine
 62
7
  6
BYLAYER
 10
88.2311475729
 20
103.5218292438
 11
89.4137334386
 21
94.4882126723
  0
LINE
  5
327
100
AcDbEntity
  8
00_COMPONENTS_1
100
AcDbLine
 62
7
  6
BYLAYER
 10
76.6504399936
 20
106.4294821324
 11
61.8011357655
 21
115.0025379773
  0
LINE
  5
328
100
AcDbEntity
  8
00_COMPONENTS_1
100
AcDbLine
 62
7
  6
BYLAYER
 10
81.875977683
 20
103.853484807
 11
80.1082033701
 21
104.8740866933
  0
LINE
  5
329
100
AcDbEntity
  8
00_COMPONENTS_1
100
AcDbLine
 62
7
  6
BYLAYER
 10
59.1070445333
 20
116.9988371025
 11
57.3392702204
 21
118.0194389888
  0
LINE
  5
32A
100
AcDbEntity
  8
00_COMPONENTS_1
100
AcDbLine
 62
7
  6
BYLAYER
 10
76.6504399936
 20
107.2459845495
 11
61.8011357655
 21
115.8190403944
  0
LINE
  5
32B
100
AcDbEntity
  8
00_COMPONENTS_1
100
AcDbLine
 62
7
  6
BYLAYER
 10
56.7647648038
 20
121.6885428199
 11
60.229602457
 21
119.6881631228
  0
LINE
  5
32C
100
AcDbEntity
  8
00_COMPONENTS_1
100
AcDbLine
 62
7
  6
BYLAYER
 10
63.7651510828
 20
117.6469593502
 11
64.3661821299
 21
117.2999617635
  0
LINE
  5
32D
100
AcDbEntity
  8
00_COMPONENTS_1
100
AcDbLine
 62
7
  6
BYLAYER
 10
79.8660045206
 20
108.3513375788
 11
81.2307612939
 21
107.5634127135
  0
LINE
  5
32E
100
AcDbEntity
  8
00_COMPONENTS_1
100
AcDbLine
 62
7
  6
BYLAYER
 10
84.7663099196
 20
105.5222089409
 11
88.2311475729
 21
103.5218292438
  0
LINE
  5
32F
100
AcDbEntity
  8
00_COMPONENTS_1
100
AcDbLine
 62
7
  6
BYLAYER
 10
65.0167002925
 20
117.6755363578
 11
79.8660045206
 21
109.1024805129
  0
LINE
  5
330
100
AcDbEntity
  8
00_COMPONENTS_1
100
AcDbLine
 62
7
  6
BYLAYER
 10
89.4137334386
 20
33.1688811459
 11
54.4120934965
 21
12.9607955292
  0
ARC
  5
331
100
AcDbEntity
  8
00_COMPONENTS_1
100
AcDbCircle
 62
7
  6
BYLAYER
 10
132.175982724
 20
223.47062593
 40
203.5896448078
100
AcDbArc
 50
235.365633859
 51
235.5395994981
  0
ARC
  5
332
100
AcDbEntity
  8
00_COMPONENTS_1
100
AcDbCircle
 62
7
  6
BYLAYER
 10
130.0001854344
 20
255.9460975419
 40
187.830300368
100
AcDbArc
 50
246.0710888632
 51
246.2699742275
  0
ARC
  5
333
100
AcDbEntity
  8
00_COMPONENTS_1
100
AcDbCircle
 62
7
  6
BYLAYER
 10
129.5018449527
 20
254.823303846
 40
186.6018831304
100
AcDbArc
 50
245.7476815936
 51
246.0711194097
  0
ARC
  5
334
100
AcDbEntity
  8
00_COMPONENTS_1
100
AcDbCircle
 62
7
  6
BYLAYER
 10
117.2656906687
 20
230.0230576931
 40
185.0274849136
100
AcDbArc
 50
245.4461149521
 51
246.2972931178
  0
ARC
  5
335
100
AcDbEntity
  8
00_COMPONENTS_1
100
AcDbCircle
 62
7
  6
BYLAYER
 10
87.5772625748
 20
176.6957736282
 40
125.7155344709
100
AcDbArc
 50
232.8656104729
 51
233.1637474784
  0
ARC
  5
336
100
AcDbEntity
  8
00_COMPONENTS_1
100
AcDbCircle
 62
7
  6
BYLAYER
 10
87.4973860381
 20
176.5223174758
 40
125.6917925752
100
AcDbArc
 50
232.8157263301
 51
233.1462628201
  0
ARC
  5
337
100
AcDbEntity
  8
00_COMPONENTS_1
100
AcDbCircle
 62
7
  6
BYLAYER
 10
31.6454414545
 20
35.0349420008
 40
5.3121209369
100
AcDbArc
 50
221.6846678917
 51
221.9325526381
  0
ARC
  5
338
100
AcDbEntity
  8
00_COMPONENTS_1
100
AcDbCircle
 62
7
  6
BYLAYER
 10
39.4818733538
 20
56.4611332046
 40
5.0079155422
100
AcDbArc
 50
237.4735021731
 51
239.3259448744
  0
ARC
  5
339
100
AcDbEntity
  8
00_COMPONENTS_1
100
AcDbCircle
 62
7
  6
BYLAYER
 10
39.4771153793
 20
56.453196073
 40
4.9986616501
100
AcDbArc
 50
239.3264388877
 51
239.9947638419
  0
ARC
  5
33A
100
AcDbEntity
  8
00_COMPONENTS_1
100
AcDbCircle
 62
7
  6
BYLAYER
 10
24.5099013603
 20
60.7628818685
 40
0.8370808513
100
AcDbArc
 50
284.8918622165
 51
290.8044085781
  0
ARC
  5
33B
100
AcDbEntity
  8
00_COMPONENTS_1
100
AcDbCircle
 62
7
  6
BYLAYER
 10
19.7749646618
 20
67.2600444665
 40
0.2663937541
100
AcDbArc
 50
179.9597713135
 51
183.9934251971
  0
ARC
  5
33C
100
AcDbEntity
  8
00_COMPONENTS_1
100
AcDbCircle
 62
7
  6
BYLAYER
 10
27.5531716384
 20
62.7693961667
 40
0.2663937541
100
AcDbArc
 50
179.9597713135
 51
183.9934251971
  0
SPLINE
  5
33D
100
AcDbEntity
  8
00_COMPONENTS_1
100
AcDbSpline
 62
7
  6
BYLAYER
 70
0
 71
3
 72
15
 73
11
 74
0
 42
0.0000001
 43
0.0000001
 44
0.0000000001
 40
0.0
 40
0.0
 40
0.0
 40
0.0
 40
0.1080119594
 40
0.2180607787
 40
0.3319973965
 40
0.4513553721
 40
0.5772763883
 40
0.7104918731
 40
0.8514098842
 40
1.0
 40
1.0
 40
1.0
 40
1.0
 10
13.3893237806
 20
57.5987084581
 30
0.0
 10
13.3893248725
 20
57.6318379543
 30
0.0
 10
13.3950752947
 20
57.698856353
 30
0.0
 10
13.4207576002
 20
57.7978438214
 30
0.0
 10
13.4631446381
 20
57.8946995791
 30
0.0
 10
13.5217036959
 20
57.9884425072
 30
0.0
 10
13.5957754431
 20
58.0782205636
 30
0.0
 10
13.6845993936
 20
58.1632436342
 30
0.0
 10
13.7872931569
 20
58.2427306531
 30
0.0
 10
13.8624106487
 20
58.2903420545
 30
0.0
 10
13.9018803816
 20
58.3131297794
 30
0.0
  0
SPLINE
  5
33E
100
AcDbEntity
  8
00_COMPONENTS_1
100
AcDbSpline
 62
7
  6
BYLAYER
 70
0
 71
3
 72
27
 73
23
 74
0
 42
0.0000001
 43
0.0000001
 44
0.0000000001
 40
0.0
 40
0.0
 40
0.0
 40
0.0
 40
0.0213294536
 40
0.0428873226
 40
0.0648900677
 40
0.0875320347
 40
0.1109789483
 40
0.1353629279
 40
0.1607834248
 40
0.1873059291
 40
0.2437374648
 40
0.3046787784
 40
0.3697595681
 40
0.4383495778
 40
0.5096283835
 40
0.5826447713
 40
0.656368385
 40
0.7297377497
 40
0.8017063001
 40
0.8712919924
 40
0.9376224277
 40
1.0
 40
1.0
 40
1.0
 40
1.0
 10
13.3893237368
 20
56.6189055573
 30
0.0
 10
13.3893229093
 20
56.5940799058
 30
0.0
 10
13.3925289473
 20
56.5441054208
 30
0.0
 10
13.4068848323
 20
56.4697654122
 30
0.0
 10
13.4307038966
 20
56.3962884974
 30
0.0
 10
13.4638164101
 20
56.3240996182
 30
0.0
 10
13.5060241713
 20
56.2535912396
 30
0.0
 10
13.5570622129
 20
56.1851302628
 30
0.0
 10
13.6166513522
 20
56.1190788692
 30
0.0
 10
13.7089445564
 20
56.0329069332
 30
0.0
 10
13.8447060973
 20
55.9337062698
 30
0.0
 10
14.0317060442
 20
55.8320035593
 30
0.0
 10
14.2422257271
 20
55.7471912027
 30
0.0
 10
14.4718014734
 20
55.681029288
 30
0.0
 10
14.7155918684
 20
55.634888955
 30
0.0
 10
14.9684144041
 20
55.6097475862
 30
0.0
 10
15.2248830281
 20
55.6061386355
 30
0.0
 10
15.4795270233
 20
55.6241406095
 30
0.0
 10
15.7269147441
 20
55.6633666465
 30
0.0
 10
15.9617951518
 20
55.7229960822
 30
0.0
 10
16.1791496807
 20
55.8017484085
 30
0.0
 10
16.3138890322
 20
55.8681833329
 30
0.0
 10
16.3767644196
 20
55.904484238
 30
0.0
  0
SPLINE
  5
33F
100
AcDbEntity
  8
00_COMPONENTS_1
100
AcDbSpline
 62
7
  6
BYLAYER
 70
0
 71
3
 72
25
 73
21
 74
0
 42
0.0000001
 43
0.0000001
 44
0.0000000001
 40
0.0
 40
0.0
 40
0.0
 40
0.0
 40
0.021332107
 40
0.0428927378
 40
0.0648979586
 40
0.0875430186
 40
0.1353181375
 40
0.187218896
 40
0.243656259
 40
0.3046038135
 40
0.3696913098
 40
0.4382884545
 40
0.5095748913
 40
0.5825992093
 40
0.6563311924
 40
0.7297075459
 40
0.8016841062
 40
0.8712750976
 40
0.9376185811
 40
1.0
 40
1.0
 40
1.0
 40
1.0
 10
14.3893237476
 20
57.5987084529
 30
0.0
 10
14.3893230549
 20
57.5880687345
 30
0.0
 10
14.3906964902
 20
57.5666505044
 30
0.0
 10
14.3968514436
 20
57.5347910924
 30
0.0
 10
14.4070575093
 20
57.5032981501
 30
0.0
 10
14.4263170452
 20
57.4613169309
 30
0.0
 10
14.4608711167
 20
57.4104678507
 30
0.0
 10
14.5160723978
 20
57.3550465027
 30
0.0
 10
14.5844816316
 20
57.3050553025
 30
0.0
 10
14.6646337738
 20
57.2614626679
 30
0.0
 10
14.754852933
 20
57.2251164761
 30
0.0
 10
14.8532429443
 20
57.1967611955
 30
0.0
 10
14.9577240016
 20
57.1769873156
 30
0.0
 10
15.0660765869
 20
57.1662124554
 30
0.0
 10
15.1759912033
 20
57.1646664866
 30
0.0
 10
15.2851241186
 20
57.1723805287
 30
0.0
 10
15.3911454176
 20
57.1891932141
 30
0.0
 10
15.4918109881
 20
57.2147459355
 30
0.0
 10
15.5849621737
 20
57.2484997263
 30
0.0
 10
15.6427094015
 20
57.2769711138
 30
0.0
 10
15.6696546945
 20
57.2925278931
 30
0.0
  0
SPLINE
  5
340
100
AcDbEntity
  8
00_COMPONENTS_1
100
AcDbSpline
 62
7
  6
BYLAYER
 70
0
 71
3
 72
27
 73
23
 74
0
 42
0.0000001
 43
0.0000001
 44
0.0000000001
 40
0.0
 40
0.0
 40
0.0
 40
0.0
 40
0.0623774112
 40
0.1287076096
 40
0.1982931364
 40
0.2702616557
 40
0.3436311649
 40
0.4173550013
 40
0.4903716145
 40
0.5616506695
 40
0.6302409391
 40
0.6953219074
 40
0.7562632303
 40
0.8126946206
 40
0.8392170289
 40
0.8646374269
 40
0.8890213217
 40
0.9124681617
 40
0.935110073
 40
0.9571127671
 40
0.9786705917
 40
1.0
 40
1.0
 40
1.0
 40
1.0
 10
16.3767644196
 20
56.8842871386
 30
0.0
 10
16.3138891948
 20
56.8479863273
 30
0.0
 10
16.1791502786
 20
56.7815515744
 30
0.0
 10
15.9617963968
 20
56.7027993991
 30
0.0
 10
15.726916526
 20
56.6431699125
 30
0.0
 10
15.4795288916
 20
56.6039437179
 30
0.0
 10
15.2248845168
 20
56.5859415577
 30
0.0
 10
14.9684151995
 20
56.5895504165
 30
0.0
 10
14.7155918501
 20
56.6146918308
 30
0.0
 10
14.4718006206
 20
56.6608323686
 30
0.0
 10
14.2422241381
 20
56.726994635
 30
0.0
 10
14.0317040547
 20
56.8118073999
 30
0.0
 10
13.8447041939
 20
56.9135103819
 30
0.0
 10
13.7089430414
 20
57.0127111096
 30
0.0
 10
13.6166502245
 20
57.0988828814
 30
0.0
 10
13.5570614312
 20
57.1649341457
 30
0.0
 10
13.506023622
 20
57.2333949224
 30
0.0
 10
13.4638161148
 20
57.3039031589
 30
0.0
 10
13.4307036924
 20
57.3760918506
 30
0.0
 10
13.4068848197
 20
57.449568638
 30
0.0
 10
13.3925288841
 20
57.5239084709
 30
0.0
 10
13.3893229624
 20
57.5738828593
 30
0.0
 10
13.3893237806
 20
57.5987084581
 30
0.0
  0
SPLINE
  5
341
100
AcDbEntity
  8
00_COMPONENTS_1
100
AcDbSpline
 62
7
  6
BYLAYER
 70
0
 71
3
 72
15
 73
11
 74
0
 42
0.0000001
 43
0.0000001
 44
0.0000000001
 40
0.0
 40
0.0
 40
0.0
 40
0.0
 40
0.1485648529
 40
0.289509368
 40
0.4227286297
 40
0.5486396903
 40
0.6680019342
 40
0.7819382837
 40
0.8919860643
 40
1.0
 40
1.0
 40
1.0
 40
1.0
 10
14.6089901068
 20
57.9048890249
 30
0.0
 10
14.5920774044
 20
57.8951245299
 30
0.0
 10
14.5598855153
 20
57.8747174772
 30
0.0
 10
14.5158710553
 20
57.8406545463
 30
0.0
 10
14.4778012689
 20
57.8042143131
 30
0.0
 10
14.4460599374
 20
57.7657356992
 30
0.0
 10
14.4209595595
 20
57.7255634018
 30
0.0
 10
14.4027960236
 20
57.6840522673
 30
0.0
 10
14.3917882618
 20
57.6416293907
 30
0.0
 10
14.3893246719
 20
57.6129070501
 30
0.0
 10
14.3893237476
 20
57.5987084529
 30
0.0
  0
SPLINE
  5
342
100
AcDbEntity
  8
00_COMPONENTS_1
100
AcDbSpline
 62
7
  6
BYLAYER
 70
0
 71
3
 72
13
 73
9
 74
0
 42
0.0000001
 43
0.0000001
 44
0.0000000001
 40
0.0
 40
0.0
 40
0.0
 40
0.0
 40
0.2666759108
 40
0.5206254588
 40
0.6435544584
 40
0.7641707135
 40
0.8828473272
 40
1.0
 40
1.0
 40
1.0
 40
1.0
 10
39.2906491162
 20
43.7251015375
 30
0.0
 10
38.8209112395
 20
43.63092312
 30
0.0
 10
37.8928553237
 20
43.496662514
 30
0.0
 10
36.7334549461
 20
43.4733955576
 30
0.0
 10
35.8421179696
 20
43.5472503587
 30
0.0
 10
35.1984298943
 20
43.6466486162
 30
0.0
 10
34.5738629043
 20
43.7904702354
 30
0.0
 10
34.1688591871
 20
43.9164894363
 30
0.0
 10
33.9704661242
 20
43.9867467513
 30
0.0
  0
SPLINE
  5
343
100
AcDbEntity
  8
00_COMPONENTS_1
100
AcDbSpline
 62
7
  6
BYLAYER
 70
0
 71
3
 72
9
 73
5
 74
0
 42
0.0000001
 43
0.0000001
 44
0.0000000001
 40
0.0
 40
0.0
 40
0.0
 40
0.0
 40
0.4908861808
 40
1.0
 40
1.0
 40
1.0
 40
1.0
 10
37.5493700212
 20
45.2684406767
 30
0.0
 10
37.8623357542
 20
45.2663364382
 30
0.0
 10
38.5004019494
 20
45.293715994
 30
0.0
 10
39.1331493084
 20
45.3789489928
 30
0.0
 10
39.4527725228
 20
45.4355383992
 30
0.0
  0
SPLINE
  5
344
100
AcDbEntity
  8
00_COMPONENTS_1
100
AcDbSpline
 62
7
  6
BYLAYER
 70
0
 71
3
 72
9
 73
5
 74
0
 42
0.0000001
 43
0.0000001
 44
0.0000000001
 40
0.0
 40
0.0
 40
0.0
 40
0.0
 40
0.2463395174
 40
1.0
 40
1.0
 40
1.0
 40
1.0
 10
37.3455772018
 20
45.2627984245
 30
0.0
 10
37.3623156651
 20
45.2623202277
 30
0.0
 10
37.4302901457
 20
45.2613657035
 30
0.0
 10
37.498309568
 20
45.2642616336
 30
0.0
 10
37.5493700212
 20
45.2684406767
 30
0.0
  0
SPLINE
  5
345
100
AcDbEntity
  8
00_COMPONENTS_1
100
AcDbSpline
 62
7
  6
BYLAYER
 70
0
 71
3
 72
11
 73
7
 74
0
 42
0.0000001
 43
0.0000001
 44
0.0000000001
 40
0.0
 40
0.0
 40
0.0
 40
0.0
 40
0.2434830803
 40
0.4904892606
 40
0.7422836757
 40
1.0
 40
1.0
 40
1.0
 40
1.0
 10
34.5487999498
 20
45.8235774088
 30
0.0
 10
34.7647672846
 20
45.737084317
 30
0.0
 10
35.2083232155
 20
45.5833210051
 30
0.0
 10
35.8978197017
 20
45.4132446567
 30
0.0
 10
36.6130800909
 20
45.3028797661
 30
0.0
 10
37.099432252
 20
45.2697458305
 30
0.0
 10
37.3455772018
 20
45.2627984245
 30
0.0
  0
SPLINE
  5
346
100
AcDbEntity
  8
00_COMPONENTS_1
100
AcDbSpline
 62
7
  6
BYLAYER
 70
0
 71
3
 72
17
 73
13
 74
0
 42
0.0000001
 43
0.0000001
 44
0.0000000001
 40
0.0
 40
0.0
 40
0.0
 40
0.0
 40
0.1287493986
 40
0.2704588609
 40
0.4182777381
 40
0.563767024
 40
0.6985968197
 40
0.8163331561
 40
0.8679967896
 40
0.9150697982
 40
0.9585374488
 40
1.0
 40
1.0
 40
1.0
 40
1.0
 10
25.2083403931
 20
61.0117247487
 30
0.0
 10
25.2071304612
 20
61.2159330668
 30
0.0
 10
25.1441508596
 20
61.6449647214
 30
0.0
 10
24.9184919873
 20
62.2724028975
 30
0.0
 10
24.5733626614
 20
62.8736667017
 30
0.0
 10
24.1432698051
 20
63.4033693511
 30
0.0
 10
23.6628991259
 20
63.8180907539
 30
0.0
 10
23.2350589452
 20
64.0538005258
 30
0.0
 10
22.90289998
 20
64.1465707788
 30
0.0
 10
22.6766490159
 20
64.1665646187
 30
0.0
 10
22.4672726962
 20
64.1384013235
 30
0.0
 10
22.3408765926
 20
64.0867853664
 30
0.0
 10
22.2838789175
 20
64.0539792499
 30
0.0
  0
SPLINE
  5
347
100
AcDbEntity
  8
00_COMPONENTS_1
100
AcDbSpline
 62
7
  6
BYLAYER
 70
0
 71
3
 72
9
 73
5
 74
0
 42
0.0000001
 43
0.0000001
 44
0.0000000001
 40
0.0
 40
0.0
 40
0.0
 40
0.0
 40
0.2428310464
 40
1.0
 40
1.0
 40
1.0
 40
1.0
 10
25.1902184707
 20
60.7292483958
 30
0.0
 10
25.1934447475
 20
60.751943802
 30
0.0
 10
25.204782053
 20
60.8456789122
 30
0.0
 10
25.2087638905
 20
60.9402482407
 30
0.0
 10
25.2083403931
 20
61.0117247487
 30
0.0
  0
SPLINE
  5
348
100
AcDbEntity
  8
00_COMPONENTS_1
100
AcDbSpline
 62
7
  6
BYLAYER
 70
0
 71
3
 72
9
 73
5
 74
0
 42
0.0000001
 43
0.0000001
 44
0.0000000001
 40
0.0
 40
0.0
 40
0.0
 40
0.0
 40
0.5199966399
 40
1.0
 40
1.0
 40
1.0
 40
1.0
 10
19.6347928238
 20
67.5570697785
 30
0.0
 10
19.5963885957
 20
67.5152550873
 30
0.0
 10
19.5368056649
 20
67.4214923773
 30
0.0
 10
19.5085709733
 20
67.3126395193
 30
0.0
 10
19.5085709733
 20
67.2602315076
 30
0.0
  0
SPLINE
  5
349
100
AcDbEntity
  8
00_COMPONENTS_1
100
AcDbSpline
 62
7
  6
BYLAYER
 70
0
 71
3
 72
9
 73
5
 74
0
 42
0.0000001
 43
0.0000001
 44
0.0000000001
 40
0.0
 40
0.0
 40
0.0
 40
0.0
 40
0.2462126807
 40
1.0
 40
1.0
 40
1.0
 40
1.0
 10
19.5092176988
 20
67.2414922724
 30
0.0
 10
19.5282773436
 20
66.9712922766
 30
0.0
 10
19.5955730798
 20
65.8731693691
 30
0.0
 10
19.6230413837
 20
64.7726675385
 30
0.0
 10
19.6230413837
 20
63.943386872
 30
0.0
  0
SPLINE
  5
34A
100
AcDbEntity
  8
00_COMPONENTS_1
100
AcDbSpline
 62
7
  6
BYLAYER
 70
0
 71
3
 72
9
 73
5
 74
0
 42
0.0000001
 43
0.0000001
 44
0.0000000001
 40
0.0
 40
0.0
 40
0.0
 40
0.0
 40
0.4871801745
 40
1.0
 40
1.0
 40
1.0
 40
1.0
 10
19.6230413837
 20
63.943386872
 30
0.0
 10
19.6230413837
 20
62.2008354179
 30
0.0
 10
19.4359319706
 20
58.6225049554
 30
0.0
 10
18.9247266417
 20
55.0775098264
 30
0.0
 10
18.589693677
 20
53.2741071125
 30
0.0
  0
SPLINE
  5
34B
100
AcDbEntity
  8
00_COMPONENTS_1
100
AcDbSpline
 62
7
  6
BYLAYER
 70
0
 71
3
 72
11
 73
7
 74
0
 42
0.0000001
 43
0.0000001
 44
0.0000000001
 40
0.0
 40
0.0
 40
0.0
 40
0.0
 40
0.3009761334
 40
0.5656293487
 40
0.7945541009
 40
1.0
 40
1.0
 40
1.0
 40
1.0
 10
18.589693677
 20
53.2741071125
 30
0.0
 10
18.576262014
 20
53.2018073395
 30
0.0
 10
18.5622626688
 20
53.0633054691
 30
0.0
 10
18.5853198006
 20
52.8685910724
 30
0.0
 10
18.6544322325
 20
52.7088539528
 30
0.0
 10
18.7343609341
 20
52.6331566519
 30
0.0
 10
18.7778323107
 20
52.608058992
 30
0.0
  0
SPLINE
  5
34C
100
AcDbEntity
  8
00_COMPONENTS_1
100
AcDbSpline
 62
7
  6
BYLAYER
 70
0
 71
3
 72
16
 73
12
 74
0
 42
0.0000001
 43
0.0000001
 44
0.0000000001
 40
0.0
 40
0.0
 40
0.0
 40
0.0
 40
0.0433539698
 40
0.0880825118
 40
0.1854787966
 40
0.2978234567
 40
0.4254428824
 40
0.5652075128
 40
0.7117967226
 40
0.8589975943
 40
1.0
 40
1.0
 40
1.0
 40
1.0
 10
24.1600189213
 20
60.8650101365
 30
0.0
 10
24.1315361579
 20
60.8485348201
 30
0.0
 10
24.0696842915
 20
60.8214826642
 30
0.0
 10
23.9305744721
 20
60.7943360499
 30
0.0
 10
23.734211136
 20
60.8164717204
 30
0.0
 10
23.4973910626
 20
60.9204644995
 30
0.0
 10
23.2640839487
 20
61.0929259427
 30
0.0
 10
23.0480322078
 20
61.3230065117
 30
0.0
 10
22.8619200604
 20
61.5958942941
 30
0.0
 10
22.7172766587
 20
61.8937056239
 30
0.0
 10
22.6515742132
 20
62.1035113591
 30
0.0
 10
22.6287668718
 20
62.2080697103
 30
0.0
  0
SPLINE
  5
34D
100
AcDbEntity
  8
00_COMPONENTS_1
100
AcDbSpline
 62
7
  6
BYLAYER
 70
0
 71
3
 72
14
 73
10
 74
0
 42
0.0000001
 43
0.0000001
 44
0.0000000001
 40
0.0
 40
0.0
 40
0.0
 40
0.0
 40
0.2362133719
 40
0.365113806
 40
0.497799188
 40
0.6311170005
 40
0.7615288118
 40
0.8855276679
 40
1.0
 40
1.0
 40
1.0
 40
1.0
 10
25.4563607141
 20
54.1766552466
 30
0.0
 10
25.5536187058
 20
54.5844410049
 30
0.0
 10
25.5657717133
 20
55.2505174515
 30
0.0
 10
25.3845970575
 20
56.1161440232
 30
0.0
 10
25.1443771985
 20
56.7775133633
 30
0.0
 10
24.8138257596
 20
57.4009825927
 30
0.0
 10
24.4087983824
 20
57.960220852
 30
0.0
 10
23.9500812389
 20
58.4306998904
 30
0.0
 10
23.6054153387
 20
58.6813481855
 30
0.0
 10
23.4294720141
 20
58.7829286498
 30
0.0
  0
SPLINE
  5
34E
100
AcDbEntity
  8
00_COMPONENTS_1
100
AcDbSpline
 62
7
  6
BYLAYER
 70
0
 71
3
 72
9
 73
5
 74
0
 42
0.0000001
 43
0.0000001
 44
0.0000000001
 40
0.0
 40
0.0
 40
0.0
 40
0.0
 40
0.2461573252
 40
1.0
 40
1.0
 40
1.0
 40
1.0
 10
12.2843218593
 20
76.0212047274
 30
0.0
 10
12.9254856305
 20
75.5416806558
 30
0.0
 10
15.5486403478
 20
73.6184111884
 30
0.0
 10
18.2435230164
 20
71.7933051652
 30
0.0
 10
20.3083168562
 20
70.4709581141
 30
0.0
  0
SPLINE
  5
34F
100
AcDbEntity
  8
00_COMPONENTS_1
100
AcDbSpline
 62
7
  6
BYLAYER
 70
0
 71
3
 72
11
 73
7
 74
0
 42
0.0000001
 43
0.0000001
 44
0.0000000001
 40
0.0
 40
0.0
 40
0.0
 40
0.0
 40
0.2287373517
 40
0.466974003
 40
0.7226350434
 40
1.0
 40
1.0
 40
1.0
 40
1.0
 10
24.7001094531
 20
59.9067299738
 30
0.0
 10
24.7654261878
 20
59.944469962
 30
0.0
 10
24.8887370018
 20
60.0403113791
 30
0.0
 10
25.0342181886
 20
60.2319911792
 30
0.0
 10
25.1383443942
 20
60.4661353539
 30
0.0
 10
25.1773445116
 20
60.6386858832
 30
0.0
 10
25.1902184707
 20
60.7292483958
 30
0.0
  0
SPLINE
  5
350
100
AcDbEntity
  8
00_COMPONENTS_1
100
AcDbSpline
 62
7
  6
BYLAYER
 70
0
 71
3
 72
11
 73
7
 74
0
 42
0.0000001
 43
0.0000001
 44
0.0000000001
 40
0.0
 40
0.0
 40
0.0
 40
0.0
 40
0.2179369289
 40
0.451039552
 40
0.7104973011
 40
1.0
 40
1.0
 40
1.0
 40
1.0
 10
37.008281441
 20
52.2645531061
 30
0.0
 10
36.9917723803
 20
52.274073069
 30
0.0
 10
36.953889624
 20
52.2878822715
 30
0.0
 10
36.8909173122
 20
52.289445878
 30
0.0
 10
36.8238668837
 20
52.2732044319
 30
0.0
 10
36.7802235341
 20
52.252471067
 30
0.0
 10
36.7582998618
 20
52.2398135045
 30
0.0
  0
SPLINE
  5
351
100
AcDbEntity
  8
00_COMPONENTS_1
100
AcDbSpline
 62
7
  6
BYLAYER
 70
0
 71
3
 72
9
 73
5
 74
0
 42
0.0000001
 43
0.0000001
 44
0.0000000001
 40
0.0
 40
0.0
 40
0.0
 40
0.0
 40
0.2459455184
 40
1.0
 40
1.0
 40
1.0
 40
1.0
 10
11.6527881871
 20
54.2468971246
 30
0.0
 10
12.3227649222
 20
53.7399198078
 30
0.0
 10
15.0675479135
 20
51.7060249388
 30
0.0
 10
17.8925880156
 20
49.780848105
 30
0.0
 10
20.0596836318
 20
48.3883307992
 30
0.0
  0
SPLINE
  5
352
100
AcDbEntity
  8
00_COMPONENTS_1
100
AcDbSpline
 62
7
  6
BYLAYER
 70
0
 71
3
 72
17
 73
13
 74
0
 42
0.0000001
 43
0.0000001
 44
0.0000000001
 40
0.0
 40
0.0
 40
0.0
 40
0.0
 40
0.0459708749
 40
0.0928638242
 40
0.1419342391
 40
0.194117389
 40
0.3093975417
 40
0.4394222703
 40
0.5802180984
 40
0.7253874337
 40
0.8675949836
 40
1.0
 40
1.0
 40
1.0
 40
1.0
 10
49.5969160533
 20
19.6902788649
 30
0.0
 10
49.6959266401
 20
19.7474122821
 30
0.0
 10
49.8832520199
 20
19.8865291223
 30
0.0
 10
50.1133254553
 20
20.1578204071
 30
0.0
 10
50.2876489654
 20
20.4852857511
 30
0.0
 10
50.4466582948
 20
21.0025829852
 30
0.0
 10
50.4775662136
 20
21.7537615629
 30
0.0
 10
50.2750927387
 20
22.6997170002
 30
0.0
 10
49.8563831885
 20
23.6525572871
 30
0.0
 10
49.2567351345
 20
24.5391269076
 30
0.0
 10
48.5265032763
 20
25.2922050352
 30
0.0
 10
47.9620997532
 20
25.6872833444
 30
0.0
 10
47.6715618481
 20
25.8421636275
 30
0.0
  0
SPLINE
  5
353
100
AcDbEntity
  8
00_COMPONENTS_1
100
AcDbSpline
 62
7
  6
BYLAYER
 70
0
 71
3
 72
9
 73
5
 74
0
 42
0.0000001
 43
0.0000001
 44
0.0000000001
 40
0.0
 40
0.0
 40
0.0
 40
0.0
 40
0.2650606588
 40
1.0
 40
1.0
 40
1.0
 40
1.0
 10
47.6715618481
 20
25.8421636275
 30
0.0
 10
47.5929575629
 20
25.8840662577
 30
0.0
 10
47.2913520432
 20
26.0320166984
 30
0.0
 10
46.9675858485
 20
26.1384452407
 30
0.0
 10
46.7241399577
 20
26.1800880973
 30
0.0
  0
SPLINE
  5
354
100
AcDbEntity
  8
00_COMPONENTS_1
100
AcDbSpline
 62
7
  6
BYLAYER
 70
0
 71
3
 72
11
 73
7
 74
0
 42
0.0000001
 43
0.0000001
 44
0.0000000001
 40
0.0
 40
0.0
 40
0.0
 40
0.0
 40
0.2894517677
 40
0.5489688303
 40
0.7820614808
 40
1.0
 40
1.0
 40
1.0
 40
1.0
 10
85.5246623339
 20
74.3614668909
 30
0.0
 10
85.5246623339
 20
74.3108435949
 30
0.0
 10
85.5324115015
 20
74.2145154553
 30
0.0
 10
85.5713093996
 20
74.0821294533
 30
0.0
 10
85.6369901825
 20
73.9746052959
 30
0.0
 10
85.698802128
 20
73.9228033345
 30
0.0
 10
85.7318112421
 20
73.9037446413
 30
0.0
  0
SPLINE
  5
355
100
AcDbEntity
  8
00_COMPONENTS_1
100
AcDbSpline
 62
7
  6
BYLAYER
 70
0
 71
3
 72
11
 73
7
 74
0
 42
0.0000001
 43
0.0000001
 44
0.0000000001
 40
0.0
 40
0.0
 40
0.0
 40
0.0
 40
0.2277108509
 40
0.4759499745
 40
0.7366034294
 40
1.0
 40
1.0
 40
1.0
 40
1.0
 10
88.9187607525
 20
64.50028621
 30
0.0
 10
88.9187607525
 20
64.3624421094
 30
0.0
 10
88.8876027056
 20
64.0740160751
 30
0.0
 10
88.7669249638
 20
63.6431082554
 30
0.0
 10
88.5766746352
 20
63.2144354754
 30
0.0
 10
88.4090073307
 20
62.9437375744
 30
0.0
 10
88.3157092762
 20
62.8144371078
 30
0.0
  0
SPLINE
  5
356
100
AcDbEntity
  8
00_COMPONENTS_1
100
AcDbSpline
 62
7
  6
BYLAYER
 70
0
 71
3
 72
10
 73
6
 74
0
 42
0.0000001
 43
0.0000001
 44
0.0000000001
 40
0.0
 40
0.0
 40
0.0
 40
0.0
 40
0.5234513602
 40
0.7720801968
 40
1.0
 40
1.0
 40
1.0
 40
1.0
 10
85.826188072
 20
59.3642445496
 30
0.0
 10
85.7336001665
 20
59.2359282686
 30
0.0
 10
85.6219368412
 20
59.0262911854
 30
0.0
 10
85.5403090116
 20
58.7344680784
 30
0.0
 10
85.5246623339
 20
58.5902172624
 30
0.0
 10
85.5246623339
 20
58.5213199986
 30
0.0
  0
SPLINE
  5
357
100
AcDbEntity
  8
00_COMPONENTS_1
100
AcDbSpline
 62
7
  6
BYLAYER
 70
0
 71
3
 72
15
 73
11
 74
0
 42
0.0000001
 43
0.0000001
 44
0.0000000001
 40
0.0
 40
0.0
 40
0.0
 40
0.0
 40
0.1141236058
 40
0.2373475862
 40
0.3669728832
 40
0.5000004526
 40
0.6330279586
 40
0.7626530685
 40
0.8858767805
 40
1.0
 40
1.0
 40
1.0
 40
1.0
 10
59.1070445333
 20
116.9988371025
 30
0.0
 10
59.2280291742
 20
116.9289881677
 30
0.0
 10
59.4926998899
 20
116.8058026872
 30
0.0
 10
59.9236009242
 20
116.674752592
 30
0.0
 10
60.3901975564
 20
116.5941855678
 30
0.0
 10
60.8748142239
 20
116.5669389836
 30
0.0
 10
61.3594305364
 20
116.5941878125
 30
0.0
 10
61.8260261558
 20
116.6747570186
 30
0.0
 10
62.2569254823
 20
116.8058092137
 30
0.0
 10
62.5215947115
 20
116.9289960301
 30
0.0
 10
62.6425784392
 20
116.9988456009
 30
0.0
  0
SPLINE
  5
358
100
AcDbEntity
  8
00_COMPONENTS_1
100
AcDbSpline
 62
7
  6
BYLAYER
 70
0
 71
3
 72
11
 73
7
 74
0
 42
0.0000001
 43
0.0000001
 44
0.0000000001
 40
0.0
 40
0.0
 40
0.0
 40
0.0
 40
0.22190023
 40
0.4629753128
 40
0.7228613644
 40
1.0
 40
1.0
 40
1.0
 40
1.0
 10
34.4472502631
 20
105.8234143816
 30
0.0
 10
34.8091559041
 20
105.4027384556
 30
0.0
 10
35.6480175257
 20
104.5953734016
 30
0.0
 10
37.1302878412
 20
103.5511348175
 30
0.0
 10
38.8566695638
 20
102.6432337172
 30
0.0
 10
40.1109515555
 20
102.155101163
 30
0.0
 10
40.7683497681
 20
101.9356261345
 30
0.0
  0
SPLINE
  5
359
100
AcDbEntity
  8
00_COMPONENTS_1
100
AcDbSpline
 62
7
  6
BYLAYER
 70
0
 71
3
 72
11
 73
7
 74
0
 42
0.0000001
 43
0.0000001
 44
0.0000000001
 40
0.0
 40
0.0
 40
0.0
 40
0.0
 40
0.2218923088
 40
0.4629671725
 40
0.7228537889
 40
1.0
 40
1.0
 40
1.0
 40
1.0
 10
43.9932315526
 20
100.3121641956
 30
0.0
 10
44.3552512453
 20
99.8913556968
 30
0.0
 10
45.1944204008
 20
99.0837454993
 30
0.0
 10
46.6772669645
 20
98.0392491889
 30
0.0
 10
48.4043603021
 20
97.1311845068
 30
0.0
 10
49.6591588474
 20
96.6430173801
 30
0.0
 10
50.3168341499
 20
96.4235446256
 30
0.0
  0
SPLINE
  5
35A
100
AcDbEntity
  8
00_COMPONENTS_1
100
AcDbSpline
 62
7
  6
BYLAYER
 70
0
 71
3
 72
11
 73
7
 74
0
 42
0.0000001
 43
0.0000001
 44
0.0000000001
 40
0.0
 40
0.0
 40
0.0
 40
0.0
 40
0.2196826946
 40
0.4603118778
 40
0.7212231601
 40
1.0
 40
1.0
 40
1.0
 40
1.0
 10
53.5392128421
 20
94.8009140096
 30
0.0
 10
53.9419905829
 20
94.332728715
 30
0.0
 10
54.8900599131
 20
93.4391619327
 30
0.0
 10
56.5806401839
 20
92.3070761536
 30
0.0
 10
58.5601115119
 20
91.3476290538
 30
0.0
 10
59.998363003
 20
90.8528876392
 30
0.0
 10
60.7517320386
 20
90.6368583135
 30
0.0
  0
SPLINE
  5
35B
100
AcDbEntity
  8
00_COMPONENTS_1
100
AcDbSpline
 62
7
  6
BYLAYER
 70
0
 71
3
 72
20
 73
16
 74
0
 42
0.0000001
 43
0.0000001
 44
0.0000000001
 40
0.0
 40
0.0
 40
0.0
 40
0.0
 40
0.064145207
 40
0.132590683
 40
0.278452924
 40
0.4294716532
 40
0.5763227719
 40
0.6454611038
 40
0.7104330871
 40
0.7705243397
 40
0.8253294621
 40
0.8748240234
 40
0.9195304346
 40
0.9606341639
 40
1.0
 40
1.0
 40
1.0
 40
1.0
 10
30.9268491228
 20
89.8696806237
 30
0.0
 10
30.9268491228
 20
90.0257742343
 30
0.0
 10
30.9067858847
 20
90.3486194266
 30
0.0
 10
30.7953648194
 20
91.0178847167
 30
0.0
 10
30.5271374331
 20
91.8705599709
 30
0.0
 10
30.0451927379
 20
92.8410117033
 30
0.0
 10
29.5283881169
 20
93.5747680626
 30
0.0
 10
29.0647415582
 20
94.0783581656
 30
0.0
 10
28.7123200061
 20
94.3944602813
 30
0.0
 10
28.3556718954
 20
94.6499370746
 30
0.0
 10
28.0019806303
 20
94.8396966101
 30
0.0
 10
27.6577645721
 20
94.9593777686
 30
0.0
 10
27.3291171588
 20
95.0054610517
 30
0.0
 10
27.0227416458
 20
94.9746548267
 30
0.0
 10
26.8379817331
 20
94.9008532848
 30
0.0
 10
26.7550223965
 20
94.8529541501
 30
0.0
  0
SPLINE
  5
35C
100
AcDbEntity
  8
00_COMPONENTS_1
100
AcDbSpline
 62
7
  6
BYLAYER
 70
0
 71
3
 72
17
 73
13
 74
0
 42
0.0000001
 43
0.0000001
 44
0.0000000001
 40
0.0
 40
0.0
 40
0.0
 40
0.0
 40
0.1254819034
 40
0.2632457501
 40
0.4072139242
 40
0.5499318959
 40
0.6840970598
 40
0.8040525595
 40
0.8580271032
 40
0.9081266749
 40
0.9550623234
 40
1.0
 40
1.0
 40
1.0
 40
1.0
 10
50.4522504021
 20
79.0974247043
 30
0.0
 10
50.4522504025
 20
79.4168673621
 30
0.0
 10
50.3531780919
 20
80.0880937454
 30
0.0
 10
49.9810990469
 20
81.0622630178
 30
0.0
 10
49.4114524512
 20
81.9875648027
 30
0.0
 10
48.6927029194
 20
82.7901342103
 30
0.0
 10
47.8851650719
 20
83.4073998459
 30
0.0
 10
47.1633620823
 20
83.7388726595
 30
0.0
 10
46.6025040606
 20
83.8544813979
 30
0.0
 10
46.2159309282
 20
83.8656781678
 30
0.0
 10
45.8572508227
 20
83.8032016006
 30
0.0
 10
45.6396062603
 20
83.7107504467
 30
0.0
 10
45.5405237068
 20
83.6535683622
 30
0.0
  0
SPLINE
  5
35D
100
AcDbEntity
  8
00_COMPONENTS_1
100
AcDbSpline
 62
7
  6
BYLAYER
 70
0
 71
3
 72
18
 73
14
 74
0
 42
0.0000001
 43
0.0000001
 44
0.0000000001
 40
0.0
 40
0.0
 40
0.0
 40
0.0
 40
0.1287686027
 40
0.2703908937
 40
0.4177646138
 40
0.562531139
 40
0.6966456363
 40
0.7577911202
 40
0.8142979025
 40
0.8661055588
 40
0.91360174
 40
0.9577350225
 40
1.0
 40
1.0
 40
1.0
 40
1.0
 10
40.2999038144
 20
84.2585918158
 30
0.0
 10
40.2999038144
 20
84.5787660113
 30
0.0
 10
40.2082363574
 20
85.251900965
 30
0.0
 10
39.8661511873
 20
86.2380524662
 30
0.0
 10
39.3412317866
 20
87.1862957363
 30
0.0
 10
38.6786983782
 20
88.0195569582
 30
0.0
 10
38.0382430704
 20
88.5812793661
 30
0.0
 10
37.5029481917
 20
88.9085446837
 30
0.0
 10
37.1166725432
 20
89.0803472266
 30
0.0
 10
36.7410184811
 20
89.1822279004
 30
0.0
 10
36.3830556607
 20
89.210802385
 30
0.0
 10
36.0504471117
 20
89.1640452294
 30
0.0
 10
35.8492889947
 20
89.0809316952
 30
0.0
 10
35.7582700527
 20
89.0284032627
 30
0.0
  0
SPLINE
  5
35E
100
AcDbEntity
  8
00_COMPONENTS_1
100
AcDbSpline
 62
7
  6
BYLAYER
 70
0
 71
3
 72
11
 73
7
 74
0
 42
0.0000001
 43
0.0000001
 44
0.0000000001
 40
0.0
 40
0.0
 40
0.0
 40
0.0
 40
0.2372993506
 40
0.4832318768
 40
0.7375794905
 40
1.0
 40
1.0
 40
1.0
 40
1.0
 10
22.9457107274
 20
31.1275091054
 30
0.0
 10
25.2407251708
 20
29.3873453209
 30
0.0
 10
30.0366225301
 20
26.0026902863
 30
0.0
 10
37.6626615989
 20
21.3041609252
 30
0.0
 10
45.8171382865
 20
16.9125739487
 30
0.0
 10
51.4963356711
 20
14.2425521573
 30
0.0
 10
54.4120934965
 20
12.9607955292
 30
0.0
  0
SPLINE
  5
35F
100
AcDbEntity
  8
00_COMPONENTS_1
100
AcDbSpline
 62
7
  6
BYLAYER
 70
0
 71
3
 72
12
 73
8
 74
0
 42
0.0000001
 43
0.0000001
 44
0.0000000001
 40
0.0
 40
0.0
 40
0.0
 40
0.0
 40
0.1090235117
 40
0.2199782552
 40
0.4537197693
 40
0.7122518097
 40
1.0
 40
1.0
 40
1.0
 40
1.0
 10
39.508267745
 20
82.533179081
 30
0.0
 10
39.570716358
 20
82.5692242777
 30
0.0
 10
39.6908251777
 20
82.6527678419
 30
0.0
 10
39.9062701947
 20
82.863308066
 30
0.0
 10
40.120444479
 20
83.2073794654
 30
0.0
 10
40.2702334081
 20
83.7056574619
 30
0.0
 10
40.2999038144
 20
84.0682843119
 30
0.0
 10
40.2999038144
 20
84.2585918158
 30
0.0
  0
SPLINE
  5
360
100
AcDbEntity
  8
00_COMPONENTS_1
100
AcDbSpline
 62
7
  6
BYLAYER
 70
0
 71
3
 72
11
 73
7
 74
0
 42
0.0000001
 43
0.0000001
 44
0.0000000001
 40
0.0
 40
0.0
 40
0.0
 40
0.0
 40
0.2272625516
 40
0.4638027172
 40
0.7196276462
 40
1.0
 40
1.0
 40
1.0
 40
1.0
 10
49.5969625592
 20
77.3352780682
 30
0.0
 10
49.731313248
 20
77.412797371
 30
0.0
 10
49.9819615835
 20
77.6159913808
 30
0.0
 10
50.2555454281
 20
78.0318435411
 30
0.0
 10
50.4195726274
 20
78.5386254077
 30
0.0
 10
50.4522504019
 20
78.9060655454
 30
0.0
 10
50.4522504021
 20
79.0974247043
 30
0.0
  0
SPLINE
  5
361
100
AcDbEntity
  8
00_COMPONENTS_1
100
AcDbSpline
 62
7
  6
BYLAYER
 70
0
 71
3
 72
12
 73
8
 74
0
 42
0.0000001
 43
0.0000001
 44
0.0000000001
 40
0.0
 40
0.0
 40
0.0
 40
0.0
 40
0.1040602457
 40
0.2113246895
 40
0.4422317662
 40
0.7040083548
 40
1.0
 40
1.0
 40
1.0
 40
1.0
 10
30.1985563917
 20
88.180839526
 30
0.0
 10
30.2562390454
 20
88.2141335102
 30
0.0
 10
30.3673875721
 20
88.29273725
 30
0.0
 10
30.5669464867
 20
88.4951992326
 30
0.0
 10
30.7638116962
 20
88.8320792462
 30
0.0
 10
30.900097903
 20
89.3220795371
 30
0.0
 10
30.9268491228
 20
89.6802372134
 30
0.0
 10
30.9268491228
 20
89.8696806237
 30
0.0
  0
SPLINE
  5
362
100
AcDbEntity
  8
00_COMPONENTS_1
100
AcDbSpline
 62
7
  6
BYLAYER
 70
0
 71
3
 72
11
 73
7
 74
0
 42
0.0000001
 43
0.0000001
 44
0.0000000001
 40
0.0
 40
0.0
 40
0.0
 40
0.0
 40
0.2177817009
 40
0.4509079353
 40
0.7102947134
 40
1.0
 40
1.0
 40
1.0
 40
1.0
 10
79.3759754378
 20
105.894697078
 30
0.0
 10
79.3759754555
 20
105.7994760436
 30
0.0
 10
79.4111643436
 20
105.6010052671
 30
0.0
 10
79.5616257532
 20
105.3244719719
 30
0.0
 10
79.7994838484
 20
105.0744972199
 30
0.0
 10
79.9985047871
 20
104.9374197669
 30
0.0
 10
80.1082033701
 20
104.8740866933
 30
0.0
  0
SPLINE
  5
363
100
AcDbEntity
  8
00_COMPONENTS_1
100
AcDbSpline
 62
7
  6
BYLAYER
 70
0
 71
3
 72
11
 73
7
 74
0
 42
0.0000001
 43
0.0000001
 44
0.0000000001
 40
0.0
 40
0.0
 40
0.0
 40
0.0
 40
0.2178456645
 40
0.4509551558
 40
0.7102711089
 40
1.0
 40
1.0
 40
1.0
 40
1.0
 10
88.5045214162
 20
73.2171913532
 30
0.0
 10
88.5705263329
 20
73.1791126451
 30
0.0
 10
88.6939915755
 20
73.0753365981
 30
0.0
 10
88.8253330766
 20
72.8604495779
 30
0.0
 10
88.9034318199
 20
72.5957027317
 30
0.0
 10
88.9187607525
 20
72.4029902324
 30
0.0
 10
88.9187607525
 20
72.3016445566
 30
0.0
  0
SPLINE
  5
364
100
AcDbEntity
  8
00_COMPONENTS_1
100
AcDbSpline
 62
7
  6
BYLAYER
 70
0
 71
3
 72
11
 73
7
 74
0
 42
0.0000001
 43
0.0000001
 44
0.0000000001
 40
0.0
 40
0.0
 40
0.0
 40
0.0
 40
0.2921021397
 40
0.5523513045
 40
0.7843837004
 40
1.0
 40
1.0
 40
1.0
 40
1.0
 10
22.59203441
 20
62.5222155404
 30
0.0
 10
22.5916464943
 20
62.5876866867
 30
0.0
 10
22.6005570226
 20
62.7119450818
 30
0.0
 10
22.6486537513
 20
62.8826515415
 30
0.0
 10
22.7310941168
 20
63.0208293989
 30
0.0
 10
22.8093860125
 20
63.0872575118
 30
0.0
 10
22.8512189417
 20
63.1114579621
 30
0.0
  0
SPLINE
  5
365
100
AcDbEntity
  8
00_COMPONENTS_1
100
AcDbSpline
 62
7
  6
BYLAYER
 70
0
 71
3
 72
9
 73
5
 74
0
 42
0.0000001
 43
0.0000001
 44
0.0000000001
 40
0.0
 40
0.0
 40
0.0
 40
0.0
 40
0.2614974556
 40
1.0
 40
1.0
 40
1.0
 40
1.0
 10
22.6287668718
 20
62.2080697103
 30
0.0
 10
22.6228853013
 20
62.2350332792
 30
0.0
 10
22.6024889451
 20
62.3385769645
 30
0.0
 10
22.5924961905
 20
62.4442777573
 30
0.0
 10
22.59203441
 20
62.5222155404
 30
0.0
  0
SPLINE
  5
366
100
AcDbEntity
  8
00_COMPONENTS_1
100
AcDbSpline
 62
7
  6
BYLAYER
 70
0
 71
3
 72
9
 73
5
 74
0
 42
0.0000001
 43
0.0000001
 44
0.0000000001
 40
0.0
 40
0.0
 40
0.0
 40
0.0
 40
0.2492091501
 40
1.0
 40
1.0
 40
1.0
 40
1.0
 10
14.2198351474
 20
58.9326714063
 30
0.0
 10
14.4461964958
 20
58.7685756964
 30
0.0
 10
15.3572903052
 20
58.1139458061
 30
0.0
 10
16.2794057129
 20
57.4746602199
 30
0.0
 10
16.9775278636
 20
57.0033925658
 30
0.0
  0
SPLINE
  5
367
100
AcDbEntity
  8
00_COMPONENTS_1
100
AcDbSpline
 62
7
  6
BYLAYER
 70
0
 71
3
 72
9
 73
5
 74
0
 42
0.0000001
 43
0.0000001
 44
0.0000000001
 40
0.0
 40
0.0
 40
0.0
 40
0.0
 40
0.2481849069
 40
1.0
 40
1.0
 40
1.0
 40
1.0
 10
33.7557282777
 20
59.7749459699
 30
0.0
 10
33.669485131
 20
59.4685902301
 30
0.0
 10
33.3143375809
 20
58.2363700671
 30
0.0
 10
32.9288893461
 20
57.0128997286
 30
0.0
 10
32.6229412455
 20
56.0986311805
 30
0.0
  0
SPLINE
  5
368
100
AcDbEntity
  8
00_COMPONENTS_1
100
AcDbSpline
 62
7
  6
BYLAYER
 70
0
 71
3
 72
11
 73
7
 74
0
 42
0.0000001
 43
0.0000001
 44
0.0000000001
 40
0.0
 40
0.0
 40
0.0
 40
0.0
 40
0.2655665896
 40
0.5191757659
 40
0.7629604423
 40
1.0
 40
1.0
 40
1.0
 40
1.0
 10
39.2871135676
 20
45.4620035148
 30
0.0
 10
38.8680241203
 20
45.3941656098
 30
0.0
 10
38.04035382
 20
45.3069014992
 30
0.0
 10
36.8174786395
 20
45.3314595233
 30
0.0
 10
35.6541049513
 20
45.5157641344
 30
0.0
 10
34.9174934888
 20
45.7471589212
 30
0.0
 10
34.565814616
 20
45.8882884044
 30
0.0
  0
SPLINE
  5
369
100
AcDbEntity
  8
00_COMPONENTS_1
100
AcDbSpline
 62
7
  6
BYLAYER
 70
0
 71
3
 72
10
 73
6
 74
0
 42
0.0000001
 43
0.0000001
 44
0.0000000001
 40
0.0
 40
0.0
 40
0.0
 40
0.0
 40
0.2291076165
 40
0.4812079632
 40
1.0
 40
1.0
 40
1.0
 40
1.0
 10
36.7582998618
 20
52.2398135045
 30
0.0
 10
36.722110434
 20
52.2189196533
 30
0.0
 10
36.6517410058
 20
52.1649863657
 30
0.0
 10
36.5301299548
 20
52.02838993
 30
0.0
 10
36.4633892029
 20
51.900540562
 30
0.0
 10
36.4350386269
 20
51.8102628453
 30
0.0
  0
SPLINE
  5
36A
100
AcDbEntity
  8
00_COMPONENTS_1
100
AcDbSpline
 62
7
  6
BYLAYER
 70
0
 71
3
 72
9
 73
5
 74
0
 42
0.0000001
 43
0.0000001
 44
0.0000000001
 40
0.0
 40
0.0
 40
0.0
 40
0.0
 40
0.5094948082
 40
1.0
 40
1.0
 40
1.0
 40
1.0
 10
40.3738454407
 20
50.8597523022
 30
0.0
 10
39.9461883064
 20
50.883216999
 30
0.0
 10
39.1080950814
 20
51.0167169594
 30
0.0
 10
38.3244181961
 20
51.3467186119
 30
0.0
 10
37.9673425633
 20
51.5529194702
 30
0.0
  0
SPLINE
  5
36B
100
AcDbEntity
  8
00_COMPONENTS_1
100
AcDbSpline
 62
7
  6
BYLAYER
 70
0
 71
3
 72
13
 73
9
 74
0
 42
0.0000001
 43
0.0000001
 44
0.0000000001
 40
0.0
 40
0.0
 40
0.0
 40
0.0
 40
0.3073128324
 40
0.5810254191
 40
0.7009384486
 40
0.8090447722
 40
0.9073422649
 40
1.0
 40
1.0
 40
1.0
 40
1.0
 10
24.3288257884
 20
48.6894094803
 30
0.0
 10
24.2787104673
 20
48.584790076
 30
0.0
 10
24.2032412143
 20
48.3770595011
 30
0.0
 10
24.17175153
 20
48.1105180501
 30
0.0
 10
24.1969294312
 20
47.9218026648
 30
0.0
 10
24.2377533392
 20
47.8044731437
 30
0.0
 10
24.3007885552
 20
47.7091810835
 30
0.0
 10
24.3576865964
 20
47.6626974545
 30
0.0
 10
24.3879769598
 20
47.6452097126
 30
0.0
  0
SPLINE
  5
36C
100
AcDbEntity
  8
00_COMPONENTS_1
100
AcDbSpline
 62
7
  6
BYLAYER
 70
0
 71
3
 72
9
 73
5
 74
0
 42
0.0000001
 43
0.0000001
 44
0.0000000001
 40
0.0
 40
0.0
 40
0.0
 40
0.0
 40
0.4922815408
 40
1.0
 40
1.0
 40
1.0
 40
1.0
 10
29.9315709678
 20
63.9429068053
 30
0.0
 10
29.2678690326
 20
61.3570542591
 30
0.0
 10
27.6385627453
 20
56.1735909533
 30
0.0
 10
25.5183366332
 20
51.1725908702
 30
0.0
 10
24.3288257884
 20
48.6894094803
 30
0.0
  0
SPLINE
  5
36D
100
AcDbEntity
  8
00_COMPONENTS_1
100
AcDbSpline
 62
7
  6
BYLAYER
 70
0
 71
3
 72
9
 73
5
 74
0
 42
0.0000001
 43
0.0000001
 44
0.0000000001
 40
0.0
 40
0.0
 40
0.0
 40
0.0
 40
0.4901900122
 40
1.0
 40
1.0
 40
1.0
 40
1.0
 10
11.5613395371
 20
42.1095819472
 30
0.0
 10
14.0750418374
 20
40.2012029291
 30
0.0
 10
19.351716817
 20
36.5011160107
 30
0.0
 10
24.8678770923
 20
33.1708660452
 30
0.0
 10
27.729221678
 20
31.5625670399
 30
0.0
  0
SPLINE
  5
36E
100
AcDbEntity
  8
00_COMPONENTS_1
100
AcDbSpline
 62
7
  6
BYLAYER
 70
0
 71
3
 72
9
 73
5
 74
0
 42
0.0000001
 43
0.0000001
 44
0.0000000001
 40
0.0
 40
0.0
 40
0.0
 40
0.0
 40
0.2448643849
 40
1.0
 40
1.0
 40
1.0
 40
1.0
 10
28.0452104085
 20
38.0970823968
 30
0.0
 10
29.2257061996
 20
37.4371021441
 30
0.0
 10
34.0810799706
 20
34.8035328076
 30
0.0
 10
39.0673251015
 20
32.4128645093
 30
0.0
 10
42.8863003611
 20
30.7361663908
 30
0.0
  0
SPLINE
  5
36F
100
AcDbEntity
  8
00_COMPONENTS_1
100
AcDbSpline
 62
7
  6
BYLAYER
 70
0
 71
3
 72
9
 73
5
 74
0
 42
0.0000001
 43
0.0000001
 44
0.0000000001
 40
0.0
 40
0.0
 40
0.0
 40
0.0
 40
0.2513734322
 40
1.0
 40
1.0
 40
1.0
 40
1.0
 10
39.7077786374
 20
25.0300742148
 30
0.0
 10
39.6922253753
 20
25.0166677115
 30
0.0
 10
39.629135147
 20
24.9647644017
 30
0.0
 10
39.5611855196
 20
24.9187581126
 30
0.0
 10
39.5082303029
 20
24.8881737699
 30
0.0
  0
SPLINE
  5
370
100
AcDbEntity
  8
00_COMPONENTS_1
100
AcDbSpline
 62
7
  6
BYLAYER
 70
0
 71
3
 72
13
 73
9
 74
0
 42
0.0000001
 43
0.0000001
 44
0.0000000001
 40
0.0
 40
0.0
 40
0.0
 40
0.0
 40
0.0926577351
 40
0.1909552279
 40
0.2990615516
 40
0.4189745811
 40
0.6926871678
 40
1.0
 40
1.0
 40
1.0
 40
1.0
 10
32.1661839342
 20
43.1545614141
 30
0.0
 10
32.135893571
 20
43.1720491563
 30
0.0
 10
32.0789955303
 20
43.2185327856
 30
0.0
 10
32.0159603149
 20
43.3138248459
 30
0.0
 10
31.9751364074
 20
43.4311543669
 30
0.0
 10
31.9499585067
 20
43.619869752
 30
0.0
 10
31.9814481912
 20
43.8864112022
 30
0.0
 10
32.056917444
 20
44.0941417766
 30
0.0
 10
32.107032765
 20
44.1987611806
 30
0.0
  0
SPLINE
  5
371
100
AcDbEntity
  8
00_COMPONENTS_1
100
AcDbSpline
 62
7
  6
BYLAYER
 70
0
 71
3
 72
9
 73
5
 74
0
 42
0.0000001
 43
0.0000001
 44
0.0000000001
 40
0.0
 40
0.0
 40
0.0
 40
0.0
 40
0.2512425441
 40
1.0
 40
1.0
 40
1.0
 40
1.0
 10
31.5875995948
 20
66.042109528
 30
0.0
 10
31.3109079852
 20
66.1878918073
 30
0.0
 10
30.2112612924
 20
66.7712552949
 30
0.0
 10
29.1182541249
 20
67.3671396142
 30
0.0
 10
28.3038628764
 20
67.8204519513
 30
0.0
  0
SPLINE
  5
372
100
AcDbEntity
  8
00_COMPONENTS_1
100
AcDbSpline
 62
7
  6
BYLAYER
 70
0
 71
3
 72
9
 73
5
 74
0
 42
0.0000001
 43
0.0000001
 44
0.0000000001
 40
0.0
 40
0.0
 40
0.0
 40
0.0
 40
0.2542562218
 40
1.0
 40
1.0
 40
1.0
 40
1.0
 10
20.3083168562
 20
72.5938643987
 30
0.0
 10
19.5473176537
 20
73.0812278497
 30
0.0
 10
16.5725388426
 20
75.0263471279
 30
0.0
 10
13.672421186
 20
77.0861770081
 30
0.0
 10
11.5613395371
 20
78.6888902346
 30
0.0
  0
SPLINE
  5
373
100
AcDbEntity
  8
00_COMPONENTS_1
100
AcDbSpline
 62
7
  6
BYLAYER
 70
0
 71
3
 72
9
 73
5
 74
0
 42
0.0000001
 43
0.0000001
 44
0.0000000001
 40
0.0
 40
0.0
 40
0.0
 40
0.0
 40
0.2534759724
 40
1.0
 40
1.0
 40
1.0
 40
1.0
 10
28.3038628764
 20
43.3253794375
 30
0.0
 10
27.5876943175
 20
43.7240183518
 30
0.0
 10
24.7745164624
 20
45.3185113989
 30
0.0
 10
22.0111124709
 20
47.0011082548
 30
0.0
 10
19.9818417639
 20
48.3084990977
 30
0.0
  0
SPLINE
  5
374
100
AcDbEntity
  8
00_COMPONENTS_1
100
AcDbSpline
 62
7
  6
BYLAYER
 70
0
 71
3
 72
9
 73
5
 74
0
 42
0.0000001
 43
0.0000001
 44
0.0000000001
 40
0.0
 40
0.0
 40
0.0
 40
0.0
 40
0.254107658
 40
1.0
 40
1.0
 40
1.0
 40
1.0
 10
19.9818417639
 20
48.3084990977
 30
0.0
 10
19.2502342885
 20
48.7798491797
 30
0.0
 10
16.3882050716
 20
50.6611141144
 30
0.0
 10
13.5960273028
 20
52.649102008
 30
0.0
 10
11.5613395371
 20
54.1938177207
 30
0.0
  0
SPLINE
  5
375
100
AcDbEntity
  8
00_COMPONENTS_1
100
AcDbSpline
 62
7
  6
BYLAYER
 70
0
 71
3
 72
11
 73
7
 74
0
 42
0.0000001
 43
0.0000001
 44
0.0000000001
 40
0.0
 40
0.0
 40
0.0
 40
0.0
 40
0.2897048043
 40
0.5490913404
 40
0.7822177947
 40
1.0
 40
1.0
 40
1.0
 40
1.0
 10
80.1081886503
 20
106.9152989643
 30
0.0
 10
79.9984921193
 20
106.8519660206
 30
0.0
 10
79.7994749596
 20
106.7148891414
 30
0.0
 10
79.5616217258
 20
106.4649162303
 30
0.0
 10
79.411163568
 20
106.188385627
 30
0.0
 10
79.3759754202
 20
105.9899171067
 30
0.0
 10
79.3759754378
 20
105.894697078
 30
0.0
  0
SPLINE
  5
376
100
AcDbEntity
  8
00_COMPONENTS_1
100
AcDbSpline
 62
7
  6
BYLAYER
 70
0
 71
3
 72
9
 73
5
 74
0
 42
0.0000001
 43
0.0000001
 44
0.0000000001
 40
0.0
 40
0.0
 40
0.0
 40
0.0
 40
0.2648054077
 40
1.0
 40
1.0
 40
1.0
 40
1.0
 10
24.4305196954
 20
61.4607895787
 30
0.0
 10
24.4306637806
 20
61.4364713517
 30
0.0
 10
24.4286533737
 20
61.344678783
 30
0.0
 10
24.4144443268
 20
61.2528608862
 30
0.0
 10
24.3955459652
 20
61.1880424012
 30
0.0
  0
SPLINE
  5
377
100
AcDbEntity
  8
00_COMPONENTS_1
100
AcDbSpline
 62
7
  6
BYLAYER
 70
0
 71
3
 72
9
 73
5
 74
0
 42
0.0000001
 43
0.0000001
 44
0.0000000001
 40
0.0
 40
0.0
 40
0.0
 40
0.0
 40
0.4800022545
 40
1.0
 40
1.0
 40
1.0
 40
1.0
 10
27.2867779499
 20
62.7695832079
 30
0.0
 10
27.2867779499
 20
62.8219910991
 30
0.0
 10
27.3150125827
 20
62.930843956
 30
0.0
 10
27.3745954905
 20
63.0246066986
 30
0.0
 10
27.4129998004
 20
63.0664214787
 30
0.0
  0
SPLINE
  5
378
100
AcDbEntity
  8
00_COMPONENTS_1
100
AcDbSpline
 62
7
  6
BYLAYER
 70
0
 71
3
 72
11
 73
7
 74
0
 42
0.0000001
 43
0.0000001
 44
0.0000000001
 40
0.0
 40
0.0
 40
0.0
 40
0.0
 40
0.2823228079
 40
0.5420705205
 40
0.7798170719
 40
1.0
 40
1.0
 40
1.0
 40
1.0
 10
22.0265764227
 20
63.0938873065
 30
0.0
 10
22.0265764227
 20
63.1897905713
 30
0.0
 10
22.0383442283
 20
63.3742596607
 30
0.0
 10
22.0956622387
 20
63.6341609565
 30
0.0
 10
22.1918473713
 20
63.8598719155
 30
0.0
 10
22.2836936849
 20
63.9875682481
 30
0.0
 10
22.3348670883
 20
64.0421167243
 30
0.0
  0
SPLINE
  5
379
100
AcDbEntity
  8
00_COMPONENTS_1
100
AcDbSpline
 62
7
  6
BYLAYER
 70
0
 71
3
 72
9
 73
5
 74
0
 42
0.0000001
 43
0.0000001
 44
0.0000000001
 40
0.0
 40
0.0
 40
0.0
 40
0.0
 40
0.2538067502
 40
1.0
 40
1.0
 40
1.0
 40
1.0
 10
27.4012483604
 20
59.4527385723
 30
0.0
 10
27.4012483604
 20
59.7319639325
 30
0.0
 10
27.3919918583
 20
60.8320859862
 30
0.0
 10
27.3451883324
 20
61.9319546369
 30
0.0
 10
27.2874246754
 20
62.7508439727
 30
0.0
  0
SPLINE
  5
37A
100
AcDbEntity
  8
00_COMPONENTS_1
100
AcDbSpline
 62
7
  6
BYLAYER
 70
0
 71
3
 72
9
 73
5
 74
0
 42
0.0000001
 43
0.0000001
 44
0.0000000001
 40
0.0
 40
0.0
 40
0.0
 40
0.0
 40
0.2539064693
 40
1.0
 40
1.0
 40
1.0
 40
1.0
 10
27.2600974611
 20
55.6260002588
 30
0.0
 10
27.2834911925
 20
55.9492922656
 30
0.0
 10
27.3646338121
 20
57.2233258097
 30
0.0
 10
27.4012483604
 20
58.5002746894
 30
0.0
 10
27.4012483604
 20
59.4527385723
 30
0.0
  0
SPLINE
  5
37B
100
AcDbEntity
  8
00_COMPONENTS_1
100
AcDbSpline
 62
7
  6
BYLAYER
 70
0
 71
3
 72
12
 73
8
 74
0
 42
0.0000001
 43
0.0000001
 44
0.0000000001
 40
0.0
 40
0.0
 40
0.0
 40
0.0
 40
0.2941167052
 40
0.5533567877
 40
0.7837949246
 40
0.8926636737
 40
1.0
 40
1.0
 40
1.0
 40
1.0
 10
28.4616099607
 20
88.4463297157
 30
0.0
 10
28.6114897258
 20
88.3443995496
 30
0.0
 10
28.9100045396
 20
88.1745753847
 30
0.0
 10
29.3756020846
 20
88.0298156751
 30
0.0
 10
29.7513966306
 20
88.0234672879
 30
0.0
 10
30.0194504667
 20
88.0916117835
 30
0.0
 10
30.1412662982
 20
88.1477721246
 30
0.0
 10
30.1985563917
 20
88.180839526
 30
0.0
  0
SPLINE
  5
37C
100
AcDbEntity
  8
00_COMPONENTS_1
100
AcDbSpline
 62
7
  6
BYLAYER
 70
0
 71
3
 72
9
 73
5
 74
0
 42
0.0000001
 43
0.0000001
 44
0.0000000001
 40
0.0
 40
0.0
 40
0.0
 40
0.0
 40
0.243158001
 40
1.0
 40
1.0
 40
1.0
 40
1.0
 10
21.8142137124
 20
62.9712803704
 30
0.0
 10
21.8143602536
 20
62.9465476181
 30
0.0
 10
21.8164428255
 20
62.8448442543
 30
0.0
 10
21.8247429451
 20
62.7432910677
 30
0.0
 10
21.8340742119
 20
62.6668753521
 30
0.0
  0
SPLINE
  5
37D
100
AcDbEntity
  8
00_COMPONENTS_1
100
AcDbSpline
 62
7
  6
BYLAYER
 70
0
 71
3
 72
17
 73
13
 74
0
 42
0.0000001
 43
0.0000001
 44
0.0000000001
 40
0.0
 40
0.0
 40
0.0
 40
0.0
 40
0.1253099407
 40
0.2629905252
 40
0.4065308582
 40
0.5484131554
 40
0.6816690407
 40
0.8012626861
 40
0.8554742533
 40
0.9061564033
 40
0.9539819076
 40
1.0
 40
1.0
 40
1.0
 40
1.0
 10
44.7154887632
 20
81.9089859008
 30
0.0
 10
44.7154887632
 20
81.5888174808
 30
0.0
 10
44.8105615123
 20
80.9159228198
 30
0.0
 10
45.1676649292
 20
79.9344324366
 30
0.0
 10
45.7194922701
 20
78.9978271815
 30
0.0
 10
46.4239996206
 20
78.1844524176
 30
0.0
 10
47.2252122855
 20
77.5606299507
 30
0.0
 10
47.9489847493
 20
77.2308818757
 30
0.0
 10
48.514290541
 20
77.1203888578
 30
0.0
 10
48.9067679288
 20
77.1135969003
 30
0.0
 10
49.2724997468
 20
77.1809506276
 30
0.0
 10
49.4951222913
 20
77.2765170255
 30
0.0
 10
49.5969625592
 20
77.3352780682
 30
0.0
  0
SPLINE
  5
37E
100
AcDbEntity
  8
00_COMPONENTS_1
100
AcDbSpline
 62
7
  6
BYLAYER
 70
0
 71
3
 72
15
 73
11
 74
0
 42
0.0000001
 43
0.0000001
 44
0.0000000001
 40
0.0
 40
0.0
 40
0.0
 40
0.0
 40
0.1142511413
 40
0.237642504
 40
0.3674585247
 40
0.5005482493
 40
0.6335014266
 40
0.7629653277
 40
0.8859542667
 40
1.0
 40
1.0
 40
1.0
 40
1.0
 10
34.9966035126
 20
87.3203837978
 30
0.0
 10
34.9966035126
 20
87.1105947129
 30
0.0
 10
35.0341924879
 20
86.6738525481
 30
0.0
 10
35.1837927335
 20
86.0141919766
 30
0.0
 10
35.4239723123
 20
85.3450045638
 30
0.0
 10
35.7461850565
 20
84.6917461512
 30
0.0
 10
36.1391977258
 20
84.0791987564
 30
0.0
 10
36.5889564937
 20
83.5305257192
 30
0.0
 10
37.079208658
 20
83.0668229171
 30
0.0
 10
37.4368892942
 20
82.8149966719
 30
0.0
 10
37.6182463561
 20
82.7102924921
 30
0.0
  0
SPLINE
  5
37F
100
AcDbEntity
  8
00_COMPONENTS_1
100
AcDbSpline
 62
7
  6
BYLAYER
 70
0
 71
3
 72
12
 73
8
 74
0
 42
0.0000001
 43
0.0000001
 44
0.0000000001
 40
0.0
 40
0.0
 40
0.0
 40
0.0
 40
0.2877507026
 40
0.5462687474
 40
0.7800095331
 40
0.8909679867
 40
1.0
 40
1.0
 40
1.0
 40
1.0
 10
37.6182463561
 20
82.7102924921
 30
0.0
 10
37.7830556947
 20
82.6151419287
 30
0.0
 10
38.1119054618
 20
82.4595034854
 30
0.0
 10
38.6183053937
 20
82.3400886066
 30
0.0
 10
39.0233509506
 20
82.3535741994
 30
0.0
 10
39.3133968158
 20
82.4349103512
 30
0.0
 10
39.4458158407
 20
82.4971319845
 30
0.0
 10
39.508267745
 20
82.533179081
 30
0.0
  0
SPLINE
  5
380
100
AcDbEntity
  8
00_COMPONENTS_1
100
AcDbSpline
 62
7
  6
BYLAYER
 70
0
 71
3
 72
11
 73
7
 74
0
 42
0.0000001
 43
0.0000001
 44
0.0000000001
 40
0.0
 40
0.0
 40
0.0
 40
0.0
 40
0.2372993506
 40
0.4832318768
 40
0.7375794905
 40
1.0
 40
1.0
 40
1.0
 40
1.0
 10
22.9457107274
 20
85.4249198445
 30
0.0
 10
25.2407251708
 20
83.68475606
 30
0.0
 10
30.0366225301
 20
80.3001010254
 30
0.0
 10
37.6626615989
 20
75.6015716644
 30
0.0
 10
45.8171382865
 20
71.2099846879
 30
0.0
 10
51.4963356711
 20
68.5399628965
 30
0.0
 10
54.4120934965
 20
67.2582062683
 30
0.0
  0
SPLINE
  5
381
100
AcDbEntity
  8
00_COMPONENTS_1
100
AcDbSpline
 62
7
  6
BYLAYER
 70
0
 71
3
 72
17
 73
13
 74
0
 42
0.0000001
 43
0.0000001
 44
0.0000000001
 40
0.0
 40
0.0
 40
0.0
 40
0.0
 40
0.1354599187
 40
0.2801491041
 40
0.4267538951
 40
0.5679816794
 40
0.6976690128
 40
0.8119302922
 40
0.8632290094
 40
0.9110575422
 40
0.9562487391
 40
1.0
 40
1.0
 40
1.0
 40
1.0
 10
21.8340742119
 20
62.6668753521
 30
0.0
 10
21.8586638803
 20
62.4655053613
 30
0.0
 10
21.9523835548
 20
62.0538131282
 30
0.0
 10
22.1932167712
 20
61.4593103863
 30
0.0
 10
22.5266613389
 20
60.9008377354
 30
0.0
 10
22.9320502434
 20
60.4205987318
 30
0.0
 10
23.3818613968
 20
60.053668997
 30
0.0
 10
23.7852741118
 20
59.8578688357
 30
0.0
 10
24.0991707978
 20
59.7906129313
 30
0.0
 10
24.31660084
 20
59.7841946622
 30
0.0
 10
24.5197327176
 20
59.8207147062
 30
0.0
 10
24.6433765952
 20
59.8739497468
 30
0.0
 10
24.7001094531
 20
59.9067299738
 30
0.0
  0
SPLINE
  5
382
100
AcDbEntity
  8
00_COMPONENTS_1
100
AcDbSpline
 62
7
  6
BYLAYER
 70
0
 71
3
 72
11
 73
7
 74
0
 42
0.0000001
 43
0.0000001
 44
0.0000000001
 40
0.0
 40
0.0
 40
0.0
 40
0.0
 40
0.2272852776
 40
0.4744082509
 40
0.7346924702
 40
1.0
 40
1.0
 40
1.0
 40
1.0
 10
37.6418319379
 20
25.0517342448
 30
0.0
 10
37.4331805906
 20
25.1700050079
 30
0.0
 10
37.0229398222
 20
25.4625745314
 30
0.0
 10
36.4706307217
 20
26.0103935898
 30
0.0
 10
35.9763835673
 20
26.6619637593
 30
0.0
 10
35.700411243
 20
27.1451237926
 30
0.0
 10
35.5774694709
 20
27.3966481674
 30
0.0
  0
SPLINE
  5
383
100
AcDbEntity
  8
00_COMPONENTS_1
100
AcDbSpline
 62
7
  6
BYLAYER
 70
0
 71
3
 72
15
 73
11
 74
0
 42
0.0000001
 43
0.0000001
 44
0.0000000001
 40
0.0
 40
0.0
 40
0.0
 40
0.0
 40
0.1049817131
 40
0.2220218202
 40
0.3491536021
 40
0.4829145771
 40
0.619093024
 40
0.7532556405
 40
0.8813192295
 40
1.0
 40
1.0
 40
1.0
 40
1.0
 10
44.7917484763
 20
24.9329829202
 30
0.0
 10
44.738476038
 20
24.716379086
 30
0.0
 10
44.6905834242
 20
24.2416301671
 30
0.0
 10
44.772113851
 20
23.5003273185
 30
0.0
 10
44.9962914626
 20
22.7255349851
 30
0.0
 10
45.3518837646
 20
21.9571646262
 30
0.0
 10
45.8218025258
 20
21.235073477
 30
0.0
 10
46.3828792627
 20
20.5969806792
 30
0.0
 10
47.0066838004
 20
20.0762305336
 30
0.0
 10
47.4649069762
 20
19.8135587355
 30
0.0
 10
47.696058667
 20
19.7127798632
 30
0.0
  0
SPLINE
  5
384
100
AcDbEntity
  8
00_COMPONENTS_1
100
AcDbSpline
 62
7
  6
BYLAYER
 70
0
 71
3
 72
9
 73
5
 74
0
 42
0.0000001
 43
0.0000001
 44
0.0000000001
 40
0.0
 40
0.0
 40
0.0
 40
0.0
 40
0.26213003
 40
1.0
 40
1.0
 40
1.0
 40
1.0
 10
27.6935847199
 20
31.4850888775
 30
0.0
 10
27.7465766719
 20
31.4260961876
 30
0.0
 10
27.9537652281
 20
31.2057046833
 30
0.0
 10
28.1815220039
 20
31.0039516887
 30
0.0
 10
28.3615403459
 20
30.8719681398
 30
0.0
  0
SPLINE
  5
385
100
AcDbEntity
  8
00_COMPONENTS_1
100
AcDbSpline
 62
7
  6
BYLAYER
 70
0
 71
3
 72
11
 73
7
 74
0
 42
0.0000001
 43
0.0000001
 44
0.0000000001
 40
0.0
 40
0.0
 40
0.0
 40
0.0
 40
0.2198958815
 40
0.4540008105
 40
0.7125916856
 40
1.0
 40
1.0
 40
1.0
 40
1.0
 10
39.5082303029
 20
24.8881737699
 30
0.0
 10
39.3841044139
 20
24.8164847284
 30
0.0
 10
39.1005212514
 20
24.7119217583
 30
0.0
 10
38.6301333934
 20
24.694382341
 30
0.0
 10
38.1298782117
 20
24.8085246487
 30
0.0
 10
37.804817757
 20
24.9593500853
 30
0.0
 10
37.6418319175
 20
25.0517368929
 30
0.0
  0
SPLINE
  5
386
100
AcDbEntity
  8
00_COMPONENTS_1
100
AcDbSpline
 62
7
  6
BYLAYER
 70
0
 71
3
 72
9
 73
5
 74
0
 42
0.0000001
 43
0.0000001
 44
0.0000000001
 40
0.0
 40
0.0
 40
0.0
 40
0.0
 40
0.2517776479
 40
1.0
 40
1.0
 40
1.0
 40
1.0
 10
31.8397062775
 20
56.5508218702
 30
0.0
 10
31.9421661152
 20
56.8570038891
 30
0.0
 10
32.3418844506
 20
58.0754893385
 30
0.0
 10
32.7124895213
 20
59.3035426589
 30
0.0
 10
32.9724933097
 20
60.2271366596
 30
0.0
  0
SPLINE
  5
387
100
AcDbEntity
  8
00_COMPONENTS_1
100
AcDbSpline
 62
7
  6
BYLAYER
 70
0
 71
3
 72
12
 73
8
 74
0
 42
0.0000001
 43
0.0000001
 44
0.0000000001
 40
0.0
 40
0.0
 40
0.0
 40
0.0
 40
0.2966290845
 40
0.5569591377
 40
0.7863812231
 40
0.8940922608
 40
1.0
 40
1.0
 40
1.0
 40
1.0
 10
28.3615403459
 20
30.8719681398
 30
0.0
 10
28.5180554826
 20
30.7572159789
 30
0.0
 10
28.8304112064
 20
30.5645746688
 30
0.0
 10
29.3206237554
 20
30.3929242781
 30
0.0
 10
29.7189153373
 20
30.3740621764
 30
0.0
 10
30.0027154591
 20
30.4401598016
 30
0.0
 10
30.1312678493
 20
30.4975860547
 30
0.0
 10
30.1915247665
 20
30.5317984486
 30
0.0
  0
SPLINE
  5
388
100
AcDbEntity
  8
00_COMPONENTS_1
100
AcDbSpline
 62
7
  6
BYLAYER
 70
0
 71
3
 72
11
 73
7
 74
0
 42
0.0000001
 43
0.0000001
 44
0.0000000001
 40
0.0
 40
0.0
 40
0.0
 40
0.0
 40
0.2801975282
 40
0.5376403612
 40
0.7751718644
 40
1.0
 40
1.0
 40
1.0
 40
1.0
 10
47.696058667
 20
19.7127798632
 30
0.0
 10
47.8645308858
 20
19.6393279981
 30
0.0
 10
48.2001520811
 20
19.5240333898
 30
0.0
 10
48.707885401
 20
19.4556066006
 30
0.0
 10
49.1824687725
 20
19.5037132164
 30
0.0
 10
49.469186306
 20
19.6165732423
 30
0.0
 10
49.5969160533
 20
19.6902788649
 30
0.0
  0
SPLINE
  5
389
100
AcDbEntity
  8
00_COMPONENTS_1
100
AcDbSpline
 62
7
  6
BYLAYER
 70
0
 71
3
 72
12
 73
8
 74
0
 42
0.0000001
 43
0.0000001
 44
0.0000000001
 40
0.0
 40
0.0
 40
0.0
 40
0.0
 40
0.1072667644
 40
0.2167102507
 40
0.4489198413
 40
0.7086404027
 40
1.0
 40
1.0
 40
1.0
 40
1.0
 10
35.7582700527
 20
89.0284032627
 30
0.0
 10
35.6977547649
 20
88.9934789585
 30
0.0
 10
35.5814389191
 20
88.9120241483
 30
0.0
 10
35.3729774033
 20
88.7052608399
 30
0.0
 10
35.1670539489
 20
88.364597289
 30
0.0
 10
35.0246387128
 20
87.8703482116
 30
0.0
 10
34.9966035126
 20
87.5101655506
 30
0.0
 10
34.9966035126
 20
87.3203837978
 30
0.0
  0
SPLINE
  5
38A
100
AcDbEntity
  8
00_COMPONENTS_1
100
AcDbSpline
 62
7
  6
BYLAYER
 70
0
 71
3
 72
19
 73
15
 74
0
 42
0.0000001
 43
0.0000001
 44
0.0000000001
 40
0.0
 40
0.0
 40
0.0
 40
0.0
 40
0.0555887728
 40
0.1099794802
 40
0.164122935
 40
0.2190551943
 40
0.2755472733
 40
0.3340703958
 40
0.3948307504
 40
0.4577971086
 40
0.5891920964
 40
0.7258248737
 40
0.8641004945
 40
1.0
 40
1.0
 40
1.0
 40
1.0
 10
31.5837862679
 20
54.4640485844
 30
0.0
 10
31.4597735565
 20
54.535645737
 30
0.0
 10
31.1991409867
 20
54.6529003049
 30
0.0
 10
30.7820590821
 20
54.7398762592
 30
0.0
 10
30.357730532
 20
54.7342763608
 30
0.0
 10
29.9388575523
 20
54.640416237
 30
0.0
 10
29.5347129856
 20
54.4663564556
 30
0.0
 10
29.1525614243
 20
54.2200687062
 30
0.0
 10
28.7984458006
 20
53.9095381541
 30
0.0
 10
28.3629231457
 20
53.415458736
 30
0.0
 10
27.9139572514
 20
52.6822753999
 30
0.0
 10
27.5503950327
 20
51.6943078689
 30
0.0
 10
27.3757011452
 20
50.644440696
 30
0.0
 10
27.4028860781
 20
49.9316919003
 30
0.0
 10
27.4591092091
 20
49.5861589066
 30
0.0
  0
SPLINE
  5
38B
100
AcDbEntity
  8
00_COMPONENTS_1
100
AcDbSpline
 62
7
  6
BYLAYER
 70
0
 71
3
 72
11
 73
7
 74
0
 42
0.0000001
 43
0.0000001
 44
0.0000000001
 40
0.0
 40
0.0
 40
0.0
 40
0.0
 40
0.2669149491
 40
0.5226812055
 40
0.7665044322
 40
1.0
 40
1.0
 40
1.0
 40
1.0
 10
27.4591092091
 20
49.5861589066
 30
0.0
 10
27.4948358638
 20
49.3665920178
 30
0.0
 10
27.5990822583
 20
48.9410573704
 30
0.0
 10
27.8655138267
 20
48.3556681299
 30
0.0
 10
28.2375633796
 20
47.8640872375
 30
0.0
 10
28.554830942
 20
47.6146735715
 30
0.0
 10
28.7233620443
 20
47.5173742955
 30
0.0
  0
SPLINE
  5
38C
100
AcDbEntity
  8
00_COMPONENTS_1
100
AcDbSpline
 62
7
  6
BYLAYER
 70
0
 71
3
 72
20
 73
16
 74
0
 42
0.0000001
 43
0.0000001
 44
0.0000000001
 40
0.0
 40
0.0
 40
0.0
 40
0.0
 40
0.0552572113
 40
0.1105795668
 40
0.1672140671
 40
0.2259058796
 40
0.3495262667
 40
0.4145890535
 40
0.481182709
 40
0.6168323014
 40
0.7523589351
 40
0.8184493265
 40
0.8821327718
 40
0.9427272349
 40
1.0
 40
1.0
 40
1.0
 40
1.0
 10
28.7233620443
 20
47.5173742955
 30
0.0
 10
28.8892866914
 20
47.4215798229
 30
0.0
 10
29.2506675905
 20
47.2758801613
 30
0.0
 10
29.8350584494
 20
47.2200624318
 30
0.0
 10
30.4243241382
 20
47.3224134602
 30
0.0
 10
31.1910172017
 20
47.6519273264
 30
0.0
 10
31.8545354556
 20
48.2311675193
 30
0.0
 10
32.3654703302
 20
48.9562559917
 30
0.0
 10
32.7806411224
 20
49.7886810516
 30
0.0
 10
33.0697457378
 20
50.9403884239
 30
0.0
 10
33.0244316312
 20
52.128132636
 30
0.0
 10
32.7692766467
 20
53.0160138595
 30
0.0
 10
32.4743735101
 20
53.611295377
 30
0.0
 10
32.0819324719
 20
54.1096610666
 30
0.0
 10
31.7557631579
 20
54.3647599269
 30
0.0
 10
31.5837862679
 20
54.4640485844
 30
0.0
  0
SPLINE
  5
38D
100
AcDbEntity
  8
00_COMPONENTS_1
100
AcDbSpline
 62
7
  6
BYLAYER
 70
0
 71
3
 72
9
 73
5
 74
0
 42
0.0000001
 43
0.0000001
 44
0.0000000001
 40
0.0
 40
0.0
 40
0.0
 40
0.0
 40
0.2538082618
 40
1.0
 40
1.0
 40
1.0
 40
1.0
 10
20.0596836318
 20
70.4338960617
 30
0.0
 10
19.377915436
 20
70.8719819514
 30
0.0
 10
16.7065357121
 20
72.6208748148
 30
0.0
 10
14.0954592595
 20
74.4622177781
 30
0.0
 10
12.1879489573
 20
75.8897407121
 30
0.0
  0
SPLINE
  5
38E
100
AcDbEntity
  8
00_COMPONENTS_1
100
AcDbSpline
 62
7
  6
BYLAYER
 70
0
 71
3
 72
11
 73
7
 74
0
 42
0.0000001
 43
0.0000001
 44
0.0000000001
 40
0.0
 40
0.0
 40
0.0
 40
0.0
 40
0.2242949204
 40
0.4594062013
 40
0.7162641397
 40
1.0
 40
1.0
 40
1.0
 40
1.0
 10
45.5405237068
 20
83.6535683622
 30
0.0
 10
45.4099162623
 20
83.5781927721
 30
0.0
 10
45.1661445194
 20
83.3784181506
 30
0.0
 10
44.9029323078
 20
82.9672825125
 30
0.0
 10
44.7464486279
 20
82.4645569356
 30
0.0
 10
44.7154887632
 20
82.0997461842
 30
0.0
 10
44.7154887632
 20
81.9089859008
 30
0.0
  0
SPLINE
  5
38F
100
AcDbEntity
  8
00_COMPONENTS_1
100
AcDbSpline
 62
7
  6
BYLAYER
 70
0
 71
3
 72
9
 73
5
 74
0
 42
0.0000001
 43
0.0000001
 44
0.0000000001
 40
0.0
 40
0.0
 40
0.0
 40
0.0
 40
0.5077184592
 40
1.0
 40
1.0
 40
1.0
 40
1.0
 10
32.107032765
 20
44.1987611806
 30
0.0
 10
33.2965436098
 20
46.6819425705
 30
0.0
 10
35.4167697219
 20
51.6829426535
 30
0.0
 10
37.0460760092
 20
56.8664059593
 30
0.0
 10
37.7097779444
 20
59.4522585056
 30
0.0
  0
SPLINE
  5
390
100
AcDbEntity
  8
00_COMPONENTS_1
100
AcDbSpline
 62
7
  6
BYLAYER
 70
0
 71
3
 72
20
 73
16
 74
0
 42
0.0000001
 43
0.0000001
 44
0.0000000001
 40
0.0
 40
0.0
 40
0.0
 40
0.0
 40
0.0394988361
 40
0.0816729597
 40
0.1280918236
 40
0.1796293622
 40
0.2365362411
 40
0.2985716483
 40
0.3651552684
 40
0.4354379813
 40
0.5828207483
 40
0.7318037297
 40
0.8733191784
 40
0.9389430846
 40
1.0
 40
1.0
 40
1.0
 40
1.0
 10
26.7550223965
 20
94.8529541501
 30
0.0
 10
26.6709428923
 20
94.8044082521
 30
0.0
 10
26.5110354671
 20
94.6780575764
 30
0.0
 10
26.3220661601
 20
94.422571983
 30
0.0
 10
26.1815189734
 20
94.1056337877
 30
0.0
 10
26.0907591849
 20
93.734318849
 30
0.0
 10
26.0506112943
 20
93.3160166455
 30
0.0
 10
26.0613448064
 20
92.8592130831
 30
0.0
 10
26.1227925979
 20
92.3734148692
 30
0.0
 10
26.2729126317
 20
91.690284827
 30
0.0
 10
26.5758687203
 20
90.8370639
 30
0.0
 10
27.0861090523
 20
89.8851634777
 30
0.0
 10
27.619319579
 20
89.1845093608
 30
0.0
 10
28.0916347737
 20
88.7232474499
 30
0.0
 10
28.3375114213
 20
88.5307265969
 30
0.0
 10
28.4616099607
 20
88.4463297157
 30
0.0
  0
SPLINE
  5
391
100
AcDbEntity
  8
00_COMPONENTS_1
100
AcDbSpline
 62
7
  6
BYLAYER
 70
0
 71
3
 72
16
 73
12
 74
0
 42
0.0000001
 43
0.0000001
 44
0.0000000001
 40
0.0
 40
0.0
 40
0.0
 40
0.0
 40
0.0897868956
 40
0.1902572089
 40
0.303708427
 40
0.4297727796
 40
0.496935774
 40
0.5662902483
 40
0.7096179747
 40
0.8556735123
 40
1.0
 40
1.0
 40
1.0
 40
1.0
 10
24.7250274016
 20
59.9539163947
 30
0.0
 10
24.623476458
 20
59.9268688265
 30
0.0
 10
24.3966532106
 20
59.9098313737
 30
0.0
 10
24.0463081554
 20
59.9888752329
 30
0.0
 10
23.6852336781
 20
60.1624228922
 30
0.0
 10
23.393433056
 20
60.3743289349
 30
0.0
 10
23.1660142368
 20
60.5813487604
 30
0.0
 10
22.9397762441
 20
60.8185442587
 30
0.0
 10
22.6812142475
 20
61.1509967973
 30
0.0
 10
22.4207028614
 20
61.588020604
 30
0.0
 10
22.2831628648
 20
61.900010276
 30
0.0
 10
22.2253978915
 20
62.0587540945
 30
0.0
  0
SPLINE
  5
392
100
AcDbEntity
  8
00_COMPONENTS_1
100
AcDbSpline
 62
7
  6
BYLAYER
 70
0
 71
3
 72
9
 73
5
 74
0
 42
0.0000001
 43
0.0000001
 44
0.0000000001
 40
0.0
 40
0.0
 40
0.0
 40
0.0
 40
0.521903429
 40
1.0
 40
1.0
 40
1.0
 40
1.0
 10
22.2253978915
 20
62.0587540945
 30
0.0
 10
22.1624611666
 20
62.2317103943
 30
0.0
 10
22.0654461917
 20
62.5723116925
 30
0.0
 10
22.0265764227
 20
62.9252845881
 30
0.0
 10
22.0265764227
 20
63.0938873065
 30
0.0
  0
SPLINE
  5
393
100
AcDbEntity
  8
00_COMPONENTS_1
100
AcDbSpline
 62
7
  6
BYLAYER
 70
0
 71
3
 72
15
 73
11
 74
0
 42
0.0000001
 43
0.0000001
 44
0.0000000001
 40
0.0
 40
0.0
 40
0.0
 40
0.0
 40
0.1353786081
 40
0.2614666
 40
0.3805431402
 40
0.4963180097
 40
0.6128769534
 40
0.7340318151
 40
0.8626074303
 40
1.0
 40
1.0
 40
1.0
 40
1.0
 10
22.8077212488
 20
52.9563479326
 30
0.0
 10
22.9432187248
 20
52.8781220934
 30
0.0
 10
23.219698382
 20
52.7502739258
 30
0.0
 10
23.6534031253
 20
52.6563929779
 30
0.0
 10
24.0750127516
 20
52.671792223
 30
0.0
 10
24.4672327383
 20
52.7948788058
 30
0.0
 10
24.814305262
 20
53.0194012254
 30
0.0
 10
25.1021468365
 20
53.3355446339
 30
0.0
 10
25.3228700652
 20
53.7283210703
 30
0.0
 10
25.4195233651
 20
54.0222026815
 30
0.0
 10
25.4563607141
 20
54.1766552466
 30
0.0
  0
SPLINE
  5
394
100
AcDbEntity
  8
00_COMPONENTS_1
100
AcDbSpline
 62
7
  6
BYLAYER
 70
0
 71
3
 72
17
 73
13
 74
0
 42
0.0000001
 43
0.0000001
 44
0.0000000001
 40
0.0
 40
0.0
 40
0.0
 40
0.0
 40
0.0419956455
 40
0.0859414249
 40
0.1333407228
 40
0.1851305738
 40
0.3026679141
 40
0.4370671365
 40
0.5821203618
 40
0.7296830084
 40
0.8713846886
 40
1.0
 40
1.0
 40
1.0
 40
1.0
 10
22.8512189417
 20
63.1114579621
 30
0.0
 10
22.8825059207
 20
63.1295575547
 30
0.0
 10
22.9517816592
 20
63.1582082774
 30
0.0
 10
23.0665098852
 20
63.173928242
 30
0.0
 10
23.1901258079
 20
63.1637114477
 30
0.0
 10
23.3708404528
 20
63.1141916255
 30
0.0
 10
23.6029972333
 20
62.986871017
 30
0.0
 10
23.8617376685
 20
62.7608799096
 30
0.0
 10
24.0926971377
 20
62.472664879
 30
0.0
 10
24.2761866868
 20
62.1449621198
 30
0.0
 10
24.3966585515
 20
61.804224193
 30
0.0
 10
24.429863825
 20
61.5714852304
 30
0.0
 10
24.4305196954
 20
61.4607895787
 30
0.0
  0
SPLINE
  5
395
100
AcDbEntity
  8
00_COMPONENTS_1
100
AcDbSpline
 62
7
  6
BYLAYER
 70
0
 71
3
 72
11
 73
7
 74
0
 42
0.0000001
 43
0.0000001
 44
0.0000000001
 40
0.0
 40
0.0
 40
0.0
 40
0.0
 40
0.2177239861
 40
0.4508730345
 40
0.7104683317
 40
1.0
 40
1.0
 40
1.0
 40
1.0
 10
24.3736085338
 20
60.9883240295
 30
0.0
 10
24.4164796844
 20
61.0130733515
 30
0.0
 10
24.4967608713
 20
61.0804434882
 30
0.0
 10
24.5821923507
 20
61.2201599189
 30
0.0
 10
24.6328295106
 20
61.3923027898
 30
0.0
 10
24.6428824058
 20
61.5175680081
 30
0.0
 10
24.6428824058
 20
61.5833965148
 30
0.0
  0
SPLINE
  5
396
100
AcDbEntity
  8
00_COMPONENTS_1
100
AcDbSpline
 62
7
  6
BYLAYER
 70
0
 71
3
 72
17
 73
13
 74
0
 42
0.0000001
 43
0.0000001
 44
0.0000000001
 40
0.0
 40
0.0
 40
0.0
 40
0.0
 40
0.1286846513
 40
0.2703032228
 40
0.4174430309
 40
0.5617811216
 40
0.695448235
 40
0.8127121431
 40
0.8646788239
 40
0.9125086207
 40
0.9571391214
 40
1.0
 40
1.0
 40
1.0
 40
1.0
 10
24.6428824058
 20
61.5833965148
 30
0.0
 10
24.6428824058
 20
61.6945094608
 30
0.0
 10
24.6117737637
 20
61.9281653769
 30
0.0
 10
24.4957784376
 20
62.2712322181
 30
0.0
 10
24.3169512182
 20
62.601685246
 30
0.0
 10
24.0897993874
 20
62.8924535334
 30
0.0
 10
23.8327952849
 20
63.1200665827
 30
0.0
 10
23.6001683601
 20
63.2472150483
 30
0.0
 10
23.4182150183
 20
63.2956943933
 30
0.0
 10
23.2929783148
 20
63.304843385
 30
0.0
 10
23.1763460866
 20
63.2878308536
 30
0.0
 10
23.1057218691
 20
63.2583977885
 30
0.0
 10
23.0736709924
 20
63.2398949619
 30
0.0
  0
SPLINE
  5
397
100
AcDbEntity
  8
00_COMPONENTS_1
100
AcDbSpline
 62
7
  6
BYLAYER
 70
0
 71
3
 72
11
 73
7
 74
0
 42
0.0000001
 43
0.0000001
 44
0.0000000001
 40
0.0
 40
0.0
 40
0.0
 40
0.0
 40
0.213955179
 40
0.4453799581
 40
0.7062129416
 40
1.0
 40
1.0
 40
1.0
 40
1.0
 10
22.2838789175
 20
64.0539792499
 30
0.0
 10
22.2076869725
 20
64.0101254994
 30
0.0
 10
22.0647544147
 20
63.8888071842
 30
0.0
 10
21.9164433822
 20
63.6345485132
 30
0.0
 10
21.8297245233
 20
63.3206952742
 30
0.0
 10
21.8134985025
 20
63.0919911395
 30
0.0
 10
21.8142137124
 20
62.9712803704
 30
0.0
  0
SPLINE
  5
398
100
AcDbEntity
  8
00_COMPONENTS_1
100
AcDbSpline
 62
7
  6
BYLAYER
 70
0
 71
3
 72
22
 73
18
 74
0
 42
0.0000001
 43
0.0000001
 44
0.0000000001
 40
0.0
 40
0.0
 40
0.0
 40
0.0
 40
0.0568516476
 40
0.1084268684
 40
0.1564514653
 40
0.2036208952
 40
0.2527879344
 40
0.3061169891
 40
0.3646928582
 40
0.4286473086
 40
0.4974111786
 40
0.5699037941
 40
0.6447433963
 40
0.720369717
 40
0.7951677955
 40
0.8675835716
 40
1.0
 40
1.0
 40
1.0
 40
1.0
 10
23.2699464322
 20
58.868099915
 30
0.0
 10
23.1260190325
 20
58.9387357852
 30
0.0
 10
22.8377776353
 20
59.0487134914
 30
0.0
 10
22.395032281
 20
59.1042761006
 30
0.0
 10
21.9801915467
 20
59.035679127
 30
0.0
 10
21.6134790116
 20
58.8437311298
 30
0.0
 10
21.3113705662
 20
58.5409688041
 30
0.0
 10
21.0810176591
 20
58.1448078269
 30
0.0
 10
20.9244635973
 20
57.6712136431
 30
0.0
 10
20.8438129615
 20
57.1356172385
 30
0.0
 10
20.8407415828
 20
56.5551561637
 30
0.0
 10
20.9155676627
 20
55.9488127825
 30
0.0
 10
21.067089296
 20
55.337034585
 30
0.0
 10
21.2923135256
 20
54.7414920407
 30
0.0
 10
21.5869031964
 20
54.1839607539
 30
0.0
 10
22.0447324789
 20
53.5411567895
 30
0.0
 10
22.4843256966
 20
53.1430607413
 30
0.0
 10
22.8077212488
 20
52.9563479326
 30
0.0
  0
SPLINE
  5
399
100
AcDbEntity
  8
00_COMPONENTS_1
100
AcDbSpline
 62
7
  6
BYLAYER
 70
0
 71
3
 72
9
 73
5
 74
0
 42
0.0000001
 43
0.0000001
 44
0.0000000001
 40
0.0
 40
0.0
 40
0.0
 40
0.0
 40
0.2530053013
 40
1.0
 40
1.0
 40
1.0
 40
1.0
 10
40.3777317653
 20
37.2323763562
 30
0.0
 10
39.6265624399
 20
37.5755997966
 30
0.0
 10
36.6668381797
 20
38.9523375186
 30
0.0
 10
33.7448532544
 20
40.4104309709
 30
0.0
 10
31.5875995948
 20
41.5470370141
 30
0.0
  0
ENDSEC
  0
SECTION
  2
OBJECTS
  0
DICTIONARY
  5
C
100
AcDbDictionary
280
0
281
1
  3
ACAD_GROUP
350
D
  3
ACAD_MLINESTYLE
350
17
  3
ACAD_LAYOUT
350
1A
  3
ACAD_PLOTSETTINGS
350
19
  3
ACAD_PLOTSTYLENAME
350
E
  0
DICTIONARY
  5
D
102
{ACAD_REACTORS
330
C
102
}
100
AcDbDictionary
280
0
281
1
  0
ACDBDICTIONARYWDFLT
  5
E
102
{ACAD_REACTORS
330
C
102
}
100
AcDbDictionary
281
1
  3
Normal
350
F
100
AcDbDictionaryWithDefault
340
F
  0
DICTIONARY
  5
17
102
{ACAD_REACTORS
330
C
102
}
100
AcDbDictionary
280
0
281
1
  3
Standard
350
18
  0
DICTIONARY
  5
19
102
{ACAD_REACTORS
330
C
102
}
100
AcDbDictionary
281
1
  0
DICTIONARY
  5
1A
102
{ACAD_REACTORS
330
C
102
}
100
AcDbDictionary
281
1
  3
Model
350
39A
  3
Layout1
350
39B
  0
ACDBPLACEHOLDER
  5
F
102
{ACAD_REACTORS
330
E
102
}
  0
MLINESTYLE
  5
18
102
{ACAD_REACTORS
330
17
102
}
100
AcDbMlineStyle
  2
STANDARD
 70
0
  3

 62
256
 51
90.0
 52
90.0
 71
2
 49
0.5
 62
256
  6
BYLAYER
 49
-0.5
 62
256
  6
BYLAYER
  0
LAYOUT
  5
39A
102
{ACAD_REACTORS
330
1A
102
}
100
AcDbPlotSettings
  1

  2
none_device
  4

  6

 40
0.0
 41
0.0
 42
0.0
 43
0.0
 44
210.0
 45
297.0
 46
0.0
 47
0.0
 48
0.0
 49
0.0
140
0.0
141
0.0
142
1.0
143
1.0
 70
1024
 72
1
 73
0
 74
0
  7

 75
0
147
1.0
148
0.0
149
0.0
100
AcDbLayout
  1
Model
 70
0
 71
0
 10
0.0
 20
0.0
 11
210.0
 21
297.0
 12
0.0
 22
0.0
 32
0.0
 14
0.0
 24
0.0
 34
0.0
 15
0.0
 25
0.0
 35
0.0
146
0.0
 13
0.0
 23
0.0
 33
0.0
 16
1.0
 26
0.0
 36
0.0
 17
0.0
 27
1.0
 37
0.0
 76
0
330
217
345
0
346
0
  0
LAYOUT
  5
39B
102
{ACAD_REACTORS
330
1A
102
}
100
AcDbPlotSettings
  1

  2
none_device
  4

  6

 40
0.0
 41
0.0
 42
0.0
 43
0.0
 44
210.0
 45
297.0
 46
0.0
 47
0.0
 48
0.0
 49
0.0
140
0.0
141
0.0
142
1.0
143
1.0
 70
0
 72
1
 73
0
 74
0
  7

 75
0
147
1.0
148
0.0
149
0.0
100
AcDbLayout
  1
Layout1
 70
0
 71
1
 10
0.0
 20
0.0
 11
210.0
 21
297.0
 12
0.0
 22
0.0
 32
0.0
 14
0.0
 24
0.0
 34
0.0
 15
0.0
 25
0.0
 35
0.0
146
0.0
 13
0.0
 23
0.0
 33
0.0
 16
1.0
 26
0.0
 36
0.0
 17
0.0
 27
1.0
 37
0.0
 76
0
330
218
345
0
346
0
  0
ENDSEC
  0
EOF
