999
DXF file: C:\Users\sesa63760\OneDrive - Schneider Electric\Documents\7-Dev\_Creo\CAD\MCADPP0000166_3D-CAD\drw0001_4.dxf
999
Pro/ENGINEER 2019471 by Parametric Technology Corporation
  0
SECTION
  2
HEADER
  9
$ACADVER
  1
AC1024
  9
$DWGCODEPAGE
  3
ANSI_1252
  9
$EXTMAX
 10
131.0208746199
 20
185.3009512481
 30
0.0
  9
$EXTMIN
 10
0.0
 20
0.0
 30
0.0
  9
$LIMMIN
 10
0.0
 20
0.0
  9
$LIMMAX
 10
131.0208746199
 20
185.3009512481
  9
$VIEWCTR
 10
65.51043731
 20
92.6504756241
  9
$VIEWSIZE
 40
185.3009512481
  9
$CLAYER
  8
0
  9
$LTSCALE
 40
12.0788768221
  9
$CELTYPE
  6
BYLAYER
  9
$DIMSCALE
 40
1.0
  9
$DIMASZ
 40
1.5597723169
  9
$DIMEXO
 40
1.0
  9
$DIMDLI
 40
8.3454058044
  9
$DIMEXE
 40
1.0
  9
$DIMCEN
 40
1.97654348
  9
$DIMLFAC
 40
1.0
  9
$DIMBLK
  1
_FILLED
  9
$DIMALT
 70
0
  9
$DIMALTF
 40
0.0393700787
  9
$DIMTXT
 40
2.1836812437
  9
$DIMTOL
 70
1
  9
$DIMLIM
 70
0
  9
$DIMTFAC
 40
1.0
  9
$DIMTP
 40
0.01
  9
$DIMTM
 40
0.01
  9
$DIMGAP
 40
0.625
  9
$DIMDSEP
 70
46
  9
$AUNITS
 70
0
  9
$PDMODE
 70
3
  9
$PDSIZE
 40
0.3125
  9
$HANDSEED
  5
306
  9
$TILEMODE
 70
1
  9
$MEASUREMENT
 70
1
  9
$INSUNITS
 70
4
  0
ENDSEC
  0
SECTION
  2
CLASSES
  0
CLASS
  1
ACDBDICTIONARYWDFLT
  2
AcDbDictionaryWithDefault
  3
AutoCAD 2000
 90
0
 91
1
280
0
281
0
  0
CLASS
  1
ACDBPLACEHOLDER
  2
AcDbPlaceHolder
  3
AutoCAD 2000
 90
0
 91
1
280
0
281
0
  0
CLASS
  1
LAYOUT
  2
AcDbLayout
  3
AutoCAD 2000
 90
0
 91
0
280
0
281
0
  0
ENDSEC
  0
SECTION
  2
TABLES
  0
TABLE
  2
VPORT
  5
8
100
AcDbSymbolTable
 70
2
  0
VPORT
  5
1F4
100
AcDbSymbolTableRecord
100
AcDbViewportTableRecord
  2
*ACTIVE
 70
0
 10
0.0
 20
0.0
 11
1.0
 21
1.0
 12
65.51043731
 22
92.6504756241
 13
0.0
 23
0.0
 14
1.0
 24
1.0
 15
0.0
 25
0.0
 16
0.0
 26
0.0
 36
1.0
 17
0.0
 27
0.0
 37
0.0
 40
185.3009512481
 41
0.7070707071
 42
50.0
 43
0.0
 44
0.0
 50
0.0
 51
0.0
 71
0
 72
100
 73
1
 74
1
 75
0
 76
0
 77
0
 78
0
  0
ENDTAB
  0
TABLE
  2
LTYPE
  5
5
100
AcDbSymbolTable
 70
6
  0
LTYPE
  5
14
100
AcDbSymbolTableRecord
100
AcDbLinetypeTableRecord
  2
BYBLOCK
 70
0
  3

 72
65
 73
0
 40
0.0
  0
LTYPE
  5
15
100
AcDbSymbolTableRecord
100
AcDbLinetypeTableRecord
  2
BYLAYER
 70
0
  3

 72
65
 73
0
 40
0.0
  0
LTYPE
  5
16
100
AcDbSymbolTableRecord
100
AcDbLinetypeTableRecord
  2
CONTINUOUS
 70
64
  3
Solid line
 72
65
 73
0
 40
0.0
  0
LTYPE
  5
1F5
100
AcDbSymbolTableRecord
100
AcDbLinetypeTableRecord
  2
CENTER
 70
64
  3
____ _ ____ _ ____ _ ____ _ ____ _ ____ _ ____
 72
65
 73
4
 40
0.6
 49
0.375
 74
0
 49
-0.075
 74
0
 49
0.075
 74
0
 49
-0.075
 74
0
  0
LTYPE
  5
1F6
100
AcDbSymbolTableRecord
100
AcDbLinetypeTableRecord
  2
HIDDEN
 70
64
  3
- - - - - - - - - - - - - - - - - - - -
 72
65
 73
2
 40
0.2
 49
0.1
 74
0
 49
-0.1
 74
0
  0
LTYPE
  5
1F7
100
AcDbSymbolTableRecord
100
AcDbLinetypeTableRecord
  2
PHANTOM
 70
64
  3
_____ _ _ _____ _ _ _____ _ _ _____
 72
65
 73
6
 40
0.8
 49
0.45
 74
0
 49
-0.05
 74
0
 49
0.1
 74
0
 49
-0.05
 74
0
 49
0.1
 74
0
 49
-0.05
 74
0
  0
LTYPE
  5
1F8
100
AcDbSymbolTableRecord
100
AcDbLinetypeTableRecord
  2
DOT
 70
64
  3
. . . . . . . . . . . . . . . . . . . .
 72
65
 73
2
 40
0.2
 49
0.1
 74
0
 49
-0.1
 74
0
  0
LTYPE
  5
1F9
100
AcDbSymbolTableRecord
100
AcDbLinetypeTableRecord
  2
DASHED
 70
64
  3
- - - - - - - - - - - - - - - - - - - -
 72
65
 73
2
 40
0.2
 49
0.1
 74
0
 49
-0.1
 74
0
  0
ENDTAB
  0
TABLE
  2
LAYER
  5
2
100
AcDbSymbolTable
 70
36
  0
LAYER
  5
10
100
AcDbSymbolTableRecord
100
AcDbLayerTableRecord
  2
0
 70
0
 62
7
  6
CONTINUOUS
370
-3
390
F
  0
LAYER
  5
1FA
100
AcDbSymbolTableRecord
100
AcDbLayerTableRecord
  2
DEFAULT_1
 70
0
 62
7
  6
CENTER
370
-3
390
F
  0
LAYER
  5
1FB
100
AcDbSymbolTableRecord
100
AcDbLayerTableRecord
  2
DEFAULT_2
 70
0
 62
8
  6
HIDDEN
370
-3
390
F
  0
LAYER
  5
1FC
100
AcDbSymbolTableRecord
100
AcDbLayerTableRecord
  2
DEFAULT_3
 70
0
 62
7
  6
PHANTOM
370
-3
390
F
  0
LAYER
  5
1FD
100
AcDbSymbolTableRecord
100
AcDbLayerTableRecord
  2
00_COMPONENTS
 70
0
 62
7
  6
CONTINUOUS
370
-3
390
F
  0
LAYER
  5
1FE
100
AcDbSymbolTableRecord
100
AcDbLayerTableRecord
  2
01_1_DEFAULT_DATUMS
 70
0
 62
7
  6
CONTINUOUS
370
-3
390
F
  0
LAYER
  5
1FF
100
AcDbSymbolTableRecord
100
AcDbLayerTableRecord
  2
01_PLANES
 70
0
 62
7
  6
CONTINUOUS
370
-3
390
F
  0
LAYER
  5
200
100
AcDbSymbolTableRecord
100
AcDbLayerTableRecord
  2
02_COORD_SYS
 70
0
 62
7
  6
CONTINUOUS
370
-3
390
F
  0
LAYER
  5
201
100
AcDbSymbolTableRecord
100
AcDbLayerTableRecord
  2
03_AXES
 70
0
 62
7
  6
CONTINUOUS
370
-3
390
F
  0
LAYER
  5
202
100
AcDbSymbolTableRecord
100
AcDbLayerTableRecord
  2
04_POINTS
 70
0
 62
7
  6
CONTINUOUS
370
-3
390
F
  0
LAYER
  5
203
100
AcDbSymbolTableRecord
100
AcDbLayerTableRecord
  2
05_CURVES
 70
0
 62
7
  6
CONTINUOUS
370
-3
390
F
  0
LAYER
  5
204
100
AcDbSymbolTableRecord
100
AcDbLayerTableRecord
  2
06_SURFS
 70
0
 62
7
  6
CONTINUOUS
370
-3
390
F
  0
LAYER
  5
205
100
AcDbSymbolTableRecord
100
AcDbLayerTableRecord
  2
07_COSMETICS
 70
0
 62
7
  6
CONTINUOUS
370
-3
390
F
  0
LAYER
  5
206
100
AcDbSymbolTableRecord
100
AcDbLayerTableRecord
  2
10_NOTES
 70
0
 62
7
  6
CONTINUOUS
370
-3
390
F
  0
LAYER
  5
207
100
AcDbSymbolTableRecord
100
AcDbLayerTableRecord
  2
11_NOTES_PUB
 70
0
 62
7
  6
CONTINUOUS
370
-3
390
F
  0
LAYER
  5
208
100
AcDbSymbolTableRecord
100
AcDbLayerTableRecord
  2
13_REF_GTOL
 70
0
 62
7
  6
CONTINUOUS
370
-3
390
F
  0
LAYER
  5
209
100
AcDbSymbolTableRecord
100
AcDbLayerTableRecord
  2
16_MISC
 70
0
 62
7
  6
CONTINUOUS
370
-3
390
F
  0
LAYER
  5
20A
100
AcDbSymbolTableRecord
100
AcDbLayerTableRecord
  2
17_NO_PRINT
 70
0
 62
7
  6
CONTINUOUS
370
-3
390
F
  0
LAYER
  5
20B
100
AcDbSymbolTableRecord
100
AcDbLayerTableRecord
  2
18_DATUM_CAMS_JOINTS
 70
0
 62
7
  6
CONTINUOUS
370
-3
390
F
  0
LAYER
  5
20C
100
AcDbSymbolTableRecord
100
AcDbLayerTableRecord
  2
19_DATUM_FUNCTIONAL
 70
0
 62
7
  6
CONTINUOUS
370
-3
390
F
  0
LAYER
  5
20D
100
AcDbSymbolTableRecord
100
AcDbLayerTableRecord
  2
20_DATUM_KINEMATIC_SCHEME
 70
0
 62
7
  6
CONTINUOUS
370
-3
390
F
  0
ENDTAB
  0
TABLE
  2
STYLE
  5
3
100
AcDbSymbolTable
 70
1
  0
STYLE
  5
11
100
AcDbSymbolTableRecord
100
AcDbTextStyleTableRecord
  2
STANDARD
 70
0
 40
0.0
 41
0.8
 50
0.0
 71
0
 42
0.2
  3
txt
  4

  0
STYLE
  5
20E
100
AcDbSymbolTableRecord
100
AcDbTextStyleTableRecord
  2
TEXTSTYLE_1
 70
0
 40
0.0
 41
0.8
 50
0.0
 71
0
 42
0.2
  3
gdt
  4

  0
ENDTAB
  0
TABLE
  2
VIEW
  5
6
100
AcDbSymbolTable
 70
0
  0
ENDTAB
  0
TABLE
  2
UCS
  5
7
100
AcDbSymbolTable
 70
0
  0
ENDTAB
  0
TABLE
  2
APPID
  5
9
100
AcDbSymbolTable
 70
1
  0
APPID
  5
20F
100
AcDbSymbolTableRecord
100
AcDbRegAppTableRecord
  2
ACAD
 70
0
  0
ENDTAB
  0
TABLE
  2
BLOCK_RECORD
  5
1
100
AcDbSymbolTable
 70
0
  0
BLOCK_RECORD
  5
210
100
AcDbSymbolTableRecord
100
AcDbBlockTableRecord
  2
*Model_Space
  0
BLOCK_RECORD
  5
211
100
AcDbSymbolTableRecord
100
AcDbBlockTableRecord
  2
*Paper_Space
  0
BLOCK_RECORD
  5
212
100
AcDbSymbolTableRecord
100
AcDbBlockTableRecord
  2
_FILLED
  0
ENDTAB
  0
TABLE
  2
DIMSTYLE
  5
A
100
AcDbSymbolTable
 70
1
100
AcDbDimStyleTable
 71
0
  0
DIMSTYLE
105
213
100
AcDbSymbolTableRecord
100
AcDbDimStyleTableRecord
  2
STANDARD
 70
0
  3

  4

 40
1.0
 41
1.5597723169
 42
1.0
 43
0.38
 44
1.0
 45
0.0
 46
0.0
 47
0.01
 48
0.01
140
2.1836812437
141
0.09
142
0.0
143
25.4
144
1.0
145
0.0
146
1.0
147
0.625
 71
1
 72
0
 73
0
 74
0
 75
0
 76
0
 77
1
 78
8
 79
2
170
0
171
1
172
0
173
0
174
0
175
0
176
0
177
0
178
0
270
2
179
2
271
2
272
2
273
2
274
2
275
0
280
0
281
0
282
0
283
1
284
8
285
0
286
0
287
3
288
0
340
11
278
46
341
212
342
212
343
212
344
212
  0
ENDTAB
  0
ENDSEC
  0
SECTION
  2
BLOCKS
  0
BLOCK
  5
20
100
AcDbEntity
  8
0
100
AcDbBlockBegin
  2
*Model_Space
 70
0
 10
0.0
 20
0.0
 30
0.0
  3
*Model_Space
  1

  0
ENDBLK
  5
21
100
AcDbEntity
  8
0
100
AcDbBlockEnd
  0
BLOCK
  5
1C
100
AcDbEntity
  8
0
100
AcDbBlockBegin
  2
*Paper_Space
 70
0
 10
0.0
 20
0.0
 30
0.0
  3
*Paper_Space
  1

  0
ENDBLK
  5
1D
100
AcDbEntity
  8
0
100
AcDbBlockEnd
  0
BLOCK
  5
214
100
AcDbEntity
  8
0
100
AcDbBlockBegin
  2
_FILLED
 70
64
 10
0.0
 20
0.0
  3
_FILLED
  1

  0
SOLID
  5
215
100
AcDbEntity
  8
0
  6
BYBLOCK
 62
0
100
AcDbTrace
 10
0.0
 20
0.0
 11
-1.0
 21
0.25
 12
-1.0
 22
-0.25
 13
-1.0
 23
-0.25
  0
ENDBLK
  5
216
100
AcDbEntity
  8
0
  6
BYBLOCK
 62
0
100
AcDbBlockEnd
  0
ENDSEC
  0
SECTION
  2
ENTITIES
  0
LINE
  5
217
100
AcDbEntity
  8
0
100
AcDbLine
 62
7
  6
CONTINUOUS
 10
14.5923668629
 20
63.925403783
 11
15.1465523222
 21
95.6746674798
  0
LINE
  5
218
100
AcDbEntity
  8
0
100
AcDbLine
 62
7
  6
CONTINUOUS
 10
14.8925848702
 20
78.2599474768
 11
15.1616398941
 21
93.6740994691
  0
LINE
  5
219
100
AcDbEntity
  8
0
100
AcDbLine
 62
7
  6
CONTINUOUS
 10
15.8649621094
 20
45.1544350241
 11
15.8649621094
 21
48.8756250654
  0
LINE
  5
21A
100
AcDbEntity
  8
0
100
AcDbLine
 62
7
  6
CONTINUOUS
 10
15.3981559237
 20
52.7903396577
 11
15.5006957925
 21
58.6648448058
  0
LINE
  5
21B
100
AcDbEntity
  8
0
100
AcDbLine
 62
7
  6
CONTINUOUS
 10
17.5374819782
 20
78.213780626
 11
17.4226102391
 21
71.6327830965
  0
LINE
  5
21C
100
AcDbEntity
  8
0
100
AcDbLine
 62
7
  6
CONTINUOUS
 10
17.7305010523
 20
54.6233190371
 11
17.7654058652
 21
56.6230144274
  0
LINE
  5
21D
100
AcDbEntity
  8
0
100
AcDbLine
 62
7
  6
CONTINUOUS
 10
19.0979541586
 20
78.1865424828
 11
18.9830824194
 21
71.6055449533
  0
LINE
  5
21E
100
AcDbEntity
  8
0
100
AcDbLine
 62
7
  6
CONTINUOUS
 10
19.2802649798
 20
54.5962678071
 11
19.4722414506
 21
65.5945924539
  0
LINE
  5
21F
100
AcDbEntity
  8
0
100
AcDbLine
 62
7
  6
CONTINUOUS
 10
23.2615662407
 20
44.8953070161
 11
41.2588247535
 21
44.5811637002
  0
LINE
  5
220
100
AcDbEntity
  8
0
100
AcDbLine
 62
7
  6
CONTINUOUS
 10
57.6063345693
 20
44.295816855
 11
75.6035930821
 21
43.9816735391
  0
LINE
  5
221
100
AcDbEntity
  8
0
100
AcDbLine
 62
7
  6
CONTINUOUS
 10
91.9511028979
 20
43.6963266938
 11
109.9483614107
 21
43.382183378
  0
LINE
  5
222
100
AcDbEntity
  8
0
100
AcDbLine
 62
7
  6
CONTINUOUS
 10
117.3495031678
 20
43.3830157707
 11
106.6011404448
 21
43.5706291399
  0
LINE
  5
223
100
AcDbEntity
  8
0
100
AcDbLine
 62
7
  6
CONTINUOUS
 10
96.6026634932
 20
43.7451532043
 11
85.3543769227
 21
43.9414927767
  0
LINE
  5
224
100
AcDbEntity
  8
0
100
AcDbLine
 62
7
  6
CONTINUOUS
 10
82.8547576848
 20
43.9851237928
 11
71.6064711143
 21
44.1814633652
  0
LINE
  5
225
100
AcDbEntity
  8
0
100
AcDbLine
 62
7
  6
CONTINUOUS
 10
61.6079941628
 20
44.3559874296
 11
50.3597075923
 21
44.552327002
  0
LINE
  5
226
100
AcDbEntity
  8
0
100
AcDbLine
 62
7
  6
CONTINUOUS
 10
47.8600883544
 20
44.5959580181
 11
36.6118017839
 21
44.7922975905
  0
LINE
  5
227
100
AcDbEntity
  8
0
100
AcDbLine
 62
7
  6
CONTINUOUS
 10
26.6133248323
 20
44.9668216549
 11
15.8649621094
 21
45.1544350241
  0
LINE
  5
228
100
AcDbEntity
  8
0
100
AcDbLine
 62
7
  6
CONTINUOUS
 10
20.2027641453
 20
95.9864719053
 11
20.2271975143
 21
97.3862586785
  0
LINE
  5
229
100
AcDbEntity
  8
0
100
AcDbLine
 62
7
  6
CONTINUOUS
 10
20.6879179278
 20
71.5757869388
 11
20.802789667
 21
78.1567844683
  0
LINE
  5
22A
100
AcDbEntity
  8
0
100
AcDbLine
 62
7
  6
CONTINUOUS
 10
23.2638350535
 20
45.0252872164
 11
23.2615662407
 21
44.8953070161
  0
LINE
  5
22B
100
AcDbEntity
  8
0
100
AcDbLine
 62
7
  6
CONTINUOUS
 10
24.4174040803
 20
99.6534747985
 11
24.4435826899
 21
101.1532463412
  0
LINE
  5
22C
100
AcDbEntity
  8
0
100
AcDbLine
 62
7
  6
CONTINUOUS
 10
21.3930149274
 20
93.7210393534
 11
21.6012820337
 21
103.7188704306
  0
LINE
  5
22D
100
AcDbEntity
  8
0
100
AcDbLine
 62
7
  6
CONTINUOUS
 10
24.4701524963
 20
95.1568990629
 11
24.4984160978
 21
96.5059251189
  0
LINE
  5
22E
100
AcDbEntity
  8
0
100
AcDbLine
 62
7
  6
CONTINUOUS
 10
22.8327480392
 20
104.6318890964
 11
22.8101703177
 21
103.6935428719
  0
LINE
  5
22F
100
AcDbEntity
  8
0
100
AcDbLine
 62
7
  6
CONTINUOUS
 10
26.6277934799
 20
97.3645495699
 11
26.6670613944
 21
99.614206884
  0
LINE
  5
230
100
AcDbEntity
  8
0
100
AcDbLine
 62
7
  6
CONTINUOUS
 10
26.693240004
 20
101.1139784267
 11
26.7325079185
 21
103.3636357408
  0
LINE
  5
231
100
AcDbEntity
  8
0
100
AcDbLine
 62
7
  6
CONTINUOUS
 10
26.761670287
 20
53.4655270637
 11
26.6133248323
 21
44.9668216549
  0
LINE
  5
232
100
AcDbEntity
  8
0
100
AcDbLine
 62
7
  6
CONTINUOUS
 10
28.2322794612
 20
103.3374571312
 11
28.1930115468
 21
101.0877998171
  0
LINE
  5
233
100
AcDbEntity
  8
0
100
AcDbLine
 62
7
  6
CONTINUOUS
 10
28.1668329371
 20
99.5880282744
 11
28.1275650226
 21
97.3383709603
  0
LINE
  5
234
100
AcDbEntity
  8
0
100
AcDbLine
 62
7
  6
CONTINUOUS
 10
115.8155599471
 20
52.9112379656
 11
114.2657960196
 21
52.9382891956
  0
LINE
  5
235
100
AcDbEntity
  8
0
100
AcDbLine
 62
7
  6
CONTINUOUS
 10
19.2802649798
 20
54.5962678071
 11
17.7305010523
 21
54.6233190371
  0
LINE
  5
236
100
AcDbEntity
  8
0
100
AcDbLine
 62
7
  6
CONTINUOUS
 10
30.4426688609
 20
101.0485319026
 11
30.4164902512
 21
99.5487603599
  0
LINE
  5
237
100
AcDbEntity
  8
0
100
AcDbLine
 62
7
  6
CONTINUOUS
 10
32.7355506949
 20
103.4855950756
 11
32.7525369772
 21
104.4587385364
  0
LINE
  5
238
100
AcDbEntity
  8
0
100
AcDbLine
 62
7
  6
CONTINUOUS
 10
30.2688799624
 20
95.0354092507
 11
30.2990158778
 21
96.4741928875
  0
LINE
  5
239
100
AcDbEntity
  8
0
100
AcDbLine
 62
7
  6
CONTINUOUS
 10
33.4205883182
 20
94.9693774432
 11
33.5986337326
 21
103.4675125227
  0
LINE
  5
23A
100
AcDbEntity
  8
0
100
AcDbLine
 62
7
  6
CONTINUOUS
 10
33.9654647117
 20
103.4598270043
 11
33.7874192973
 21
94.9616919247
  0
LINE
  5
23B
100
AcDbEntity
  8
0
100
AcDbLine
 62
7
  6
CONTINUOUS
 10
17.7654058652
 20
56.6230144274
 11
15.4657561663
 21
56.6631549622
  0
LINE
  5
23C
100
AcDbEntity
  8
0
100
AcDbLine
 62
7
  6
CONTINUOUS
 10
115.85046476
 20
54.9109333559
 11
118.1501144589
 21
54.8707928211
  0
LINE
  5
23D
100
AcDbEntity
  8
0
100
AcDbLine
 62
7
  6
CONTINUOUS
 10
36.7601472386
 20
53.2910029993
 11
36.6118017839
 21
44.7922975905
  0
LINE
  5
23E
100
AcDbEntity
  8
0
100
AcDbLine
 62
7
  6
CONTINUOUS
 10
114.3792366615
 20
59.4372992141
 11
54.3883749521
 21
60.4844436003
  0
LINE
  5
23F
100
AcDbEntity
  8
0
100
AcDbLine
 62
7
  6
CONTINUOUS
 10
44.3898980005
 20
60.6589676647
 11
19.3937056216
 21
61.0952778257
  0
LINE
  5
240
100
AcDbEntity
  8
0
100
AcDbLine
 62
7
  6
CONTINUOUS
 10
20.639960528
 20
95.5787796829
 11
20.2027641453
 21
95.9864719053
  0
LINE
  5
241
100
AcDbEntity
  8
0
100
AcDbLine
 62
7
  6
CONTINUOUS
 10
20.7424088547
 20
96.5771437687
 11
21.4379327613
 21
95.928557233
  0
LINE
  5
242
100
AcDbEntity
  8
0
100
AcDbLine
 62
7
  6
CONTINUOUS
 10
41.2588247535
 20
44.5811637002
 11
41.2610935663
 21
44.7111439006
  0
LINE
  5
243
100
AcDbEntity
  8
0
100
AcDbLine
 62
7
  6
CONTINUOUS
 10
19.4722414506
 20
65.5945924539
 11
14.6229801291
 21
65.6792366251
  0
LINE
  5
244
100
AcDbEntity
  8
0
100
AcDbLine
 62
7
  6
CONTINUOUS
 10
114.4577724904
 20
63.9366138423
 11
119.307033812
 21
63.8519696711
  0
LINE
  5
245
100
AcDbEntity
  8
0
100
AcDbLine
 62
7
  6
CONTINUOUS
 10
47.9209082456
 20
48.0803272509
 11
47.8600883544
 21
44.5959580181
  0
LINE
  5
246
100
AcDbEntity
  8
0
100
AcDbLine
 62
7
  6
CONTINUOUS
 10
119.4030220473
 20
69.3511319945
 11
14.7189683645
 21
71.1783989484
  0
LINE
  5
247
100
AcDbEntity
  8
0
100
AcDbLine
 62
7
  6
CONTINUOUS
 10
57.521202099
 20
70.9328595721
 11
20.6879179278
 21
71.5757869388
  0
LINE
  5
248
100
AcDbEntity
  8
0
100
AcDbLine
 62
7
  6
CONTINUOUS
 10
18.9830824194
 20
71.6055449533
 11
17.4226102391
 21
71.6327830965
  0
LINE
  5
249
100
AcDbEntity
  8
0
100
AcDbLine
 62
7
  6
CONTINUOUS
 10
50.4205274834
 20
48.0366962348
 11
50.3597075923
 21
44.552327002
  0
LINE
  5
24A
100
AcDbEntity
  8
0
100
AcDbLine
 62
7
  6
CONTINUOUS
 10
20.802789667
 20
78.1567844683
 11
19.0979541586
 21
78.1865424828
  0
LINE
  5
24B
100
AcDbEntity
  8
0
100
AcDbLine
 62
7
  6
CONTINUOUS
 10
17.5374819782
 20
78.213780626
 11
14.8425924855
 21
78.2608200971
  0
LINE
  5
24C
100
AcDbEntity
  8
0
100
AcDbLine
 62
7
  6
CONTINUOUS
 10
57.8987065104
 20
104.0198105145
 11
57.8801862742
 21
102.9587868972
  0
LINE
  5
24D
100
AcDbEntity
  8
0
100
AcDbLine
 62
7
  6
CONTINUOUS
 10
57.521202099
 20
70.9328595721
 11
57.905128862
 21
92.9280090939
  0
LINE
  5
24E
100
AcDbEntity
  8
0
100
AcDbLine
 62
7
  6
CONTINUOUS
 10
55.9439910071
 20
94.4974870192
 11
56.1220364215
 21
102.9956220988
  0
LINE
  5
24F
100
AcDbEntity
  8
0
100
AcDbLine
 62
7
  6
CONTINUOUS
 10
57.6086033821
 20
44.4257970553
 11
57.6063345693
 21
44.295816855
  0
LINE
  5
250
100
AcDbEntity
  8
0
100
AcDbLine
 62
7
  6
CONTINUOUS
 10
59.562050565
 20
99.0400227122
 11
59.5882291747
 21
100.539794255
  0
LINE
  5
251
100
AcDbEntity
  8
0
100
AcDbLine
 62
7
  6
CONTINUOUS
 10
61.7724399646
 20
96.7510974836
 11
61.8117078791
 21
99.0007547977
  0
LINE
  5
252
100
AcDbEntity
  8
0
100
AcDbLine
 62
7
  6
CONTINUOUS
 10
61.8378864888
 20
100.5005263405
 11
61.8771544033
 21
102.7501836546
  0
LINE
  5
253
100
AcDbEntity
  8
0
100
AcDbLine
 62
7
  6
CONTINUOUS
 10
61.7563396175
 20
52.8546928384
 11
61.6079941628
 21
44.3559874296
  0
LINE
  5
254
100
AcDbEntity
  8
0
100
AcDbLine
 62
7
  6
CONTINUOUS
 10
59.9390115499
 20
95.6868119948
 11
59.9123746811
 21
94.4143449523
  0
LINE
  5
255
100
AcDbEntity
  8
0
100
AcDbLine
 62
7
  6
CONTINUOUS
 10
63.376925946
 20
102.7240050449
 11
63.3376580315
 21
100.4743477308
  0
LINE
  5
256
100
AcDbEntity
  8
0
100
AcDbLine
 62
7
  6
CONTINUOUS
 10
63.3114794219
 20
98.9745761881
 11
63.2722115074
 21
96.724918874
  0
LINE
  5
257
100
AcDbEntity
  8
0
100
AcDbLine
 62
7
  6
CONTINUOUS
 10
65.5873153456
 20
100.4350798163
 11
65.561136736
 21
98.9353082736
  0
LINE
  5
258
100
AcDbEntity
  8
0
100
AcDbLine
 62
7
  6
CONTINUOUS
 10
67.8780533038
 20
102.7493204246
 11
67.8971834619
 21
103.8452864501
  0
LINE
  5
259
100
AcDbEntity
  8
0
100
AcDbLine
 62
7
  6
CONTINUOUS
 10
64.8203763412
 20
94.7449408213
 11
64.8366371818
 21
95.5213052691
  0
LINE
  5
25A
100
AcDbEntity
  8
0
100
AcDbLine
 62
7
  6
CONTINUOUS
 10
64.0614718547
 20
94.3274167358
 11
68.5094904234
 21
96.7745744716
  0
LINE
  5
25B
100
AcDbEntity
  8
0
100
AcDbLine
 62
7
  6
CONTINUOUS
 10
57.9042562417
 20
92.8780167092
 11
15.1607672738
 21
93.6241070844
  0
LINE
  5
25C
100
AcDbEntity
  8
0
100
AcDbLine
 62
7
  6
CONTINUOUS
 10
71.754816569
 20
52.680168774
 11
71.6064711143
 21
44.1814633652
  0
LINE
  5
25D
100
AcDbEntity
  8
0
100
AcDbLine
 62
7
  6
CONTINUOUS
 10
68.6136512375
 20
96.7725942423
 11
68.6192903997
 21
97.0417172056
  0
LINE
  5
25E
100
AcDbEntity
  8
0
100
AcDbLine
 62
7
  6
CONTINUOUS
 10
68.6344539156
 20
96.7722311302
 11
68.7385089166
 21
102.7312929192
  0
LINE
  5
25F
100
AcDbEntity
  8
0
100
AcDbLine
 62
7
  6
CONTINUOUS
 10
119.7957011922
 20
91.8477051355
 11
102.271827008
 21
92.1535854972
  0
LINE
  5
260
100
AcDbEntity
  8
0
100
AcDbLine
 62
7
  6
CONTINUOUS
 10
65.9315339503
 20
92.787907672
 11
57.905128862
 21
92.9280090939
  0
LINE
  5
261
100
AcDbEntity
  8
0
100
AcDbLine
 62
7
  6
CONTINUOUS
 10
15.1616398941
 20
93.6740994691
 11
15.1116475093
 21
93.6749720895
  0
LINE
  5
262
100
AcDbEntity
  8
0
100
AcDbLine
 62
7
  6
CONTINUOUS
 10
119.830606005
 20
93.8474005258
 11
102.313806604
 21
94.1531573967
  0
LINE
  5
263
100
AcDbEntity
  8
0
100
AcDbLine
 62
7
  6
CONTINUOUS
 10
21.4292741888
 20
95.5650021617
 11
15.1465523222
 21
95.6746674798
  0
LINE
  5
264
100
AcDbEntity
  8
0
100
AcDbLine
 62
7
  6
CONTINUOUS
 10
24.477587934
 20
95.5117936473
 11
30.2767399793
 21
95.4105690718
  0
LINE
  5
265
100
AcDbEntity
  8
0
100
AcDbLine
 62
7
  6
CONTINUOUS
 10
59.9224051768
 20
94.893102061
 11
64.8216888014
 21
94.8075847472
  0
LINE
  5
266
100
AcDbEntity
  8
0
100
AcDbLine
 62
7
  6
CONTINUOUS
 10
95.0037755631
 20
94.2807544631
 11
99.8165718338
 21
94.1967467917
  0
LINE
  5
267
100
AcDbEntity
  8
0
100
AcDbLine
 62
7
  6
CONTINUOUS
 10
24.4901559223
 20
96.1116656691
 11
25.3103100561
 21
96.0973498254
  0
LINE
  5
268
100
AcDbEntity
  8
0
100
AcDbLine
 62
7
  6
CONTINUOUS
 10
21.4512730432
 20
96.5647704983
 11
20.7424088547
 21
96.5771437687
  0
LINE
  5
269
100
AcDbEntity
  8
0
100
AcDbLine
 62
7
  6
CONTINUOUS
 10
20.2271975143
 20
97.3862586785
 11
21.4680440641
 21
97.3645996215
  0
LINE
  5
26A
100
AcDbEntity
  8
0
100
AcDbLine
 62
7
  6
CONTINUOUS
 10
98.4168579921
 20
96.1114667877
 11
96.9170864494
 21
96.1376453974
  0
LINE
  5
26B
100
AcDbEntity
  8
0
100
AcDbLine
 62
7
  6
CONTINUOUS
 10
63.2722115074
 20
96.724918874
 11
61.7724399646
 21
96.7510974836
  0
LINE
  5
26C
100
AcDbEntity
  8
0
100
AcDbLine
 62
7
  6
CONTINUOUS
 10
28.1275650226
 20
97.3383709603
 11
26.6277934799
 21
97.3645495699
  0
LINE
  5
26D
100
AcDbEntity
  8
0
100
AcDbLine
 62
7
  6
CONTINUOUS
 10
80.4565247485
 20
96.8350280251
 11
68.6391505487
 21
97.0413010591
  0
LINE
  5
26E
100
AcDbEntity
  8
0
100
AcDbLine
 62
7
  6
CONTINUOUS
 10
80.4309544172
 20
96.5440533458
 11
68.5094905289
 21
96.7745799322
  0
LINE
  5
26F
100
AcDbEntity
  8
0
100
AcDbLine
 62
7
  6
CONTINUOUS
 10
102.2702840969
 20
92.0265703
 11
21.3930149274
 21
93.7210393534
  0
LINE
  5
270
100
AcDbEntity
  8
0
100
AcDbLine
 62
7
  6
CONTINUOUS
 10
64.0614718547
 20
94.3274167358
 11
55.9439910071
 21
94.4974870192
  0
LINE
  5
271
100
AcDbEntity
  8
0
100
AcDbLine
 62
7
  6
CONTINUOUS
 10
21.4222175341
 20
95.2207567021
 11
33.7874192973
 21
94.9616919247
  0
LINE
  5
272
100
AcDbEntity
  8
0
100
AcDbLine
 62
7
  6
CONTINUOUS
 10
91.4361452919
 20
93.7538867754
 11
102.2996533775
 21
93.5262841566
  0
LINE
  5
273
100
AcDbEntity
  8
0
100
AcDbLine
 62
7
  6
CONTINUOUS
 10
75.6035930821
 20
43.9816735391
 11
75.605861895
 21
44.1116537395
  0
LINE
  5
274
100
AcDbEntity
  8
0
100
AcDbLine
 62
7
  6
CONTINUOUS
 10
112.2928469444
 20
97.4795057478
 11
116.8181464719
 21
97.4005163507
  0
LINE
  5
275
100
AcDbEntity
  8
0
100
AcDbLine
 62
7
  6
CONTINUOUS
 10
100.7057832207
 20
98.3218561873
 11
98.4561259066
 21
98.3611241018
  0
LINE
  5
276
100
AcDbEntity
  8
0
100
AcDbLine
 62
7
  6
CONTINUOUS
 10
96.9563543639
 20
98.3873027115
 11
94.7066970498
 21
98.426570626
  0
LINE
  5
277
100
AcDbEntity
  8
0
100
AcDbLine
 62
7
  6
CONTINUOUS
 10
65.561136736
 20
98.9353082736
 11
63.3114794219
 21
98.9745761881
  0
LINE
  5
278
100
AcDbEntity
  8
0
100
AcDbLine
 62
7
  6
CONTINUOUS
 10
61.8117078791
 20
99.0007547977
 11
59.562050565
 21
99.0400227122
  0
LINE
  5
279
100
AcDbEntity
  8
0
100
AcDbLine
 62
7
  6
CONTINUOUS
 10
30.4164902512
 20
99.5487603599
 11
28.1668329371
 21
99.5880282744
  0
LINE
  5
27A
100
AcDbEntity
  8
0
100
AcDbLine
 62
7
  6
CONTINUOUS
 10
26.6670613944
 20
99.614206884
 11
24.4174040803
 21
99.6534747985
  0
LINE
  5
27B
100
AcDbEntity
  8
0
100
AcDbLine
 62
7
  6
CONTINUOUS
 10
24.4435826899
 20
101.1532463412
 11
26.693240004
 21
101.1139784267
  0
LINE
  5
27C
100
AcDbEntity
  8
0
100
AcDbLine
 62
7
  6
CONTINUOUS
 10
28.1930115468
 20
101.0877998171
 11
30.4426688609
 21
101.0485319026
  0
LINE
  5
27D
100
AcDbEntity
  8
0
100
AcDbLine
 62
7
  6
CONTINUOUS
 10
59.5882291747
 20
100.539794255
 11
61.8378864888
 21
100.5005263405
  0
LINE
  5
27E
100
AcDbEntity
  8
0
100
AcDbLine
 62
7
  6
CONTINUOUS
 10
63.3376580315
 20
100.4743477308
 11
65.5873153456
 21
100.4350798163
  0
LINE
  5
27F
100
AcDbEntity
  8
0
100
AcDbLine
 62
7
  6
CONTINUOUS
 10
94.7328756594
 20
99.9263421687
 11
96.9825329735
 21
99.8870742542
  0
LINE
  5
280
100
AcDbEntity
  8
0
100
AcDbLine
 62
7
  6
CONTINUOUS
 10
98.4823045163
 20
99.8608956446
 11
100.7319618304
 21
99.8216277301
  0
LINE
  5
281
100
AcDbEntity
  8
0
100
AcDbLine
 62
7
  6
CONTINUOUS
 10
80.4565247485
 20
96.8350280251
 11
80.555116331
 21
102.4837218058
  0
LINE
  5
282
100
AcDbEntity
  8
0
100
AcDbLine
 62
7
  6
CONTINUOUS
 10
80.4309544181
 20
96.5440533914
 11
80.436661881
 21
96.835376546
  0
LINE
  5
283
100
AcDbEntity
  8
0
100
AcDbLine
 62
7
  6
CONTINUOUS
 10
80.5507104902
 20
102.2342065783
 11
68.7333935434
 21
102.4404786129
  0
LINE
  5
284
100
AcDbEntity
  8
0
100
AcDbLine
 62
7
  6
CONTINUOUS
 10
26.7325079185
 20
103.3636357409
 11
28.2322794613
 21
103.3374571312
  0
LINE
  5
285
100
AcDbEntity
  8
0
100
AcDbLine
 62
7
  6
CONTINUOUS
 10
61.8771544033
 20
102.7501836546
 11
63.376925946
 21
102.7240050449
  0
LINE
  5
286
100
AcDbEntity
  8
0
100
AcDbLine
 62
7
  6
CONTINUOUS
 10
97.021800888
 20
102.1367315683
 11
98.5215724307
 21
102.1105529587
  0
LINE
  5
287
100
AcDbEntity
  8
0
100
AcDbLine
 62
7
  6
CONTINUOUS
 10
103.0418299467
 20
103.2318343639
 11
100.078561322
 21
103.2835584101
  0
LINE
  5
288
100
AcDbEntity
  8
0
100
AcDbLine
 62
7
  6
CONTINUOUS
 10
95.5202801178
 20
103.3631235045
 11
93.2187262808
 21
103.4032972762
  0
LINE
  5
289
100
AcDbEntity
  8
0
100
AcDbLine
 62
7
  6
CONTINUOUS
 10
67.8971834619
 20
103.8452864501
 11
64.9339148373
 21
103.8970104964
  0
LINE
  5
28A
100
AcDbEntity
  8
0
100
AcDbLine
 62
7
  6
CONTINUOUS
 10
60.375633633
 20
103.9765755908
 11
57.8987065104
 21
104.0198105145
  0
LINE
  5
28B
100
AcDbEntity
  8
0
100
AcDbLine
 62
7
  6
CONTINUOUS
 10
32.7525369772
 20
104.4587385364
 11
29.7892683526
 21
104.5104625827
  0
LINE
  5
28C
100
AcDbEntity
  8
0
100
AcDbLine
 62
7
  6
CONTINUOUS
 10
25.2309871483
 20
104.590027677
 11
22.8327480392
 21
104.6318890964
  0
LINE
  5
28D
100
AcDbEntity
  8
0
100
AcDbLine
 62
7
  6
CONTINUOUS
 10
116.9125967305
 20
103.5715340538
 11
103.451921547
 21
103.8064910131
  0
LINE
  5
28E
100
AcDbEntity
  8
0
100
AcDbLine
 62
7
  6
CONTINUOUS
 10
89.2237829838
 20
105.1832897518
 11
103.4716126397
 21
104.93459296
  0
LINE
  5
28F
100
AcDbEntity
  8
0
100
AcDbLine
 62
7
  6
CONTINUOUS
 10
68.7385082117
 20
102.731292934
 11
66.1963834971
 21
102.7845532839
  0
LINE
  5
290
100
AcDbEntity
  8
0
100
AcDbLine
 62
7
  6
CONTINUOUS
 10
24.0468973303
 20
103.6676320607
 11
21.6012820337
 21
103.7188704306
  0
LINE
  5
291
100
AcDbEntity
  8
0
100
AcDbLine
 62
7
  6
CONTINUOUS
 10
30.943535843
 20
103.5231397868
 11
59.0808982738
 21
102.9336306407
  0
LINE
  5
292
100
AcDbEntity
  8
0
100
AcDbLine
 62
7
  6
CONTINUOUS
 10
80.555116331
 20
102.4837218058
 11
94.1148992172
 21
102.1996292207
  0
LINE
  5
293
100
AcDbEntity
  8
0
100
AcDbLine
 62
7
  6
CONTINUOUS
 10
101.4492311511
 20
102.0459667811
 11
102.4787178771
 21
102.0243978852
  0
LINE
  5
294
100
AcDbEntity
  8
0
100
AcDbLine
 62
7
  6
CONTINUOUS
 10
82.915577576
 20
47.4694930256
 11
82.8547576848
 21
43.9851237928
  0
LINE
  5
295
100
AcDbEntity
  8
0
100
AcDbLine
 62
7
  6
CONTINUOUS
 10
85.4151968139
 20
47.4258620095
 11
85.3543769227
 21
43.9414927767
  0
LINE
  5
296
100
AcDbEntity
  8
0
100
AcDbLine
 62
7
  6
CONTINUOUS
 10
102.5642626987
 20
110.2512381508
 11
92.7657552862
 21
110.4222717339
  0
LINE
  5
297
100
AcDbEntity
  8
0
100
AcDbLine
 62
7
  6
CONTINUOUS
 10
89.7255396688
 20
133.9289109875
 11
89.2237829838
 21
105.1832897517
  0
LINE
  5
298
100
AcDbEntity
  8
0
100
AcDbLine
 62
7
  6
CONTINUOUS
 10
91.6141907063
 20
102.252021855
 11
91.4361452919
 21
93.7538867754
  0
LINE
  5
299
100
AcDbEntity
  8
0
100
AcDbLine
 62
7
  6
CONTINUOUS
 10
100.0850235252
 20
112.8949094844
 11
95.585708897
 21
112.9734453134
  0
LINE
  5
29A
100
AcDbEntity
  8
0
100
AcDbLine
 62
7
  6
CONTINUOUS
 10
95.6293399131
 20
115.4730645513
 11
100.1286545413
 21
115.3945287223
  0
LINE
  5
29B
100
AcDbEntity
  8
0
100
AcDbLine
 62
7
  6
CONTINUOUS
 10
92.7657552862
 20
110.4222717339
 11
92.8966483345
 21
117.9211294475
  0
LINE
  5
29C
100
AcDbEntity
  8
0
100
AcDbLine
 62
7
  6
CONTINUOUS
 10
91.9533717108
 20
43.8263068942
 11
91.9511028979
 21
43.6963266938
  0
LINE
  5
29D
100
AcDbEntity
  8
0
100
AcDbLine
 62
7
  6
CONTINUOUS
 10
93.2187262808
 20
103.4032972762
 11
93.1980514708
 21
102.2188382042
  0
LINE
  5
29E
100
AcDbEntity
  8
0
100
AcDbLine
 62
7
  6
CONTINUOUS
 10
94.7066970498
 20
98.426570626
 11
94.7328756594
 21
99.9263421687
  0
LINE
  5
29F
100
AcDbEntity
  8
0
100
AcDbLine
 62
7
  6
CONTINUOUS
 10
95.585708897
 20
112.9734453134
 11
95.6293399131
 21
115.4730645513
  0
LINE
  5
2A0
100
AcDbEntity
  8
0
100
AcDbLine
 62
7
  6
CONTINUOUS
 10
91.8028762929
 20
93.7462033516
 11
91.9809217073
 21
102.2443384312
  0
LINE
  5
2A1
100
AcDbEntity
  8
0
100
AcDbLine
 62
7
  6
CONTINUOUS
 10
94.9911766186
 20
93.6794049015
 11
95.020898656
 21
95.0980423317
  0
LINE
  5
2A2
100
AcDbEntity
  8
0
100
AcDbLine
 62
7
  6
CONTINUOUS
 10
92.8966483345
 20
117.9211294475
 11
102.695155747
 21
117.7500958645
  0
LINE
  5
2A3
100
AcDbEntity
  8
0
100
AcDbLine
 62
7
  6
CONTINUOUS
 10
112.9404044026
 20
120.2533755559
 11
98.442612977
 21
120.5064442819
  0
LINE
  5
2A4
100
AcDbEntity
  8
0
100
AcDbLine
 62
7
  6
CONTINUOUS
 10
96.9170864494
 20
96.1376453974
 11
96.9563543639
 21
98.3873027115
  0
LINE
  5
2A5
100
AcDbEntity
  8
0
100
AcDbLine
 62
7
  6
CONTINUOUS
 10
96.9825329735
 20
99.8870742542
 11
97.021800888
 21
102.1367315683
  0
LINE
  5
2A6
100
AcDbEntity
  8
0
100
AcDbLine
 62
7
  6
CONTINUOUS
 10
97.9242907691
 20
133.7858012547
 11
98.0464576142
 21
140.7847351208
  0
LINE
  5
2A7
100
AcDbEntity
  8
0
100
AcDbLine
 62
7
  6
CONTINUOUS
 10
96.751008948
 20
52.2438586131
 11
96.6026634932
 21
43.7451532043
  0
LINE
  5
2A8
100
AcDbEntity
  8
0
100
AcDbLine
 62
7
  6
CONTINUOUS
 10
98.6305502858
 20
131.2733654934
 11
98.4426129253
 21
120.5064413185
  0
LINE
  5
2A9
100
AcDbEntity
  8
0
100
AcDbLine
 62
7
  6
CONTINUOUS
 10
98.5215724307
 20
102.1105529587
 11
98.4823045163
 21
99.8608956446
  0
LINE
  5
2AA
100
AcDbEntity
  8
0
100
AcDbLine
 62
7
  6
CONTINUOUS
 10
98.4561259066
 20
98.3611241018
 11
98.4168579921
 21
96.1114667877
  0
LINE
  5
2AB
100
AcDbEntity
  8
0
100
AcDbLine
 62
7
  6
CONTINUOUS
 10
99.0597432969
 20
127.2095782894
 11
99.1152900844
 21
130.3918516116
  0
LINE
  5
2AC
100
AcDbEntity
  8
0
100
AcDbLine
 62
7
  6
CONTINUOUS
 10
100.1286545413
 20
115.3945287223
 11
100.0850235252
 21
112.8949094844
  0
LINE
  5
2AD
100
AcDbEntity
  8
0
100
AcDbLine
 62
7
  6
CONTINUOUS
 10
100.7319618304
 20
99.8216277301
 11
100.7057832207
 21
98.3218561873
  0
LINE
  5
2AE
100
AcDbEntity
  8
0
100
AcDbLine
 62
7
  6
CONTINUOUS
 10
99.8036205251
 20
93.5785788306
 11
99.830322339
 21
94.853188969
  0
LINE
  5
2AF
100
AcDbEntity
  8
0
100
AcDbLine
 62
7
  6
CONTINUOUS
 10
113.0022326443
 20
123.7955131491
 11
98.5044410645
 21
124.0485730424
  0
LINE
  5
2B0
100
AcDbEntity
  8
0
100
AcDbLine
 62
7
  6
CONTINUOUS
 10
102.695155747
 20
117.7500958645
 11
102.5642626987
 21
110.2512381508
  0
LINE
  5
2B1
100
AcDbEntity
  8
0
100
AcDbLine
 62
7
  6
CONTINUOUS
 10
102.8831875722
 20
94.1432188149
 11
103.0418299467
 21
103.2318343639
  0
LINE
  5
2B2
100
AcDbEntity
  8
0
100
AcDbLine
 62
7
  6
CONTINUOUS
 10
103.4716126397
 20
104.93459296
 11
103.2831266502
 21
94.1362378523
  0
LINE
  5
2B3
100
AcDbEntity
  8
0
100
AcDbLine
 62
7
  6
CONTINUOUS
 10
102.2702840969
 20
92.0265703
 11
102.4010009427
 21
98.3149566263
  0
LINE
  5
2B4
100
AcDbEntity
  8
0
100
AcDbLine
 62
7
  6
CONTINUOUS
 10
102.430951042
 20
99.7444794812
 11
102.4787178771
 21
102.0243978852
  0
LINE
  5
2B5
100
AcDbEntity
  8
0
100
AcDbLine
 62
7
  6
CONTINUOUS
 10
112.5575861791
 20
126.9739725655
 11
99.0597432969
 21
127.2095782894
  0
LINE
  5
2B6
100
AcDbEntity
  8
0
100
AcDbLine
 62
7
  6
CONTINUOUS
 10
99.1052797953
 20
129.8183625338
 11
112.6031226775
 21
129.5827568099
  0
LINE
  5
2B7
100
AcDbEntity
  8
0
100
AcDbLine
 62
7
  6
CONTINUOUS
 10
99.1152900844
 20
130.3918516116
 11
112.6131329666
 21
130.1562458877
  0
LINE
  5
2B8
100
AcDbEntity
  8
0
100
AcDbLine
 62
7
  6
CONTINUOUS
 10
106.7494858995
 20
52.0693345488
 11
106.6011404448
 21
43.5706291399
  0
LINE
  5
2B9
100
AcDbEntity
  8
0
100
AcDbLine
 62
7
  6
CONTINUOUS
 10
109.9483614107
 20
43.382183378
 11
109.9506302236
 21
43.5121635783
  0
LINE
  5
2BA
100
AcDbEntity
  8
0
100
AcDbLine
 62
7
  6
CONTINUOUS
 10
113.1283431173
 20
131.0203773091
 11
98.6305502858
 21
131.2733654934
  0
LINE
  5
2BB
100
AcDbEntity
  8
0
100
AcDbLine
 62
7
  6
CONTINUOUS
 10
97.9242907691
 20
133.7858012547
 11
89.7255396688
 21
133.9289109875
  0
LINE
  5
2BC
100
AcDbEntity
  8
0
100
AcDbLine
 62
7
  6
CONTINUOUS
 10
112.6131329666
 20
130.1562458877
 11
112.5575861791
 21
126.9739725655
  0
LINE
  5
2BD
100
AcDbEntity
  8
0
100
AcDbLine
 62
7
  6
CONTINUOUS
 10
112.2317635219
 20
93.9800388147
 11
112.2928469444
 21
97.4795057478
  0
LINE
  5
2BE
100
AcDbEntity
  8
0
100
AcDbLine
 62
7
  6
CONTINUOUS
 10
112.9404043509
 20
120.2533725925
 11
113.1283431173
 21
131.0203773091
  0
LINE
  5
2BF
100
AcDbEntity
  8
0
100
AcDbLine
 62
7
  6
CONTINUOUS
 10
114.2657960196
 20
52.9382891956
 11
114.4577724904
 21
63.9366138423
  0
LINE
  5
2C0
100
AcDbEntity
  8
0
100
AcDbLine
 62
7
  6
CONTINUOUS
 10
116.8181464718
 20
97.4005163507
 11
117.3592789265
 21
132.756035787
  0
LINE
  5
2C1
100
AcDbEntity
  8
0
100
AcDbLine
 62
7
  6
CONTINUOUS
 10
115.85046476
 20
54.9109333559
 11
115.8155599471
 21
52.9112379656
  0
LINE
  5
2C2
100
AcDbEntity
  8
0
100
AcDbLine
 62
7
  6
CONTINUOUS
 10
118.0825142163
 20
50.9979775166
 11
118.1850622753
 21
56.8729518857
  0
LINE
  5
2C3
100
AcDbEntity
  8
0
100
AcDbLine
 62
7
  6
CONTINUOUS
 10
119.2764205459
 20
62.098136829
 11
119.8306060051
 21
93.8474005258
  0
LINE
  5
2C4
100
AcDbEntity
  8
0
100
AcDbLine
 62
7
  6
CONTINUOUS
 10
117.4793708274
 20
47.1019389636
 11
117.3495031678
 21
43.3830157707
  0
LINE
  5
2C5
100
AcDbEntity
  8
0
100
AcDbLine
 62
7
  6
CONTINUOUS
 10
110.8779030252
 20
140.560761408
 11
98.0464576142
 21
140.7847351208
  0
ARC
  5
2C6
100
AcDbEntity
  8
0
100
AcDbCircle
 62
7
  6
CONTINUOUS
 10
117.1208384803
 20
139.1515925379
 40
6.4
100
AcDbArc
 50
167.2802396942
 51
272.1351240117
  0
ARC
  5
2C7
100
AcDbEntity
  8
0
100
AcDbCircle
 62
7
  6
CONTINUOUS
 10
31.7609087628
 20
53.3782650315
 40
5.0
100
AcDbArc
 50
358.9999999984
 51
179.0
  0
ARC
  5
2C8
100
AcDbEntity
  8
0
100
AcDbCircle
 62
7
  6
CONTINUOUS
 10
66.7555780933
 20
52.7674308062
 40
5.0
100
AcDbArc
 50
358.9999999993
 51
179.0
  0
ARC
  5
2C9
100
AcDbEntity
  8
0
100
AcDbCircle
 62
7
  6
CONTINUOUS
 10
101.7502474237
 20
52.1565965809
 40
5.0
100
AcDbArc
 50
359.0000000011
 51
179.0
  0
CIRCLE
  5
2CA
100
AcDbEntity
  8
0
100
AcDbCircle
 62
7
  6
CONTINUOUS
 10
49.3891364763
 20
60.5717056325
 40
5.0
  0
CIRCLE
  5
2CB
100
AcDbEntity
  8
0
100
AcDbCircle
 62
7
  6
CONTINUOUS
 10
62.5746829553
 20
99.7375512643
 40
4.875
  0
CIRCLE
  5
2CC
100
AcDbEntity
  8
0
100
AcDbCircle
 62
7
  6
CONTINUOUS
 10
27.4300364706
 20
100.3510033506
 40
4.875
  0
CIRCLE
  5
2CD
100
AcDbEntity
  8
0
100
AcDbCircle
 62
7
  6
CONTINUOUS
 10
97.7193294401
 20
99.124099178
 40
4.875
  0
ARC
  5
2CE
100
AcDbEntity
  8
0
100
AcDbCircle
 62
7
  6
CONTINUOUS
 10
32.4085409518
 20
53.236940767
 40
4.75
100
AcDbArc
 50
54.2188081603
 51
340.294898011
  0
CIRCLE
  5
2CF
100
AcDbEntity
  8
0
100
AcDbCircle
 62
7
  6
CONTINUOUS
 10
66.7533092804
 20
52.6374506058
 40
4.75
  0
ARC
  5
2D0
100
AcDbEntity
  8
0
100
AcDbCircle
 62
7
  6
CONTINUOUS
 10
101.098077609
 20
52.0379604447
 40
4.75
100
AcDbArc
 50
197.8516351946
 51
123.4369364937
  0
CIRCLE
  5
2D1
100
AcDbEntity
  8
0
100
AcDbCircle
 62
7
  6
CONTINUOUS
 10
49.3891363708
 20
60.5716995899
 40
3.1375
  0
ARC
  5
2D2
100
AcDbEntity
  8
0
100
AcDbCircle
 62
7
  6
CONTINUOUS
 10
14.3944670404
 20
61.1825338152
 40
2.75
100
AcDbArc
 50
293.7198511829
 51
85.8732238864
  0
ARC
  5
2D3
100
AcDbEntity
  8
0
100
AcDbCircle
 62
7
  6
CONTINUOUS
 10
119.3784750318
 20
59.3500311393
 40
2.75
100
AcDbArc
 50
92.1267761123
 51
244.281020923
  0
ARC
  5
2D4
100
AcDbEntity
  8
0
100
AcDbCircle
 62
7
  6
CONTINUOUS
 10
49.2085034328
 20
50.2232455027
 40
2.5
100
AcDbArc
 50
299.0000000002
 51
239.0
  0
ARC
  5
2D5
100
AcDbEntity
  8
0
100
AcDbCircle
 62
7
  6
CONTINUOUS
 10
84.2031727633
 20
49.6124112774
 40
2.5
100
AcDbArc
 50
298.9999999999
 51
238.9999999999
  0
ARC
  5
2D6
100
AcDbEntity
  8
0
100
AcDbCircle
 62
7
  6
CONTINUOUS
 10
14.3611936438
 20
50.6814989264
 40
2.35
100
AcDbArc
 50
309.7844731101
 51
63.815663466
  0
ARC
  5
2D7
100
AcDbEntity
  8
0
100
AcDbCircle
 62
7
  6
CONTINUOUS
 10
119.0452473267
 20
48.8542319724
 40
2.35
100
AcDbArc
 50
114.1843365344
 51
228.2155268909
  0
SPLINE
  5
2D8
100
AcDbEntity
  8
0
100
AcDbSpline
 62
7
  6
CONTINUOUS
 70
0
 71
3
 72
9
 73
5
 74
0
 42
0.0000001
 43
0.0000001
 44
0.0000000001
 40
0.0
 40
0.0
 40
0.0
 40
0.0
 40
0.4827970939
 40
1.0
 40
1.0
 40
1.0
 40
1.0
 10
112.4167615956
 20
121.7681779119
 30
0.0
 10
112.4176923883
 20
121.8215029901
 30
0.0
 10
112.4001892355
 20
121.9328945073
 30
0.0
 10
112.3494664336
 20
122.0329107044
 30
0.0
 10
112.3174966491
 20
122.0802627557
 30
0.0
  0
SPLINE
  5
2D9
100
AcDbEntity
  8
0
100
AcDbSpline
 62
7
  6
CONTINUOUS
 70
0
 71
3
 72
9
 73
5
 74
0
 42
0.0000001
 43
0.0000001
 44
0.0000000001
 40
0.0
 40
0.0
 40
0.0
 40
0.0
 40
0.2336587724
 40
1.0
 40
1.0
 40
1.0
 40
1.0
 10
112.3174966491
 20
122.0802627557
 30
0.0
 10
112.3032516732
 20
122.1013617038
 30
0.0
 10
112.2372715039
 20
122.188273016
 30
0.0
 10
112.153986893
 20
122.2611442265
 30
0.0
 10
112.0858274848
 20
122.3093683781
 30
0.0
  0
SPLINE
  5
2DA
100
AcDbEntity
  8
0
100
AcDbSpline
 62
7
  6
CONTINUOUS
 70
0
 71
3
 72
11
 73
7
 74
0
 42
0.0000001
 43
0.0000001
 44
0.0000000001
 40
0.0
 40
0.0
 40
0.0
 40
0.0
 40
0.2340019551
 40
0.4996174769
 40
0.7654408447
 40
1.0
 40
1.0
 40
1.0
 40
1.0
 10
112.0858274848
 20
122.3093683781
 30
0.0
 10
111.9384215092
 20
122.4136610692
 30
0.0
 10
111.5758987416
 20
122.5682125969
 30
0.0
 10
110.9857074397
 20
122.6491222967
 30
0.0
 10
110.3924407484
 20
122.5905865668
 30
0.0
 10
110.0237277817
 20
122.4499759202
 30
0.0
 10
109.8719116961
 20
122.3514222445
 30
0.0
  0
SPLINE
  5
2DB
100
AcDbEntity
  8
0
100
AcDbSpline
 62
7
  6
CONTINUOUS
 70
0
 71
3
 72
9
 73
5
 74
0
 42
0.0000001
 43
0.0000001
 44
0.0000000001
 40
0.0
 40
0.0
 40
0.0
 40
0.0
 40
0.2682293504
 40
1.0
 40
1.0
 40
1.0
 40
1.0
 10
109.8719116961
 20
122.3514222445
 30
0.0
 10
109.8468496545
 20
122.3351528465
 30
0.0
 10
109.7557947624
 20
122.2710957512
 30
0.0
 10
109.6742851715
 20
122.1921098197
 30
0.0
 10
109.6264768477
 20
122.1260847781
 30
0.0
  0
SPLINE
  5
2DC
100
AcDbEntity
  8
0
100
AcDbSpline
 62
7
  6
CONTINUOUS
 70
0
 71
3
 72
9
 73
5
 74
0
 42
0.0000001
 43
0.0000001
 44
0.0000000001
 40
0.0
 40
0.0
 40
0.0
 40
0.0
 40
0.5171070732
 40
1.0
 40
1.0
 40
1.0
 40
1.0
 10
109.6264768477
 20
122.1260847781
 30
0.0
 10
109.5931151833
 20
122.0800111007
 30
0.0
 10
109.5393425081
 20
121.982148229
 30
0.0
 10
109.518130356
 20
121.8719020555
 30
0.0
 10
109.5172032797
 20
121.8187898906
 30
0.0
  0
SPLINE
  5
2DD
100
AcDbEntity
  8
0
100
AcDbSpline
 62
7
  6
CONTINUOUS
 70
0
 71
3
 72
9
 73
5
 74
0
 42
0.0000001
 43
0.0000001
 44
0.0000000001
 40
0.0
 40
0.0
 40
0.0
 40
0.0
 40
0.4827970939
 40
1.0
 40
1.0
 40
1.0
 40
1.0
 10
108.9172946626
 20
121.8292613345
 30
0.0
 10
108.9182254553
 20
121.8825864126
 30
0.0
 10
108.9007223024
 20
121.9939779298
 30
0.0
 10
108.8499995006
 20
122.093994127
 30
0.0
 10
108.818029716
 20
122.1413461782
 30
0.0
  0
SPLINE
  5
2DE
100
AcDbEntity
  8
0
100
AcDbSpline
 62
7
  6
CONTINUOUS
 70
0
 71
3
 72
9
 73
5
 74
0
 42
0.0000001
 43
0.0000001
 44
0.0000000001
 40
0.0
 40
0.0
 40
0.0
 40
0.0
 40
0.2336587724
 40
1.0
 40
1.0
 40
1.0
 40
1.0
 10
108.818029716
 20
122.1413461782
 30
0.0
 10
108.8037847401
 20
122.1624451263
 30
0.0
 10
108.7378045709
 20
122.2493564385
 30
0.0
 10
108.65451996
 20
122.322227649
 30
0.0
 10
108.5863605517
 20
122.3704518006
 30
0.0
  0
SPLINE
  5
2DF
100
AcDbEntity
  8
0
100
AcDbSpline
 62
7
  6
CONTINUOUS
 70
0
 71
3
 72
11
 73
7
 74
0
 42
0.0000001
 43
0.0000001
 44
0.0000000001
 40
0.0
 40
0.0
 40
0.0
 40
0.0
 40
0.2340019551
 40
0.4996174769
 40
0.7654408447
 40
1.0
 40
1.0
 40
1.0
 40
1.0
 10
108.5863605517
 20
122.3704518006
 30
0.0
 10
108.4389545762
 20
122.4747444917
 30
0.0
 10
108.0764318085
 20
122.6292960194
 30
0.0
 10
107.4862405066
 20
122.7102057193
 30
0.0
 10
106.8929738154
 20
122.6516699893
 30
0.0
 10
106.5242608486
 20
122.5110593428
 30
0.0
 10
106.3724447631
 20
122.4125056671
 30
0.0
  0
SPLINE
  5
2E0
100
AcDbEntity
  8
0
100
AcDbSpline
 62
7
  6
CONTINUOUS
 70
0
 71
3
 72
9
 73
5
 74
0
 42
0.0000001
 43
0.0000001
 44
0.0000000001
 40
0.0
 40
0.0
 40
0.0
 40
0.0
 40
0.2682293504
 40
1.0
 40
1.0
 40
1.0
 40
1.0
 10
106.3724447631
 20
122.4125056671
 30
0.0
 10
106.3473827215
 20
122.396236269
 30
0.0
 10
106.2563278294
 20
122.3321791738
 30
0.0
 10
106.1748182385
 20
122.2531932423
 30
0.0
 10
106.1270099147
 20
122.1871682006
 30
0.0
  0
SPLINE
  5
2E1
100
AcDbEntity
  8
0
100
AcDbSpline
 62
7
  6
CONTINUOUS
 70
0
 71
3
 72
9
 73
5
 74
0
 42
0.0000001
 43
0.0000001
 44
0.0000000001
 40
0.0
 40
0.0
 40
0.0
 40
0.0
 40
0.5171070732
 40
1.0
 40
1.0
 40
1.0
 40
1.0
 10
106.1270099147
 20
122.1871682006
 30
0.0
 10
106.0936482502
 20
122.1410945232
 30
0.0
 10
106.039875575
 20
122.0432316515
 30
0.0
 10
106.0186634229
 20
121.932985478
 30
0.0
 10
106.0177363466
 20
121.8798733131
 30
0.0
  0
SPLINE
  5
2E2
100
AcDbEntity
  8
0
100
AcDbSpline
 62
7
  6
CONTINUOUS
 70
0
 71
3
 72
9
 73
5
 74
0
 42
0.0000001
 43
0.0000001
 44
0.0000000001
 40
0.0
 40
0.0
 40
0.0
 40
0.0
 40
0.4827970939
 40
1.0
 40
1.0
 40
1.0
 40
1.0
 10
105.4178277295
 20
121.890344757
 30
0.0
 10
105.4187585222
 20
121.9436698352
 30
0.0
 10
105.4012553694
 20
122.0550613523
 30
0.0
 10
105.3505325675
 20
122.1550775495
 30
0.0
 10
105.318562783
 20
122.2024296007
 30
0.0
  0
SPLINE
  5
2E3
100
AcDbEntity
  8
0
100
AcDbSpline
 62
7
  6
CONTINUOUS
 70
0
 71
3
 72
9
 73
5
 74
0
 42
0.0000001
 43
0.0000001
 44
0.0000000001
 40
0.0
 40
0.0
 40
0.0
 40
0.0
 40
0.2336587724
 40
1.0
 40
1.0
 40
1.0
 40
1.0
 10
105.318562783
 20
122.2024296007
 30
0.0
 10
105.3043178071
 20
122.2235285489
 30
0.0
 10
105.2383376378
 20
122.310439861
 30
0.0
 10
105.155053027
 20
122.3833110715
 30
0.0
 10
105.0868936187
 20
122.4315352231
 30
0.0
  0
SPLINE
  5
2E4
100
AcDbEntity
  8
0
100
AcDbSpline
 62
7
  6
CONTINUOUS
 70
0
 71
3
 72
11
 73
7
 74
0
 42
0.0000001
 43
0.0000001
 44
0.0000000001
 40
0.0
 40
0.0
 40
0.0
 40
0.0
 40
0.2340019551
 40
0.4996174769
 40
0.7654408447
 40
1.0
 40
1.0
 40
1.0
 40
1.0
 10
105.0868936187
 20
122.4315352231
 30
0.0
 10
104.9394876432
 20
122.5358279142
 30
0.0
 10
104.5769648755
 20
122.6903794419
 30
0.0
 10
103.9867735736
 20
122.7712891418
 30
0.0
 10
103.3935068823
 20
122.7127534118
 30
0.0
 10
103.0247939156
 20
122.5721427653
 30
0.0
 10
102.8729778301
 20
122.4735890896
 30
0.0
  0
SPLINE
  5
2E5
100
AcDbEntity
  8
0
100
AcDbSpline
 62
7
  6
CONTINUOUS
 70
0
 71
3
 72
9
 73
5
 74
0
 42
0.0000001
 43
0.0000001
 44
0.0000000001
 40
0.0
 40
0.0
 40
0.0
 40
0.0
 40
0.2682293504
 40
1.0
 40
1.0
 40
1.0
 40
1.0
 10
102.8729778301
 20
122.4735890896
 30
0.0
 10
102.8479157884
 20
122.4573196915
 30
0.0
 10
102.7568608963
 20
122.3932625963
 30
0.0
 10
102.6753513054
 20
122.3142766648
 30
0.0
 10
102.6275429816
 20
122.2482516231
 30
0.0
  0
SPLINE
  5
2E6
100
AcDbEntity
  8
0
100
AcDbSpline
 62
7
  6
CONTINUOUS
 70
0
 71
3
 72
9
 73
5
 74
0
 42
0.0000001
 43
0.0000001
 44
0.0000000001
 40
0.0
 40
0.0
 40
0.0
 40
0.0
 40
0.5171070732
 40
1.0
 40
1.0
 40
1.0
 40
1.0
 10
102.6275429816
 20
122.2482516231
 30
0.0
 10
102.5941813172
 20
122.2021779457
 30
0.0
 10
102.540408642
 20
122.104315074
 30
0.0
 10
102.5191964899
 20
121.9940689006
 30
0.0
 10
102.5182694136
 20
121.9409567357
 30
0.0
  0
SPLINE
  5
2E7
100
AcDbEntity
  8
0
100
AcDbSpline
 62
7
  6
CONTINUOUS
 70
0
 71
3
 72
9
 73
5
 74
0
 42
0.0000001
 43
0.0000001
 44
0.0000000001
 40
0.0
 40
0.0
 40
0.0
 40
0.0
 40
0.4827970939
 40
1.0
 40
1.0
 40
1.0
 40
1.0
 10
101.9183607965
 20
121.9514281795
 30
0.0
 10
101.9192915892
 20
122.0047532577
 30
0.0
 10
101.9017884363
 20
122.1161447749
 30
0.0
 10
101.8510656345
 20
122.216160972
 30
0.0
 10
101.8190958499
 20
122.2635130232
 30
0.0
  0
SPLINE
  5
2E8
100
AcDbEntity
  8
0
100
AcDbSpline
 62
7
  6
CONTINUOUS
 70
0
 71
3
 72
9
 73
5
 74
0
 42
0.0000001
 43
0.0000001
 44
0.0000000001
 40
0.0
 40
0.0
 40
0.0
 40
0.0
 40
0.2336587724
 40
1.0
 40
1.0
 40
1.0
 40
1.0
 10
101.8190958499
 20
122.2635130232
 30
0.0
 10
101.804850874
 20
122.2846119714
 30
0.0
 10
101.7388707048
 20
122.3715232836
 30
0.0
 10
101.6555860939
 20
122.444394494
 30
0.0
 10
101.5874266856
 20
122.4926186457
 30
0.0
  0
SPLINE
  5
2E9
100
AcDbEntity
  8
0
100
AcDbSpline
 62
7
  6
CONTINUOUS
 70
0
 71
3
 72
11
 73
7
 74
0
 42
0.0000001
 43
0.0000001
 44
0.0000000001
 40
0.0
 40
0.0
 40
0.0
 40
0.0
 40
0.2340019551
 40
0.4996174769
 40
0.7654408447
 40
1.0
 40
1.0
 40
1.0
 40
1.0
 10
101.5874266856
 20
122.4926186457
 30
0.0
 10
101.4400207101
 20
122.5969113368
 30
0.0
 10
101.0774979424
 20
122.7514628645
 30
0.0
 10
100.4873066405
 20
122.8323725643
 30
0.0
 10
99.8940399493
 20
122.7738368344
 30
0.0
 10
99.5253269825
 20
122.6332261878
 30
0.0
 10
99.373510897
 20
122.5346725121
 30
0.0
  0
SPLINE
  5
2EA
100
AcDbEntity
  8
0
100
AcDbSpline
 62
7
  6
CONTINUOUS
 70
0
 71
3
 72
9
 73
5
 74
0
 42
0.0000001
 43
0.0000001
 44
0.0000000001
 40
0.0
 40
0.0
 40
0.0
 40
0.0
 40
0.2682293504
 40
1.0
 40
1.0
 40
1.0
 40
1.0
 10
99.373510897
 20
122.5346725121
 30
0.0
 10
99.3484488554
 20
122.5184031141
 30
0.0
 10
99.2573939633
 20
122.4543460188
 30
0.0
 10
99.1758843724
 20
122.3753600873
 30
0.0
 10
99.1280760486
 20
122.3093350456
 30
0.0
  0
SPLINE
  5
2EB
100
AcDbEntity
  8
0
100
AcDbSpline
 62
7
  6
CONTINUOUS
 70
0
 71
3
 72
9
 73
5
 74
0
 42
0.0000001
 43
0.0000001
 44
0.0000000001
 40
0.0
 40
0.0
 40
0.0
 40
0.0
 40
0.5171070732
 40
1.0
 40
1.0
 40
1.0
 40
1.0
 10
99.1280760486
 20
122.3093350456
 30
0.0
 10
99.0947143841
 20
122.2632613683
 30
0.0
 10
99.0409417089
 20
122.1653984966
 30
0.0
 10
99.0197295568
 20
122.0551523231
 30
0.0
 10
99.0188024805
 20
122.0020401582
 30
0.0
  0
SPLINE
  5
2EC
100
AcDbEntity
  8
0
100
AcDbSpline
 62
7
  6
CONTINUOUS
 70
0
 71
3
 72
9
 73
5
 74
0
 42
0.0000001
 43
0.0000001
 44
0.0000000001
 40
0.0
 40
0.0
 40
0.0
 40
0.0
 40
0.2446689604
 40
1.0
 40
1.0
 40
1.0
 40
1.0
 10
112.3697438179
 20
121.9614677316
 30
0.0
 10
112.365859565
 20
121.9535697027
 30
0.0
 10
112.3492549251
 20
121.9216506224
 30
0.0
 10
112.3297943552
 20
121.8912363335
 30
0.0
 10
112.3138136018
 20
121.8692611203
 30
0.0
  0
SPLINE
  5
2ED
100
AcDbEntity
  8
0
100
AcDbSpline
 62
7
  6
CONTINUOUS
 70
0
 71
3
 72
9
 73
5
 74
0
 42
0.0000001
 43
0.0000001
 44
0.0000000001
 40
0.0
 40
0.0
 40
0.0
 40
0.0
 40
0.2336587724
 40
1.0
 40
1.0
 40
1.0
 40
1.0
 10
112.3138136018
 20
121.8692611203
 30
0.0
 10
112.2988409609
 20
121.8486721675
 30
0.0
 10
112.2298678239
 20
121.7641164741
 30
0.0
 10
112.1440907792
 20
121.6941962458
 30
0.0
 10
112.0742898932
 20
121.6483802
 30
0.0
  0
SPLINE
  5
2EE
100
AcDbEntity
  8
0
100
AcDbSpline
 62
7
  6
CONTINUOUS
 70
0
 71
3
 72
11
 73
7
 74
0
 42
0.0000001
 43
0.0000001
 44
0.0000000001
 40
0.0
 40
0.0
 40
0.0
 40
0.0
 40
0.2340019551
 40
0.4996174769
 40
0.7654408447
 40
1.0
 40
1.0
 40
1.0
 40
1.0
 10
112.0742898932
 20
121.6483802
 30
0.0
 10
111.923333951
 20
121.5492954356
 30
0.0
 10
111.5556382518
 20
121.4074899186
 30
0.0
 10
110.9629827708
 20
121.3472268862
 30
0.0
 10
110.3721203491
 20
121.4264316667
 30
0.0
 10
110.0085392331
 20
121.579824554
 30
0.0
 10
109.8602551035
 20
121.6836164984
 30
0.0
  0
SPLINE
  5
2EF
100
AcDbEntity
  8
0
100
AcDbSpline
 62
7
  6
CONTINUOUS
 70
0
 71
3
 72
9
 73
5
 74
0
 42
0.0000001
 43
0.0000001
 44
0.0000000001
 40
0.0
 40
0.0
 40
0.0
 40
0.0
 40
0.2682293504
 40
1.0
 40
1.0
 40
1.0
 40
1.0
 10
109.8602551035
 20
121.6836164984
 30
0.0
 10
109.8357761228
 20
121.7007506383
 30
0.0
 10
109.7470122592
 20
121.7679464815
 30
0.0
 10
109.668308891
 20
121.8497289406
 30
0.0
 10
109.6228339315
 20
121.9173822481
 30
0.0
  0
SPLINE
  5
2F0
100
AcDbEntity
  8
0
100
AcDbSpline
 62
7
  6
CONTINUOUS
 70
0
 71
3
 72
9
 73
5
 74
0
 42
0.0000001
 43
0.0000001
 44
0.0000000001
 40
0.0
 40
0.0
 40
0.0
 40
0.0
 40
0.2557052187
 40
1.0
 40
1.0
 40
1.0
 40
1.0
 10
109.6228339315
 20
121.9173822481
 30
0.0
 10
109.6177778773
 20
121.9249041633
 30
0.0
 10
109.5985894757
 20
121.9547071825
 30
0.0
 10
109.5818328152
 20
121.9860920305
 30
0.0
 10
109.571016007
 20
122.0101534316
 30
0.0
  0
SPLINE
  5
2F1
100
AcDbEntity
  8
0
100
AcDbSpline
 62
7
  6
CONTINUOUS
 70
0
 71
3
 72
19
 73
15
 74
0
 42
0.0000001
 43
0.0000001
 44
0.0000000001
 40
0.0
 40
0.0
 40
0.0
 40
0.0
 40
0.0451762684
 40
0.0937239583
 40
0.1477292182
 40
0.2081541285
 40
0.3465496164
 40
0.4999836387
 40
0.6534186186
 40
0.7918252578
 40
0.8522575062
 40
0.9062708198
 40
0.954822845
 40
1.0
 40
1.0
 40
1.0
 40
1.0
 10
106.0177363466
 20
121.8798733131
 30
0.0
 10
106.0167797802
 20
121.8250716608
 30
0.0
 10
106.0354025938
 20
121.7102982427
 30
0.0
 10
106.1196622194
 20
121.5493487794
 30
0.0
 10
106.2552432527
 20
121.4028835576
 30
0.0
 10
106.5068405645
 20
121.2245644022
 30
0.0
 10
106.9125988047
 20
121.0708564091
 30
0.0
 10
107.4525899604
 20
121.0028993996
 30
0.0
 10
107.9946386748
 20
121.0519446909
 30
0.0
 10
108.4055460037
 20
121.1913829086
 30
0.0
 10
108.6632451034
 20
121.3608223636
 30
0.0
 10
108.8038821823
 20
121.5024745318
 30
0.0
 10
108.8937164109
 20
121.6603994195
 30
0.0
 10
108.9163380774
 20
121.7744586065
 30
0.0
 10
108.9172946626
 20
121.8292613345
 30
0.0
  0
SPLINE
  5
2F2
100
AcDbEntity
  8
0
100
AcDbSpline
 62
7
  6
CONTINUOUS
 70
0
 71
3
 72
9
 73
5
 74
0
 42
0.0000001
 43
0.0000001
 44
0.0000000001
 40
0.0
 40
0.0
 40
0.0
 40
0.0
 40
0.2446689604
 40
1.0
 40
1.0
 40
1.0
 40
1.0
 10
108.8702768849
 20
122.0225511541
 30
0.0
 10
108.866392632
 20
122.0146531252
 30
0.0
 10
108.849787992
 20
121.9827340449
 30
0.0
 10
108.8303274221
 20
121.952319756
 30
0.0
 10
108.8143466688
 20
121.9303445428
 30
0.0
  0
SPLINE
  5
2F3
100
AcDbEntity
  8
0
100
AcDbSpline
 62
7
  6
CONTINUOUS
 70
0
 71
3
 72
9
 73
5
 74
0
 42
0.0000001
 43
0.0000001
 44
0.0000000001
 40
0.0
 40
0.0
 40
0.0
 40
0.0
 40
0.2336587724
 40
1.0
 40
1.0
 40
1.0
 40
1.0
 10
108.8143466688
 20
121.9303445428
 30
0.0
 10
108.7993740279
 20
121.90975559
 30
0.0
 10
108.7304008909
 20
121.8251998966
 30
0.0
 10
108.6446238462
 20
121.7552796683
 30
0.0
 10
108.5748229602
 20
121.7094636226
 30
0.0
  0
SPLINE
  5
2F4
100
AcDbEntity
  8
0
100
AcDbSpline
 62
7
  6
CONTINUOUS
 70
0
 71
3
 72
11
 73
7
 74
0
 42
0.0000001
 43
0.0000001
 44
0.0000000001
 40
0.0
 40
0.0
 40
0.0
 40
0.0
 40
0.2340019551
 40
0.4996174769
 40
0.7654408447
 40
1.0
 40
1.0
 40
1.0
 40
1.0
 10
108.5748229602
 20
121.7094636226
 30
0.0
 10
108.423867018
 20
121.6103788581
 30
0.0
 10
108.0561713188
 20
121.4685733412
 30
0.0
 10
107.4635158377
 20
121.4083103087
 30
0.0
 10
106.872653416
 20
121.4875150892
 30
0.0
 10
106.5090723
 20
121.6409079765
 30
0.0
 10
106.3607881704
 20
121.744699921
 30
0.0
  0
SPLINE
  5
2F5
100
AcDbEntity
  8
0
100
AcDbSpline
 62
7
  6
CONTINUOUS
 70
0
 71
3
 72
9
 73
5
 74
0
 42
0.0000001
 43
0.0000001
 44
0.0000000001
 40
0.0
 40
0.0
 40
0.0
 40
0.0
 40
0.2682293504
 40
1.0
 40
1.0
 40
1.0
 40
1.0
 10
106.3607881704
 20
121.744699921
 30
0.0
 10
106.3363091897
 20
121.7618340608
 30
0.0
 10
106.2475453262
 20
121.8290299041
 30
0.0
 10
106.168841958
 20
121.9108123632
 30
0.0
 10
106.1233669985
 20
121.9784656706
 30
0.0
  0
SPLINE
  5
2F6
100
AcDbEntity
  8
0
100
AcDbSpline
 62
7
  6
CONTINUOUS
 70
0
 71
3
 72
9
 73
5
 74
0
 42
0.0000001
 43
0.0000001
 44
0.0000000001
 40
0.0
 40
0.0
 40
0.0
 40
0.0
 40
0.2557052187
 40
1.0
 40
1.0
 40
1.0
 40
1.0
 10
106.1233669985
 20
121.9784656706
 30
0.0
 10
106.1183109443
 20
121.9859875859
 30
0.0
 10
106.0991225426
 20
122.015790605
 30
0.0
 10
106.0823658822
 20
122.0471754531
 30
0.0
 10
106.071549074
 20
122.0712368541
 30
0.0
  0
SPLINE
  5
2F7
100
AcDbEntity
  8
0
100
AcDbSpline
 62
7
  6
CONTINUOUS
 70
0
 71
3
 72
19
 73
15
 74
0
 42
0.0000001
 43
0.0000001
 44
0.0000000001
 40
0.0
 40
0.0
 40
0.0
 40
0.0
 40
0.0451762684
 40
0.0937239583
 40
0.1477292182
 40
0.2081541285
 40
0.3465496164
 40
0.4999836387
 40
0.6534186186
 40
0.7918252578
 40
0.8522575062
 40
0.9062708198
 40
0.954822845
 40
1.0
 40
1.0
 40
1.0
 40
1.0
 10
102.5182694136
 20
121.9409567357
 30
0.0
 10
102.5173128472
 20
121.8861550833
 30
0.0
 10
102.5359356608
 20
121.7713816652
 30
0.0
 10
102.6201952863
 20
121.610432202
 30
0.0
 10
102.7557763196
 20
121.4639669802
 30
0.0
 10
103.0073736314
 20
121.2856478247
 30
0.0
 10
103.4131318716
 20
121.1319398316
 30
0.0
 10
103.9531230274
 20
121.0639828221
 30
0.0
 10
104.4951717417
 20
121.1130281134
 30
0.0
 10
104.9060790706
 20
121.2524663311
 30
0.0
 10
105.1637781704
 20
121.4219057861
 30
0.0
 10
105.3044152493
 20
121.5635579543
 30
0.0
 10
105.3942494778
 20
121.7214828421
 30
0.0
 10
105.4168711444
 20
121.835542029
 30
0.0
 10
105.4178277295
 20
121.890344757
 30
0.0
  0
SPLINE
  5
2F8
100
AcDbEntity
  8
0
100
AcDbSpline
 62
7
  6
CONTINUOUS
 70
0
 71
3
 72
19
 73
15
 74
0
 42
0.0000001
 43
0.0000001
 44
0.0000000001
 40
0.0
 40
0.0
 40
0.0
 40
0.0
 40
0.0451762684
 40
0.0937239583
 40
0.1477292182
 40
0.2081541285
 40
0.3465496164
 40
0.4999836387
 40
0.6534186186
 40
0.7918252578
 40
0.8522575062
 40
0.9062708198
 40
0.954822845
 40
1.0
 40
1.0
 40
1.0
 40
1.0
 10
99.0188024805
 20
122.0020401582
 30
0.0
 10
99.0178459141
 20
121.9472385058
 30
0.0
 10
99.0364687277
 20
121.8324650877
 30
0.0
 10
99.1207283533
 20
121.6715156245
 30
0.0
 10
99.2563093866
 20
121.5250504027
 30
0.0
 10
99.5079066984
 20
121.3467312472
 30
0.0
 10
99.9136649386
 20
121.1930232541
 30
0.0
 10
100.4536560943
 20
121.1250662446
 30
0.0
 10
100.9957048087
 20
121.1741115359
 30
0.0
 10
101.4066121376
 20
121.3135497536
 30
0.0
 10
101.6643112373
 20
121.4829892087
 30
0.0
 10
101.8049483162
 20
121.6246413768
 30
0.0
 10
101.8947825448
 20
121.7825662646
 30
0.0
 10
101.9174042113
 20
121.8966254516
 30
0.0
 10
101.9183607965
 20
121.9514281795
 30
0.0
  0
SPLINE
  5
2F9
100
AcDbEntity
  8
0
100
AcDbSpline
 62
7
  6
CONTINUOUS
 70
0
 71
3
 72
9
 73
5
 74
0
 42
0.0000001
 43
0.0000001
 44
0.0000000001
 40
0.0
 40
0.0
 40
0.0
 40
0.0
 40
0.2446689604
 40
1.0
 40
1.0
 40
1.0
 40
1.0
 10
105.3708099519
 20
122.0836345767
 30
0.0
 10
105.3669256989
 20
122.0757365478
 30
0.0
 10
105.350321059
 20
122.0438174674
 30
0.0
 10
105.3308604891
 20
122.0134031785
 30
0.0
 10
105.3148797357
 20
121.9914279653
 30
0.0
  0
SPLINE
  5
2FA
100
AcDbEntity
  8
0
100
AcDbSpline
 62
7
  6
CONTINUOUS
 70
0
 71
3
 72
9
 73
5
 74
0
 42
0.0000001
 43
0.0000001
 44
0.0000000001
 40
0.0
 40
0.0
 40
0.0
 40
0.0
 40
0.2336587724
 40
1.0
 40
1.0
 40
1.0
 40
1.0
 10
105.3148797357
 20
121.9914279653
 30
0.0
 10
105.2999070948
 20
121.9708390126
 30
0.0
 10
105.2309339578
 20
121.8862833191
 30
0.0
 10
105.1451569131
 20
121.8163630908
 30
0.0
 10
105.0753560271
 20
121.7705470451
 30
0.0
  0
SPLINE
  5
2FB
100
AcDbEntity
  8
0
100
AcDbSpline
 62
7
  6
CONTINUOUS
 70
0
 71
3
 72
11
 73
7
 74
0
 42
0.0000001
 43
0.0000001
 44
0.0000000001
 40
0.0
 40
0.0
 40
0.0
 40
0.0
 40
0.2340019551
 40
0.4996174769
 40
0.7654408447
 40
1.0
 40
1.0
 40
1.0
 40
1.0
 10
105.0753560271
 20
121.7705470451
 30
0.0
 10
104.9244000849
 20
121.6714622806
 30
0.0
 10
104.5567043858
 20
121.5296567637
 30
0.0
 10
103.9640489047
 20
121.4693937312
 30
0.0
 10
103.373186483
 20
121.5485985118
 30
0.0
 10
103.009605367
 20
121.701991399
 30
0.0
 10
102.8613212374
 20
121.8057833435
 30
0.0
  0
SPLINE
  5
2FC
100
AcDbEntity
  8
0
100
AcDbSpline
 62
7
  6
CONTINUOUS
 70
0
 71
3
 72
9
 73
5
 74
0
 42
0.0000001
 43
0.0000001
 44
0.0000000001
 40
0.0
 40
0.0
 40
0.0
 40
0.0
 40
0.2682293504
 40
1.0
 40
1.0
 40
1.0
 40
1.0
 10
102.8613212374
 20
121.8057833435
 30
0.0
 10
102.8368422567
 20
121.8229174833
 30
0.0
 10
102.7480783932
 20
121.8901133266
 30
0.0
 10
102.6693750249
 20
121.9718957857
 30
0.0
 10
102.6239000654
 20
122.0395490932
 30
0.0
  0
SPLINE
  5
2FD
100
AcDbEntity
  8
0
100
AcDbSpline
 62
7
  6
CONTINUOUS
 70
0
 71
3
 72
9
 73
5
 74
0
 42
0.0000001
 43
0.0000001
 44
0.0000000001
 40
0.0
 40
0.0
 40
0.0
 40
0.0
 40
0.2557052187
 40
1.0
 40
1.0
 40
1.0
 40
1.0
 10
102.6239000654
 20
122.0395490932
 30
0.0
 10
102.6188440112
 20
122.0470710084
 30
0.0
 10
102.5996556096
 20
122.0768740275
 30
0.0
 10
102.5828989491
 20
122.1082588756
 30
0.0
 10
102.5720821409
 20
122.1323202767
 30
0.0
  0
SPLINE
  5
2FE
100
AcDbEntity
  8
0
100
AcDbSpline
 62
7
  6
CONTINUOUS
 70
0
 71
3
 72
9
 73
5
 74
0
 42
0.0000001
 43
0.0000001
 44
0.0000000001
 40
0.0
 40
0.0
 40
0.0
 40
0.0
 40
0.2446689604
 40
1.0
 40
1.0
 40
1.0
 40
1.0
 10
101.8713430188
 20
122.1447179992
 30
0.0
 10
101.8674587659
 20
122.1368199703
 30
0.0
 10
101.8508541259
 20
122.1049008899
 30
0.0
 10
101.831393556
 20
122.0744866011
 30
0.0
 10
101.8154128027
 20
122.0525113879
 30
0.0
  0
SPLINE
  5
2FF
100
AcDbEntity
  8
0
100
AcDbSpline
 62
7
  6
CONTINUOUS
 70
0
 71
3
 72
9
 73
5
 74
0
 42
0.0000001
 43
0.0000001
 44
0.0000000001
 40
0.0
 40
0.0
 40
0.0
 40
0.0
 40
0.2336587724
 40
1.0
 40
1.0
 40
1.0
 40
1.0
 10
101.8154128027
 20
122.0525113879
 30
0.0
 10
101.8004401618
 20
122.0319224351
 30
0.0
 10
101.7314670248
 20
121.9473667417
 30
0.0
 10
101.6456899801
 20
121.8774465134
 30
0.0
 10
101.5758890941
 20
121.8316304676
 30
0.0
  0
SPLINE
  5
300
100
AcDbEntity
  8
0
100
AcDbSpline
 62
7
  6
CONTINUOUS
 70
0
 71
3
 72
11
 73
7
 74
0
 42
0.0000001
 43
0.0000001
 44
0.0000000001
 40
0.0
 40
0.0
 40
0.0
 40
0.0
 40
0.2340019551
 40
0.4996174769
 40
0.7654408447
 40
1.0
 40
1.0
 40
1.0
 40
1.0
 10
101.5758890941
 20
121.8316304676
 30
0.0
 10
101.4249331519
 20
121.7325457032
 30
0.0
 10
101.0572374527
 20
121.5907401862
 30
0.0
 10
100.4645819716
 20
121.5304771538
 30
0.0
 10
99.8737195499
 20
121.6096819343
 30
0.0
 10
99.5101384339
 20
121.7630748216
 30
0.0
 10
99.3618543043
 20
121.866866766
 30
0.0
  0
SPLINE
  5
301
100
AcDbEntity
  8
0
100
AcDbSpline
 62
7
  6
CONTINUOUS
 70
0
 71
3
 72
9
 73
5
 74
0
 42
0.0000001
 43
0.0000001
 44
0.0000000001
 40
0.0
 40
0.0
 40
0.0
 40
0.0
 40
0.2682293504
 40
1.0
 40
1.0
 40
1.0
 40
1.0
 10
99.3618543043
 20
121.866866766
 30
0.0
 10
99.3373753236
 20
121.8840009058
 30
0.0
 10
99.2486114601
 20
121.9511967491
 30
0.0
 10
99.1699080919
 20
122.0329792082
 30
0.0
 10
99.1244331324
 20
122.1006325157
 30
0.0
  0
SPLINE
  5
302
100
AcDbEntity
  8
0
100
AcDbSpline
 62
7
  6
CONTINUOUS
 70
0
 71
3
 72
9
 73
5
 74
0
 42
0.0000001
 43
0.0000001
 44
0.0000000001
 40
0.0
 40
0.0
 40
0.0
 40
0.0
 40
0.2557052187
 40
1.0
 40
1.0
 40
1.0
 40
1.0
 10
99.1244331324
 20
122.1006325157
 30
0.0
 10
99.1193770782
 20
122.1081544309
 30
0.0
 10
99.1001886765
 20
122.1379574501
 30
0.0
 10
99.0834320161
 20
122.1693422981
 30
0.0
 10
99.0726152079
 20
122.1934036992
 30
0.0
  0
SPLINE
  5
303
100
AcDbEntity
  8
0
100
AcDbSpline
 62
7
  6
CONTINUOUS
 70
0
 71
3
 72
19
 73
15
 74
0
 42
0.0000001
 43
0.0000001
 44
0.0000000001
 40
0.0
 40
0.0
 40
0.0
 40
0.0
 40
0.0451762684
 40
0.0937239583
 40
0.1477292182
 40
0.2081541285
 40
0.3465496164
 40
0.4999836387
 40
0.6534186186
 40
0.7918252578
 40
0.8522575062
 40
0.9062708198
 40
0.954822845
 40
1.0
 40
1.0
 40
1.0
 40
1.0
 10
109.5172032797
 20
121.8187898906
 30
0.0
 10
109.5162467133
 20
121.7639882382
 30
0.0
 10
109.5348695269
 20
121.6492148202
 30
0.0
 10
109.6191291524
 20
121.4882653569
 30
0.0
 10
109.7547101857
 20
121.3418001351
 30
0.0
 10
110.0063074975
 20
121.1634809797
 30
0.0
 10
110.4120657377
 20
121.0097729865
 30
0.0
 10
110.9520568935
 20
120.941815977
 30
0.0
 10
111.4941056078
 20
120.9908612683
 30
0.0
 10
111.9050129367
 20
121.130299486
 30
0.0
 10
112.1627120365
 20
121.2997389411
 30
0.0
 10
112.3033491154
 20
121.4413911092
 30
0.0
 10
112.3931833439
 20
121.599315997
 30
0.0
 10
112.4158050105
 20
121.713375184
 30
0.0
 10
112.4167615956
 20
121.7681779119
 30
0.0
  0
ENDSEC
  0
SECTION
  2
OBJECTS
  0
DICTIONARY
  5
C
100
AcDbDictionary
280
0
281
1
  3
ACAD_GROUP
350
D
  3
ACAD_MLINESTYLE
350
17
  3
ACAD_LAYOUT
350
1A
  3
ACAD_PLOTSETTINGS
350
19
  3
ACAD_PLOTSTYLENAME
350
E
  0
DICTIONARY
  5
D
102
{ACAD_REACTORS
330
C
102
}
100
AcDbDictionary
280
0
281
1
  0
ACDBDICTIONARYWDFLT
  5
E
102
{ACAD_REACTORS
330
C
102
}
100
AcDbDictionary
281
1
  3
Normal
350
F
100
AcDbDictionaryWithDefault
340
F
  0
DICTIONARY
  5
17
102
{ACAD_REACTORS
330
C
102
}
100
AcDbDictionary
280
0
281
1
  3
Standard
350
18
  0
DICTIONARY
  5
19
102
{ACAD_REACTORS
330
C
102
}
100
AcDbDictionary
281
1
  0
DICTIONARY
  5
1A
102
{ACAD_REACTORS
330
C
102
}
100
AcDbDictionary
281
1
  3
Model
350
304
  3
Layout1
350
305
  0
ACDBPLACEHOLDER
  5
F
102
{ACAD_REACTORS
330
E
102
}
  0
MLINESTYLE
  5
18
102
{ACAD_REACTORS
330
17
102
}
100
AcDbMlineStyle
  2
STANDARD
 70
0
  3

 62
256
 51
90.0
 52
90.0
 71
2
 49
0.5
 62
256
  6
BYLAYER
 49
-0.5
 62
256
  6
BYLAYER
  0
LAYOUT
  5
304
102
{ACAD_REACTORS
330
1A
102
}
100
AcDbPlotSettings
  1

  2
none_device
  4

  6

 40
0.0
 41
0.0
 42
0.0
 43
0.0
 44
210.0
 45
297.0
 46
0.0
 47
0.0
 48
0.0
 49
0.0
140
0.0
141
0.0
142
1.0
143
1.0
 70
1024
 72
1
 73
0
 74
0
  7

 75
0
147
1.0
148
0.0
149
0.0
100
AcDbLayout
  1
Model
 70
0
 71
0
 10
0.0
 20
0.0
 11
210.0
 21
297.0
 12
0.0
 22
0.0
 32
0.0
 14
0.0
 24
0.0
 34
0.0
 15
0.0
 25
0.0
 35
0.0
146
0.0
 13
0.0
 23
0.0
 33
0.0
 16
1.0
 26
0.0
 36
0.0
 17
0.0
 27
1.0
 37
0.0
 76
0
330
210
345
0
346
0
  0
LAYOUT
  5
305
102
{ACAD_REACTORS
330
1A
102
}
100
AcDbPlotSettings
  1

  2
none_device
  4

  6

 40
0.0
 41
0.0
 42
0.0
 43
0.0
 44
210.0
 45
297.0
 46
0.0
 47
0.0
 48
0.0
 49
0.0
140
0.0
141
0.0
142
1.0
143
1.0
 70
0
 72
1
 73
0
 74
0
  7

 75
0
147
1.0
148
0.0
149
0.0
100
AcDbLayout
  1
Layout1
 70
0
 71
1
 10
0.0
 20
0.0
 11
210.0
 21
297.0
 12
0.0
 22
0.0
 32
0.0
 14
0.0
 24
0.0
 34
0.0
 15
0.0
 25
0.0
 35
0.0
146
0.0
 13
0.0
 23
0.0
 33
0.0
 16
1.0
 26
0.0
 36
0.0
 17
0.0
 27
1.0
 37
0.0
 76
0
330
211
345
0
346
0
  0
ENDSEC
  0
EOF
