999
DXF file: C:\Users\sesa63760\Dev\_Creo\CAD\MCADID0005861_3D-CAD\mcadid0005861_3d-simplified_3.dxf
999
Pro/ENGINEER 2019471 by Parametric Technology Corporation
  0
SECTION
  2
HEADER
  9
$ACADVER
  1
AC1024
  9
$DWGCODEPAGE
  3
ANSI_1252
  9
$EXTMAX
 10
61.7862977602
 20
87.3834782609
 30
0.0
  9
$EXTMIN
 10
0.0
 20
0.0
 30
0.0
  9
$LIMMIN
 10
0.0
 20
0.0
  9
$LIMMAX
 10
61.7862977602
 20
87.3834782609
  9
$VIEWCTR
 10
30.8931488801
 20
43.6917391304
  9
$VIEWSIZE
 40
87.3834782609
  9
$CLAYER
  8
0
  9
$LTSCALE
 40
5.6961082126
  9
$CELTYPE
  6
BYLAYER
  9
$DIMSCALE
 40
1.0
  9
$DIMASZ
 40
0.7355511638
  9
$DIMEXO
 40
1.0
  9
$DIMDLI
 40
3.9354929469
  9
$DIMEXE
 40
1.0
  9
$DIMCEN
 40
0.9320904348
  9
$DIMLFAC
 40
1.0
  9
$DIMBLK
  1
_FILLED
  9
$DIMALT
 70
0
  9
$DIMALTF
 40
0.0393700787
  9
$DIMTXT
 40
1.0297716293
  9
$DIMTOL
 70
1
  9
$DIMLIM
 70
0
  9
$DIMTFAC
 40
1.0
  9
$DIMTP
 40
0.01
  9
$DIMTM
 40
0.01
  9
$DIMGAP
 40
0.625
  9
$DIMDSEP
 70
46
  9
$AUNITS
 70
0
  9
$PDMODE
 70
3
  9
$PDSIZE
 40
0.3125
  9
$HANDSEED
  5
27E
  9
$TILEMODE
 70
1
  9
$MEASUREMENT
 70
1
  9
$INSUNITS
 70
4
  0
ENDSEC
  0
SECTION
  2
CLASSES
  0
CLASS
  1
ACDBDICTIONARYWDFLT
  2
AcDbDictionaryWithDefault
  3
AutoCAD 2000
 90
0
 91
1
280
0
281
0
  0
CLASS
  1
ACDBPLACEHOLDER
  2
AcDbPlaceHolder
  3
AutoCAD 2000
 90
0
 91
1
280
0
281
0
  0
CLASS
  1
LAYOUT
  2
AcDbLayout
  3
AutoCAD 2000
 90
0
 91
0
280
0
281
0
  0
ENDSEC
  0
SECTION
  2
TABLES
  0
TABLE
  2
VPORT
  5
8
100
AcDbSymbolTable
 70
2
  0
VPORT
  5
1F4
100
AcDbSymbolTableRecord
100
AcDbViewportTableRecord
  2
*ACTIVE
 70
0
 10
0.0
 20
0.0
 11
1.0
 21
1.0
 12
30.8931488801
 22
43.6917391304
 13
0.0
 23
0.0
 14
1.0
 24
1.0
 15
0.0
 25
0.0
 16
0.0
 26
0.0
 36
1.0
 17
0.0
 27
0.0
 37
0.0
 40
87.3834782609
 41
0.7070707071
 42
50.0
 43
0.0
 44
0.0
 50
0.0
 51
0.0
 71
0
 72
100
 73
1
 74
1
 75
0
 76
0
 77
0
 78
0
  0
ENDTAB
  0
TABLE
  2
LTYPE
  5
5
100
AcDbSymbolTable
 70
6
  0
LTYPE
  5
14
100
AcDbSymbolTableRecord
100
AcDbLinetypeTableRecord
  2
BYBLOCK
 70
0
  3

 72
65
 73
0
 40
0.0
  0
LTYPE
  5
15
100
AcDbSymbolTableRecord
100
AcDbLinetypeTableRecord
  2
BYLAYER
 70
0
  3

 72
65
 73
0
 40
0.0
  0
LTYPE
  5
16
100
AcDbSymbolTableRecord
100
AcDbLinetypeTableRecord
  2
CONTINUOUS
 70
64
  3
Solid line
 72
65
 73
0
 40
0.0
  0
LTYPE
  5
1F5
100
AcDbSymbolTableRecord
100
AcDbLinetypeTableRecord
  2
CENTER
 70
64
  3
____ _ ____ _ ____ _ ____ _ ____ _ ____ _ ____
 72
65
 73
4
 40
0.6
 49
0.375
 74
0
 49
-0.075
 74
0
 49
0.075
 74
0
 49
-0.075
 74
0
  0
LTYPE
  5
1F6
100
AcDbSymbolTableRecord
100
AcDbLinetypeTableRecord
  2
HIDDEN
 70
64
  3
- - - - - - - - - - - - - - - - - - - -
 72
65
 73
2
 40
0.2
 49
0.1
 74
0
 49
-0.1
 74
0
  0
LTYPE
  5
1F7
100
AcDbSymbolTableRecord
100
AcDbLinetypeTableRecord
  2
PHANTOM
 70
64
  3
_____ _ _ _____ _ _ _____ _ _ _____
 72
65
 73
6
 40
0.8
 49
0.45
 74
0
 49
-0.05
 74
0
 49
0.1
 74
0
 49
-0.05
 74
0
 49
0.1
 74
0
 49
-0.05
 74
0
  0
LTYPE
  5
1F8
100
AcDbSymbolTableRecord
100
AcDbLinetypeTableRecord
  2
DOT
 70
64
  3
. . . . . . . . . . . . . . . . . . . .
 72
65
 73
2
 40
0.2
 49
0.1
 74
0
 49
-0.1
 74
0
  0
LTYPE
  5
1F9
100
AcDbSymbolTableRecord
100
AcDbLinetypeTableRecord
  2
DASHED
 70
64
  3
- - - - - - - - - - - - - - - - - - - -
 72
65
 73
2
 40
0.2
 49
0.1
 74
0
 49
-0.1
 74
0
  0
ENDTAB
  0
TABLE
  2
LAYER
  5
2
100
AcDbSymbolTable
 70
36
  0
LAYER
  5
10
100
AcDbSymbolTableRecord
100
AcDbLayerTableRecord
  2
0
 70
0
 62
7
  6
CONTINUOUS
370
-3
390
F
  0
LAYER
  5
1FA
100
AcDbSymbolTableRecord
100
AcDbLayerTableRecord
  2
DEFAULT_1
 70
0
 62
7
  6
CENTER
370
-3
390
F
  0
LAYER
  5
1FB
100
AcDbSymbolTableRecord
100
AcDbLayerTableRecord
  2
DEFAULT_2
 70
0
 62
7
  6
HIDDEN
370
-3
390
F
  0
LAYER
  5
1FC
100
AcDbSymbolTableRecord
100
AcDbLayerTableRecord
  2
DEFAULT_3
 70
0
 62
7
  6
PHANTOM
370
-3
390
F
  0
LAYER
  5
1FD
100
AcDbSymbolTableRecord
100
AcDbLayerTableRecord
  2
00_COMPONENTS
 70
0
 62
7
  6
CONTINUOUS
370
-3
390
F
  0
LAYER
  5
1FE
100
AcDbSymbolTableRecord
100
AcDbLayerTableRecord
  2
01_1_DEFAULT_DATUMS
 70
0
 62
7
  6
CONTINUOUS
370
-3
390
F
  0
LAYER
  5
1FF
100
AcDbSymbolTableRecord
100
AcDbLayerTableRecord
  2
01_PLANES
 70
0
 62
7
  6
CONTINUOUS
370
-3
390
F
  0
LAYER
  5
200
100
AcDbSymbolTableRecord
100
AcDbLayerTableRecord
  2
02_COORD_SYS
 70
0
 62
7
  6
CONTINUOUS
370
-3
390
F
  0
LAYER
  5
201
100
AcDbSymbolTableRecord
100
AcDbLayerTableRecord
  2
03_AXES
 70
0
 62
7
  6
CONTINUOUS
370
-3
390
F
  0
LAYER
  5
202
100
AcDbSymbolTableRecord
100
AcDbLayerTableRecord
  2
04_POINTS
 70
0
 62
7
  6
CONTINUOUS
370
-3
390
F
  0
LAYER
  5
203
100
AcDbSymbolTableRecord
100
AcDbLayerTableRecord
  2
05_CURVES
 70
0
 62
7
  6
CONTINUOUS
370
-3
390
F
  0
LAYER
  5
204
100
AcDbSymbolTableRecord
100
AcDbLayerTableRecord
  2
06_SURFS
 70
0
 62
7
  6
CONTINUOUS
370
-3
390
F
  0
LAYER
  5
205
100
AcDbSymbolTableRecord
100
AcDbLayerTableRecord
  2
07_COSMETICS
 70
0
 62
7
  6
CONTINUOUS
370
-3
390
F
  0
LAYER
  5
206
100
AcDbSymbolTableRecord
100
AcDbLayerTableRecord
  2
10_NOTES
 70
0
 62
7
  6
CONTINUOUS
370
-3
390
F
  0
LAYER
  5
207
100
AcDbSymbolTableRecord
100
AcDbLayerTableRecord
  2
11_NOTES_PUB
 70
0
 62
7
  6
CONTINUOUS
370
-3
390
F
  0
LAYER
  5
208
100
AcDbSymbolTableRecord
100
AcDbLayerTableRecord
  2
13_REF_GTOL
 70
0
 62
7
  6
CONTINUOUS
370
-3
390
F
  0
LAYER
  5
209
100
AcDbSymbolTableRecord
100
AcDbLayerTableRecord
  2
16_MISC
 70
0
 62
7
  6
CONTINUOUS
370
-3
390
F
  0
LAYER
  5
20A
100
AcDbSymbolTableRecord
100
AcDbLayerTableRecord
  2
17_NO_PRINT
 70
0
 62
7
  6
CONTINUOUS
370
-3
390
F
  0
LAYER
  5
20B
100
AcDbSymbolTableRecord
100
AcDbLayerTableRecord
  2
18_DATUM_CAMS_JOINTS
 70
0
 62
7
  6
CONTINUOUS
370
-3
390
F
  0
LAYER
  5
20C
100
AcDbSymbolTableRecord
100
AcDbLayerTableRecord
  2
19_DATUM_FUNCTIONAL
 70
0
 62
7
  6
CONTINUOUS
370
-3
390
F
  0
LAYER
  5
20D
100
AcDbSymbolTableRecord
100
AcDbLayerTableRecord
  2
20_DATUM_KINEMATIC_SCHEME
 70
0
 62
7
  6
CONTINUOUS
370
-3
390
F
  0
ENDTAB
  0
TABLE
  2
STYLE
  5
3
100
AcDbSymbolTable
 70
1
  0
STYLE
  5
11
100
AcDbSymbolTableRecord
100
AcDbTextStyleTableRecord
  2
STANDARD
 70
0
 40
0.0
 41
1.0
 50
0.0
 71
0
 42
0.2
  3
ARIAL.TTF
  4

  0
STYLE
  5
20E
100
AcDbSymbolTableRecord
100
AcDbTextStyleTableRecord
  2
TEXTSTYLE_1
 70
0
 40
0.0
 41
0.8
 50
0.0
 71
0
 42
0.2
  3
gdt
  4

  0
ENDTAB
  0
TABLE
  2
VIEW
  5
6
100
AcDbSymbolTable
 70
0
  0
ENDTAB
  0
TABLE
  2
UCS
  5
7
100
AcDbSymbolTable
 70
0
  0
ENDTAB
  0
TABLE
  2
APPID
  5
9
100
AcDbSymbolTable
 70
1
  0
APPID
  5
20F
100
AcDbSymbolTableRecord
100
AcDbRegAppTableRecord
  2
ACAD
 70
0
  0
ENDTAB
  0
TABLE
  2
BLOCK_RECORD
  5
1
100
AcDbSymbolTable
 70
0
  0
BLOCK_RECORD
  5
210
100
AcDbSymbolTableRecord
100
AcDbBlockTableRecord
  2
*Model_Space
  0
BLOCK_RECORD
  5
211
100
AcDbSymbolTableRecord
100
AcDbBlockTableRecord
  2
*Paper_Space
  0
BLOCK_RECORD
  5
212
100
AcDbSymbolTableRecord
100
AcDbBlockTableRecord
  2
_FILLED
  0
ENDTAB
  0
TABLE
  2
DIMSTYLE
  5
A
100
AcDbSymbolTable
 70
1
100
AcDbDimStyleTable
 71
0
  0
DIMSTYLE
105
213
100
AcDbSymbolTableRecord
100
AcDbDimStyleTableRecord
  2
STANDARD
 70
0
  3

  4

 40
1.0
 41
0.7355511638
 42
1.0
 43
0.38
 44
1.0
 45
0.0
 46
0.0
 47
0.01
 48
0.01
140
1.0297716293
141
0.09
142
0.0
143
25.4
144
1.0
145
0.0
146
1.0
147
0.625
 71
1
 72
0
 73
0
 74
0
 75
0
 76
0
 77
1
 78
8
 79
2
170
0
171
1
172
0
173
0
174
0
175
0
176
0
177
0
178
0
270
2
179
2
271
2
272
2
273
2
274
2
275
0
280
0
281
0
282
0
283
1
284
8
285
0
286
0
287
3
288
0
340
11
278
46
341
212
342
212
343
212
344
212
  0
ENDTAB
  0
ENDSEC
  0
SECTION
  2
BLOCKS
  0
BLOCK
  5
20
100
AcDbEntity
  8
0
100
AcDbBlockBegin
  2
*Model_Space
 70
0
 10
0.0
 20
0.0
 30
0.0
  3
*Model_Space
  1

  0
ENDBLK
  5
21
100
AcDbEntity
  8
0
100
AcDbBlockEnd
  0
BLOCK
  5
1C
100
AcDbEntity
  8
0
100
AcDbBlockBegin
  2
*Paper_Space
 70
0
 10
0.0
 20
0.0
 30
0.0
  3
*Paper_Space
  1

  0
ENDBLK
  5
1D
100
AcDbEntity
  8
0
100
AcDbBlockEnd
  0
BLOCK
  5
214
100
AcDbEntity
  8
0
100
AcDbBlockBegin
  2
_FILLED
 70
64
 10
0.0
 20
0.0
  3
_FILLED
  1

  0
SOLID
  5
215
100
AcDbEntity
  8
0
  6
BYBLOCK
 62
0
100
AcDbTrace
 10
0.0
 20
0.0
 11
-1.0
 21
0.25
 12
-1.0
 22
-0.25
 13
-1.0
 23
-0.25
  0
ENDBLK
  5
216
100
AcDbEntity
  8
0
  6
BYBLOCK
 62
0
100
AcDbBlockEnd
  0
ENDSEC
  0
SECTION
  2
ENTITIES
  0
LINE
  5
217
100
AcDbEntity
  8
0
100
AcDbLine
 62
7
  6
BYLAYER
 10
45.7987913499
 20
7.0056521739
 11
17.6988027549
 21
7.0056521739
  0
LINE
  5
218
100
AcDbEntity
  8
0
100
AcDbLine
 62
7
  6
BYLAYER
 10
45.9988027549
 20
7.2056521739
 11
32.9414887991
 21
7.2056521739
  0
LINE
  5
219
100
AcDbEntity
  8
0
100
AcDbLine
 62
7
  6
BYLAYER
 10
30.5561167107
 20
7.2056521739
 11
17.4988027549
 21
7.2056521739
  0
LINE
  5
21A
100
AcDbEntity
  8
0
100
AcDbLine
 62
7
  6
BYLAYER
 10
46.2486761218
 20
7.4056521739
 11
17.2488027549
 21
7.4056521739
  0
LINE
  5
21B
100
AcDbEntity
  8
0
100
AcDbLine
 62
7
  6
BYLAYER
 10
46.7488027549
 20
7.9056521739
 11
16.7488027549
 21
7.9056521739
  0
LINE
  5
21C
100
AcDbEntity
  8
0
100
AcDbLine
 62
7
  6
BYLAYER
 10
17.2488027549
 20
7.4056521739
 11
16.7488027549
 21
7.9056521739
  0
LINE
  5
21D
100
AcDbEntity
  8
0
100
AcDbLine
 62
7
  6
BYLAYER
 10
49.7488027549
 20
12.0056521739
 11
13.7488027549
 21
12.0056521739
  0
LINE
  5
21E
100
AcDbEntity
  8
0
100
AcDbLine
 62
7
  6
BYLAYER
 10
13.7488027549
 20
17.0056521739
 11
49.7488027549
 21
17.0056521739
  0
LINE
  5
21F
100
AcDbEntity
  8
0
100
AcDbLine
 62
7
  6
BYLAYER
 10
49.7488027549
 20
21.0056521739
 11
13.7488027549
 21
21.0056521739
  0
LINE
  5
220
100
AcDbEntity
  8
0
100
AcDbLine
 62
7
  6
BYLAYER
 10
17.4988027549
 20
58.8056521739
 11
16.7488027549
 21
58.0556521739
  0
LINE
  5
221
100
AcDbEntity
  8
0
100
AcDbLine
 62
7
  6
BYLAYER
 10
13.7488027549
 20
17.0056521739
 11
13.7488027549
 21
12.0056521739
  0
LINE
  5
222
100
AcDbEntity
  8
0
100
AcDbLine
 62
7
  6
BYLAYER
 10
13.7488027549
 20
21.0056521739
 11
13.7488027549
 21
26.0056521739
  0
LINE
  5
223
100
AcDbEntity
  8
0
100
AcDbLine
 62
7
  6
BYLAYER
 10
14.3550205375
 20
16.3508916021
 11
14.3550205375
 21
12.6604127457
  0
LINE
  5
224
100
AcDbEntity
  8
0
100
AcDbLine
 62
7
  6
BYLAYER
 10
14.3550205376
 20
21.6604126962
 11
14.3550205376
 21
25.3508916517
  0
LINE
  5
225
100
AcDbEntity
  8
0
100
AcDbLine
 62
7
  6
BYLAYER
 10
13.7488027549
 20
26.0056521739
 11
49.7488027549
 21
26.0056521739
  0
LINE
  5
226
100
AcDbEntity
  8
0
100
AcDbLine
 62
7
  6
BYLAYER
 10
16.7488027549
 20
7.9056521739
 11
16.7488027549
 21
12.0056521739
  0
LINE
  5
227
100
AcDbEntity
  8
0
100
AcDbLine
 62
7
  6
BYLAYER
 10
16.7488027549
 20
17.0056521739
 11
16.7488027549
 21
21.0056521739
  0
LINE
  5
228
100
AcDbEntity
  8
0
100
AcDbLine
 62
7
  6
BYLAYER
 10
16.7488027549
 20
26.0056521739
 11
16.7488027549
 21
58.0556521739
  0
LINE
  5
229
100
AcDbEntity
  8
0
100
AcDbLine
 62
7
  6
BYLAYER
 10
17.4988027549
 20
7.2056521739
 11
17.4988027549
 21
7.4056521739
  0
LINE
  5
22A
100
AcDbEntity
  8
0
100
AcDbLine
 62
7
  6
BYLAYER
 10
17.4988027549
 20
58.8056521739
 11
17.4988027549
 21
62.5056521739
  0
LINE
  5
22B
100
AcDbEntity
  8
0
100
AcDbLine
 62
7
  6
BYLAYER
 10
17.4988027549
 20
62.6056521739
 11
17.4988027549
 21
65.4056521739
  0
LINE
  5
22C
100
AcDbEntity
  8
0
100
AcDbLine
 62
7
  6
BYLAYER
 10
17.5488027549
 20
62.5056521739
 11
17.5488027549
 21
62.6056521739
  0
LINE
  5
22D
100
AcDbEntity
  8
0
100
AcDbLine
 62
7
  6
BYLAYER
 10
25.5339074688
 20
68.6403818094
 11
25.0279443793
 21
65.7709225384
  0
LINE
  5
22E
100
AcDbEntity
  8
0
100
AcDbLine
 62
7
  6
BYLAYER
 10
30.5561167107
 20
7.2056521739
 11
30.5561167107
 21
7.4056521739
  0
LINE
  5
22F
100
AcDbEntity
  8
0
100
AcDbLine
 62
7
  6
BYLAYER
 10
31.1425849723
 20
16.3508915918
 11
31.1425849723
 21
12.660412756
  0
LINE
  5
230
100
AcDbEntity
  8
0
100
AcDbLine
 62
7
  6
BYLAYER
 10
31.1425849723
 20
21.6604127643
 11
31.1425849723
 21
25.3508915836
  0
LINE
  5
231
100
AcDbEntity
  8
0
100
AcDbLine
 62
7
  6
BYLAYER
 10
32.4436853199
 20
70.6161193651
 11
32.3587357485
 21
68.9951849827
  0
LINE
  5
232
100
AcDbEntity
  8
0
100
AcDbLine
 62
7
  6
BYLAYER
 10
32.1818154568
 20
16.3252823875
 11
32.1818154568
 21
12.6860219604
  0
LINE
  5
233
100
AcDbEntity
  8
0
100
AcDbLine
 62
7
  6
BYLAYER
 10
32.1818154568
 20
21.6860219315
 11
32.1818154568
 21
25.3252824163
  0
LINE
  5
234
100
AcDbEntity
  8
0
100
AcDbLine
 62
7
  6
BYLAYER
 10
32.8488027549
 20
80.8056521739
 11
32.8488027549
 21
70.8056521739
  0
LINE
  5
235
100
AcDbEntity
  8
0
100
AcDbLine
 62
7
  6
BYLAYER
 10
32.9414887991
 20
7.4056521739
 11
32.9414887991
 21
7.2056521739
  0
LINE
  5
236
100
AcDbEntity
  8
0
100
AcDbLine
 62
7
  6
BYLAYER
 10
34.8488027549
 20
80.8056521739
 11
34.8488027549
 21
70.8056521739
  0
LINE
  5
237
100
AcDbEntity
  8
0
100
AcDbLine
 62
7
  6
BYLAYER
 10
35.25392019
 20
70.6161193651
 11
35.3388697613
 21
68.9951849827
  0
LINE
  5
238
100
AcDbEntity
  8
0
100
AcDbLine
 62
7
  6
BYLAYER
 10
37.963698041
 20
68.6403818094
 11
38.4696611306
 21
65.7709225384
  0
LINE
  5
239
100
AcDbEntity
  8
0
100
AcDbLine
 62
7
  6
BYLAYER
 10
45.9488027549
 20
62.5056521739
 11
45.9488027549
 21
62.6056521739
  0
LINE
  5
23A
100
AcDbEntity
  8
0
100
AcDbLine
 62
7
  6
BYLAYER
 10
45.9988027549
 20
7.2056521739
 11
45.9988027549
 21
7.4056521739
  0
LINE
  5
23B
100
AcDbEntity
  8
0
100
AcDbLine
 62
7
  6
BYLAYER
 10
45.9988027549
 20
58.8056521739
 11
45.9988027549
 21
62.5056521739
  0
LINE
  5
23C
100
AcDbEntity
  8
0
100
AcDbLine
 62
7
  6
BYLAYER
 10
45.9988027549
 20
62.6056521739
 11
45.9988027549
 21
65.4056521739
  0
LINE
  5
23D
100
AcDbEntity
  8
0
100
AcDbLine
 62
7
  6
BYLAYER
 10
46.7488027549
 20
7.9056521739
 11
46.7488027549
 21
12.0056521739
  0
LINE
  5
23E
100
AcDbEntity
  8
0
100
AcDbLine
 62
7
  6
BYLAYER
 10
46.7488027549
 20
17.0056521739
 11
46.7488027549
 21
21.0056521739
  0
LINE
  5
23F
100
AcDbEntity
  8
0
100
AcDbLine
 62
7
  6
BYLAYER
 10
46.7488027549
 20
26.0056521739
 11
46.7488027549
 21
58.0556521739
  0
LINE
  5
240
100
AcDbEntity
  8
0
100
AcDbLine
 62
7
  6
BYLAYER
 10
16.7488027549
 20
58.0556521739
 11
46.7488027549
 21
58.0556521739
  0
LINE
  5
241
100
AcDbEntity
  8
0
100
AcDbLine
 62
7
  6
BYLAYER
 10
45.9988027549
 20
58.8056521739
 11
17.4988027549
 21
58.8056521739
  0
LINE
  5
242
100
AcDbEntity
  8
0
100
AcDbLine
 62
7
  6
BYLAYER
 10
49.315790053
 20
16.3252823856
 11
49.315790053
 21
12.6860219622
  0
LINE
  5
243
100
AcDbEntity
  8
0
100
AcDbLine
 62
7
  6
BYLAYER
 10
49.315790053
 20
21.6860219674
 11
49.315790053
 21
25.3252823804
  0
LINE
  5
244
100
AcDbEntity
  8
0
100
AcDbLine
 62
7
  6
BYLAYER
 10
49.7488027549
 20
12.0056521739
 11
49.7488027549
 21
17.0056521739
  0
LINE
  5
245
100
AcDbEntity
  8
0
100
AcDbLine
 62
7
  6
BYLAYER
 10
49.7488027549
 20
21.0056521739
 11
49.7488027549
 21
26.0056521739
  0
LINE
  5
246
100
AcDbEntity
  8
0
100
AcDbLine
 62
7
  6
BYLAYER
 10
17.499012789
 20
62.5056521739
 11
45.9985927209
 21
62.5056521739
  0
LINE
  5
247
100
AcDbEntity
  8
0
100
AcDbLine
 62
7
  6
BYLAYER
 10
45.9985425859
 20
62.6056521739
 11
17.4988027549
 21
62.6056521739
  0
LINE
  5
248
100
AcDbEntity
  8
0
100
AcDbLine
 62
7
  6
BYLAYER
 10
17.4988027549
 20
65.4056521739
 11
45.9988027549
 21
65.4056521739
  0
LINE
  5
249
100
AcDbEntity
  8
0
100
AcDbLine
 62
7
  6
BYLAYER
 10
17.699010665
 20
65.6056521739
 11
45.7985948449
 21
65.6056521739
  0
LINE
  5
24A
100
AcDbEntity
  8
0
100
AcDbLine
 62
7
  6
BYLAYER
 10
38.4696611306
 20
65.7709225384
 11
25.0279443793
 21
65.7709225384
  0
LINE
  5
24B
100
AcDbEntity
  8
0
100
AcDbLine
 62
7
  6
BYLAYER
 10
45.9988027549
 20
58.8056521739
 11
46.7488027549
 21
58.0556521739
  0
LINE
  5
24C
100
AcDbEntity
  8
0
100
AcDbLine
 62
7
  6
BYLAYER
 10
25.5339074688
 20
68.6403818094
 11
37.963698041
 21
68.6403818094
  0
LINE
  5
24D
100
AcDbEntity
  8
0
100
AcDbLine
 62
7
  6
BYLAYER
 10
25.7308690194
 20
68.8056521739
 11
37.7666992305
 21
68.8056521739
  0
LINE
  5
24E
100
AcDbEntity
  8
0
100
AcDbLine
 62
7
  6
BYLAYER
 10
35.3388697613
 20
68.9951849827
 11
32.3587357485
 21
68.9951849827
  0
LINE
  5
24F
100
AcDbEntity
  8
0
100
AcDbLine
 62
7
  6
BYLAYER
 10
32.4436853199
 20
70.6161193651
 11
35.25392019
 21
70.6161193651
  0
LINE
  5
250
100
AcDbEntity
  8
0
100
AcDbLine
 62
7
  6
BYLAYER
 10
32.6434112268
 20
70.8056521739
 11
35.0541942659
 21
70.8056521739
  0
LINE
  5
251
100
AcDbEntity
  8
0
100
AcDbLine
 62
7
  6
BYLAYER
 10
46.2488027549
 20
7.4056521739
 11
46.7488027549
 21
7.9056521739
  0
LINE
  5
252
100
AcDbEntity
  8
0
100
AcDbLine
 62
7
  6
BYLAYER
 10
32.8488027549
 20
80.8056521739
 11
34.8488027549
 21
80.8056521739
  0
ARC
  5
253
100
AcDbEntity
  8
0
100
AcDbCircle
 62
7
  6
BYLAYER
 10
29.7780279979
 20
-51.1223677462
 40
76.4854326621
100
AcDbArc
 50
88.1990092208
 51
88.9777464684
  0
ARC
  5
254
100
AcDbEntity
  8
0
100
AcDbCircle
 62
7
  6
BYLAYER
 10
29.7780279978
 20
98.133672094
 40
76.4854326621
100
AcDbArc
 50
271.0222535316
 51
271.8009907792
  0
ARC
  5
255
100
AcDbEntity
  8
0
100
AcDbCircle
 62
7
  6
BYLAYER
 10
29.7780280015
 20
-60.1223677461
 40
76.485432662
100
AcDbArc
 50
88.1990092235
 51
88.9777464711
  0
ARC
  5
256
100
AcDbEntity
  8
0
100
AcDbCircle
 62
7
  6
BYLAYER
 10
29.7780280015
 20
89.133672094
 40
76.485432662
100
AcDbArc
 50
271.0222535289
 51
271.8009907765
  0
ARC
  5
257
100
AcDbEntity
  8
0
100
AcDbCircle
 62
7
  6
BYLAYER
 10
15.1523311139
 20
-0.7108490319
 40
26.0739339497
100
AcDbArc
 50
91.7523114629
 51
93.0856539387
  0
ARC
  5
258
100
AcDbEntity
  8
0
100
AcDbCircle
 62
7
  6
BYLAYER
 10
15.1523311139
 20
47.7221533798
 40
26.0739339497
100
AcDbArc
 50
266.9143460613
 51
268.2476885371
  0
ARC
  5
259
100
AcDbEntity
  8
0
100
AcDbCircle
 62
7
  6
BYLAYER
 10
15.1523311169
 20
-9.7108490319
 40
26.0739339497
100
AcDbArc
 50
91.7523114695
 51
93.0856539453
  0
ARC
  5
25A
100
AcDbEntity
  8
0
100
AcDbCircle
 62
7
  6
BYLAYER
 10
15.1523311169
 20
38.7221533797
 40
26.0739339498
100
AcDbArc
 50
266.9143460547
 51
268.2476885305
  0
ARC
  5
25B
100
AcDbEntity
  8
0
100
AcDbCircle
 62
7
  6
BYLAYER
 10
50.3207578232
 20
3.0064153145
 40
13.3567279031
100
AcDbArc
 50
92.454241423
 51
94.315044789
  0
ARC
  5
25C
100
AcDbEntity
  8
0
100
AcDbCircle
 62
7
  6
BYLAYER
 10
50.3207578232
 20
26.0048890332
 40
13.356727903
100
AcDbArc
 50
265.684955211
 51
267.5457585771
  0
ARC
  5
25D
100
AcDbEntity
  8
0
100
AcDbCircle
 62
7
  6
BYLAYER
 10
50.3201634836
 20
34.9948396537
 40
13.3466622919
100
AcDbArc
 50
265.6842534684
 51
267.5464603143
  0
ARC
  5
25E
100
AcDbEntity
  8
0
100
AcDbCircle
 62
7
  6
BYLAYER
 10
50.3201634836
 20
12.0164646941
 40
13.3466622919
100
AcDbArc
 50
92.4535396857
 51
94.3157465316
  0
ARC
  5
25F
100
AcDbEntity
  8
0
100
AcDbCircle
 62
7
  6
BYLAYER
 10
45.7988027549
 20
7.2056521739
 40
0.2
100
AcDbArc
 50
270.0
 51
360.0
  0
ARC
  5
260
100
AcDbEntity
  8
0
100
AcDbCircle
 62
7
  6
BYLAYER
 10
17.6988027549
 20
7.2056521739
 40
0.2
100
AcDbArc
 50
180.0
 51
270.0
  0
ARC
  5
261
100
AcDbEntity
  8
0
100
AcDbCircle
 62
7
  6
BYLAYER
 10
37.7667364904
 20
68.6056521739
 40
0.2
100
AcDbArc
 50
10.0
 51
90.0
  0
ARC
  5
262
100
AcDbEntity
  8
0
100
AcDbCircle
 62
7
  6
BYLAYER
 10
25.7308690194
 20
68.6056521739
 40
0.2
100
AcDbArc
 50
90.0
 51
170.0
  0
ARC
  5
263
100
AcDbEntity
  8
0
100
AcDbCircle
 62
7
  6
BYLAYER
 10
38.6666226812
 20
65.8056521739
 40
0.2
100
AcDbArc
 50
190.0
 51
270.0
  0
ARC
  5
264
100
AcDbEntity
  8
0
100
AcDbCircle
 62
7
  6
BYLAYER
 10
32.1590098416
 20
69.0056521739
 40
0.2
100
AcDbArc
 50
270.0
 51
357.0000000139
  0
ARC
  5
265
100
AcDbEntity
  8
0
100
AcDbCircle
 62
7
  6
BYLAYER
 10
35.5385956683
 20
69.0056521739
 40
0.2
100
AcDbArc
 50
182.9999999861
 51
270.0
  0
ARC
  5
266
100
AcDbEntity
  8
0
100
AcDbCircle
 62
7
  6
BYLAYER
 10
17.6988027549
 20
65.4056521739
 40
0.2
100
AcDbArc
 50
90.0
 51
180.0
  0
ARC
  5
267
100
AcDbEntity
  8
0
100
AcDbCircle
 62
7
  6
BYLAYER
 10
32.6434112268
 20
70.6056521739
 40
0.2
100
AcDbArc
 50
90.0
 51
177.0000000139
  0
ARC
  5
268
100
AcDbEntity
  8
0
100
AcDbCircle
 62
7
  6
BYLAYER
 10
45.7988027549
 20
65.4056521739
 40
0.2
100
AcDbArc
 50
0.0
 51
90.0
  0
ARC
  5
269
100
AcDbEntity
  8
0
100
AcDbCircle
 62
7
  6
BYLAYER
 10
35.054194283
 20
70.6056521739
 40
0.2
100
AcDbArc
 50
2.9999999861
 51
89.9999999984
  0
ARC
  5
26A
100
AcDbEntity
  8
0
100
AcDbCircle
 62
7
  6
BYLAYER
 10
24.8309828287
 20
65.8056521739
 40
0.2
100
AcDbArc
 50
270.0
 51
350.0
  0
SPLINE
  5
26B
100
AcDbEntity
  8
0
100
AcDbSpline
 62
7
  6
BYLAYER
 70
0
 71
3
 72
43
 73
39
 74
0
 42
0.0000001
 43
0.0000001
 44
0.0000000001
 40
0.0
 40
0.0
 40
0.0
 40
0.0
 40
0.0077731413
 40
0.0116805965
 40
0.0155841699
 40
0.0233991564
 40
0.0312131289
 40
0.0468370334
 40
0.0624627613
 40
0.0780890218
 40
0.0937153551
 40
0.1249671037
 40
0.1562195822
 40
0.1874722725
 40
0.218725096
 40
0.2499779959
 40
0.312483182
 40
0.3749886485
 40
0.4374942877
 40
0.4999999916
 40
0.5625056628
 40
0.6250112927
 40
0.6875167995
 40
0.7500219636
 40
0.7812748544
 40
0.8125276882
 40
0.8437803827
 40
0.8750328481
 40
0.9062846392
 40
0.9375338914
 40
0.9531598017
 40
0.9609732308
 40
0.968787121
 40
0.9765996492
 40
0.9844166405
 40
0.9883189463
 40
0.9922265295
 40
1.0
 40
1.0
 40
1.0
 40
1.0
 10
30.5561167107
 20
7.2056521739
 30
0.0
 10
30.5561167107
 20
7.1993478655
 30
0.0
 10
30.5620287907
 20
7.1903167764
 30
0.0
 10
30.5718165093
 20
7.1825716488
 30
0.0
 10
30.5826216344
 20
7.1758325276
 30
0.0
 10
30.5968251475
 20
7.1687809816
 30
0.0
 10
30.6205659129
 20
7.1598236648
 30
0.0
 10
30.6508929133
 20
7.1505765092
 30
0.0
 10
30.6878699512
 20
7.1416765017
 30
0.0
 10
30.7251468021
 20
7.1341692931
 30
0.0
 10
30.7750886129
 20
7.1254477326
 30
0.0
 10
30.8378309881
 20
7.1164749033
 30
0.0
 10
30.9133767687
 20
7.1077678316
 30
0.0
 10
30.9890810468
 20
7.1005711094
 30
0.0
 10
31.0648927943
 20
7.0946296538
 30
0.0
 10
31.1660653931
 20
7.0879847695
 30
0.0
 10
31.292655428
 20
7.0817355705
 30
0.0
 10
31.444662419
 20
7.0767636653
 30
0.0
 10
31.5967247288
 20
7.0739937726
 30
0.0
 10
31.7488083581
 20
7.0730235865
 30
0.0
 10
31.9008931398
 20
7.0739265775
 30
0.0
 10
32.0529533653
 20
7.0768062071
 30
0.0
 10
32.2049613626
 20
7.0817340779
 30
0.0
 10
32.3315516489
 20
7.0879829615
 30
0.0
 10
32.4327244977
 20
7.0946245877
 30
0.0
 10
32.5085341537
 20
7.1005938934
 30
0.0
 10
32.5842400375
 20
7.1077648096
 30
0.0
 10
32.6597887574
 20
7.1164715446
 30
0.0
 10
32.7350639607
 20
7.1272644778
 30
0.0
 10
32.7974283584
 20
7.1386978173
 30
0.0
 10
32.8405404621
 20
7.1491810134
 30
0.0
 10
32.8649569196
 20
7.1560007496
 30
0.0
 10
32.8830531658
 20
7.1618482588
 30
0.0
 10
32.9007606701
 20
7.1688337143
 30
0.0
 10
32.9149673373
 20
7.1758568063
 30
0.0
 10
32.9257971193
 20
7.1825615952
 30
0.0
 10
32.9355731803
 20
7.1903213299
 30
0.0
 10
32.9414887991
 20
7.1993475986
 30
0.0
 10
32.9414887991
 20
7.2056521739
 30
0.0
  0
SPLINE
  5
26C
100
AcDbEntity
  8
0
100
AcDbSpline
 62
7
  6
BYLAYER
 70
0
 71
3
 72
10
 73
6
 74
0
 42
0.0000001
 43
0.0000001
 44
0.0000000001
 40
0.0
 40
0.0
 40
0.0
 40
0.0
 40
0.5003306106
 40
0.7502191338
 40
1.0
 40
1.0
 40
1.0
 40
1.0
 10
49.315790053
 20
21.6860219674
 30
0.0
 10
47.897026977
 20
21.4746019032
 30
0.0
 10
45.7595407297
 20
21.2168256105
 30
0.0
 10
42.8976535358
 20
21.0363741797
 30
0.0
 10
41.4649195034
 20
21.0056522439
 30
0.0
 10
40.7488070794
 20
21.0056521999
 30
0.0
  0
SPLINE
  5
26D
100
AcDbEntity
  8
0
100
AcDbSpline
 62
7
  6
BYLAYER
 70
0
 71
3
 72
10
 73
6
 74
0
 42
0.0000001
 43
0.0000001
 44
0.0000000001
 40
0.0
 40
0.0
 40
0.0
 40
0.0
 40
0.2497808681
 40
0.499669392
 40
1.0
 40
1.0
 40
1.0
 40
1.0
 10
40.7488070794
 20
26.0056521479
 30
0.0
 10
41.4649195087
 20
26.0056521039
 30
0.0
 10
42.8976535487
 20
25.9749301724
 30
0.0
 10
45.7595407423
 20
25.7944787342
 30
0.0
 10
47.8970269844
 20
25.5367024435
 30
0.0
 10
49.315790053
 20
25.3252823804
 30
0.0
  0
SPLINE
  5
26E
100
AcDbEntity
  8
0
100
AcDbSpline
 62
7
  6
BYLAYER
 70
0
 71
3
 72
10
 73
6
 74
0
 42
0.0000001
 43
0.0000001
 44
0.0000000001
 40
0.0
 40
0.0
 40
0.0
 40
0.0
 40
0.2497808676
 40
0.4996693907
 40
1.0
 40
1.0
 40
1.0
 40
1.0
 10
40.7488070794
 20
21.0056521999
 30
0.0
 10
40.0326939359
 20
21.005652121
 30
0.0
 10
38.5999585114
 20
21.0363756234
 30
0.0
 10
35.738068315
 20
21.2168244552
 30
0.0
 10
33.6005799473
 20
21.4746016881
 30
0.0
 10
32.1818154568
 20
21.6860219604
 30
0.0
  0
SPLINE
  5
26F
100
AcDbEntity
  8
0
100
AcDbSpline
 62
7
  6
BYLAYER
 70
0
 71
3
 72
10
 73
6
 74
0
 42
0.0000001
 43
0.0000001
 44
0.0000000001
 40
0.0
 40
0.0
 40
0.0
 40
0.0
 40
0.5003195007
 40
0.7502115219
 40
1.0
 40
1.0
 40
1.0
 40
1.0
 10
31.1425849723
 20
21.6604127643
 30
0.0
 10
29.7522575229
 20
21.4564698553
 30
0.0
 10
27.6578056476
 20
21.2084255442
 30
0.0
 10
24.8539676018
 20
21.0351317117
 30
0.0
 10
23.4503671801
 20
21.0056522427
 30
0.0
 10
22.7488070794
 20
21.0056521999
 30
0.0
  0
SPLINE
  5
270
100
AcDbEntity
  8
0
100
AcDbSpline
 62
7
  6
BYLAYER
 70
0
 71
3
 72
10
 73
6
 74
0
 42
0.0000001
 43
0.0000001
 44
0.0000000001
 40
0.0
 40
0.0
 40
0.0
 40
0.0
 40
0.500330612
 40
0.7502191342
 40
1.0
 40
1.0
 40
1.0
 40
1.0
 10
32.1818154568
 20
25.3252823874
 30
0.0
 10
33.6005799548
 20
25.5367026609
 30
0.0
 10
35.7380683277
 20
25.7944798963
 30
0.0
 10
38.5999585245
 20
25.9749287197
 30
0.0
 10
40.0326939412
 20
26.0056522269
 30
0.0
 10
40.7488070794
 20
26.0056521479
 30
0.0
  0
SPLINE
  5
271
100
AcDbEntity
  8
0
100
AcDbSpline
 62
7
  6
BYLAYER
 70
0
 71
3
 72
10
 73
6
 74
0
 42
0.0000001
 43
0.0000001
 44
0.0000000001
 40
0.0
 40
0.0
 40
0.0
 40
0.0
 40
0.2497884797
 40
0.4996805017
 40
1.0
 40
1.0
 40
1.0
 40
1.0
 10
22.7488070794
 20
26.0056521479
 30
0.0
 10
23.4503671845
 20
26.0056521051
 30
0.0
 10
24.8539676128
 20
25.9761726396
 30
0.0
 10
27.6578056584
 20
25.8028788015
 30
0.0
 10
29.7522575293
 20
25.5548344916
 30
0.0
 10
31.1425849723
 20
25.3508915836
 30
0.0
  0
SPLINE
  5
272
100
AcDbEntity
  8
0
100
AcDbSpline
 62
7
  6
BYLAYER
 70
0
 71
3
 72
10
 73
6
 74
0
 42
0.0000001
 43
0.0000001
 44
0.0000000001
 40
0.0
 40
0.0
 40
0.0
 40
0.0
 40
0.5003195018
 40
0.7502115222
 40
1.0
 40
1.0
 40
1.0
 40
1.0
 10
14.3550205375
 20
25.3508916021
 30
0.0
 10
15.7453494089
 20
25.5548347131
 30
0.0
 10
17.8398034186
 20
25.8028798611
 30
0.0
 10
20.6436444552
 20
25.9761712236
 30
0.0
 10
22.0472462643
 20
26.0056522256
 30
0.0
 10
22.7488070794
 20
26.0056521479
 30
0.0
  0
SPLINE
  5
273
100
AcDbEntity
  8
0
100
AcDbSpline
 62
7
  6
BYLAYER
 70
0
 71
3
 72
10
 73
6
 74
0
 42
0.0000001
 43
0.0000001
 44
0.0000000001
 40
0.0
 40
0.0
 40
0.0
 40
0.0
 40
0.2497884794
 40
0.4996805005
 40
1.0
 40
1.0
 40
1.0
 40
1.0
 10
22.7488070794
 20
21.0056521999
 30
0.0
 10
22.0472462598
 20
21.0056521222
 30
0.0
 10
20.643644444
 20
21.0351331203
 30
0.0
 10
17.8398034077
 20
21.2084244894
 30
0.0
 10
15.7453494024
 20
21.4564696357
 30
0.0
 10
14.3550205375
 20
21.6604127458
 30
0.0
  0
SPLINE
  5
274
100
AcDbEntity
  8
0
100
AcDbSpline
 62
7
  6
BYLAYER
 70
0
 71
3
 72
10
 73
6
 74
0
 42
0.0000001
 43
0.0000001
 44
0.0000000001
 40
0.0
 40
0.0
 40
0.0
 40
0.0
 40
0.500330612
 40
0.7502191342
 40
1.0
 40
1.0
 40
1.0
 40
1.0
 10
32.1818154568
 20
16.3252823875
 30
0.0
 10
33.6005799548
 20
16.5367026609
 30
0.0
 10
35.7380683277
 20
16.7944798963
 30
0.0
 10
38.5999585245
 20
16.9749287197
 30
0.0
 10
40.0326939411
 20
17.0056522269
 30
0.0
 10
40.7488070794
 20
17.005652148
 30
0.0
  0
SPLINE
  5
275
100
AcDbEntity
  8
0
100
AcDbSpline
 62
7
  6
BYLAYER
 70
0
 71
3
 72
10
 73
6
 74
0
 42
0.0000001
 43
0.0000001
 44
0.0000000001
 40
0.0
 40
0.0
 40
0.0
 40
0.0
 40
0.2497884797
 40
0.4996805017
 40
1.0
 40
1.0
 40
1.0
 40
1.0
 10
22.7488070794
 20
17.0056521479
 30
0.0
 10
23.4503671845
 20
17.0056521052
 30
0.0
 10
24.8539676128
 20
16.9761726396
 30
0.0
 10
27.6578056584
 20
16.8028788015
 30
0.0
 10
29.7522575293
 20
16.5548344916
 30
0.0
 10
31.1425849723
 20
16.3508915836
 30
0.0
  0
SPLINE
  5
276
100
AcDbEntity
  8
0
100
AcDbSpline
 62
7
  6
BYLAYER
 70
0
 71
3
 72
10
 73
6
 74
0
 42
0.0000001
 43
0.0000001
 44
0.0000000001
 40
0.0
 40
0.0
 40
0.0
 40
0.0
 40
0.2497808676
 40
0.4996693907
 40
1.0
 40
1.0
 40
1.0
 40
1.0
 10
40.7488070794
 20
12.0056521999
 30
0.0
 10
40.0326939359
 20
12.005652121
 30
0.0
 10
38.5999585114
 20
12.0363756234
 30
0.0
 10
35.738068315
 20
12.2168244552
 30
0.0
 10
33.6005799473
 20
12.474601688
 30
0.0
 10
32.1818154568
 20
12.6860219604
 30
0.0
  0
SPLINE
  5
277
100
AcDbEntity
  8
0
100
AcDbSpline
 62
7
  6
BYLAYER
 70
0
 71
3
 72
10
 73
6
 74
0
 42
0.0000001
 43
0.0000001
 44
0.0000000001
 40
0.0
 40
0.0
 40
0.0
 40
0.0
 40
0.5003195007
 40
0.7502115219
 40
1.0
 40
1.0
 40
1.0
 40
1.0
 10
31.1425849723
 20
12.6604127643
 30
0.0
 10
29.7522575229
 20
12.4564698553
 30
0.0
 10
27.6578056476
 20
12.2084255442
 30
0.0
 10
24.8539676018
 20
12.0351317117
 30
0.0
 10
23.4503671801
 20
12.0056522427
 30
0.0
 10
22.7488070794
 20
12.0056521999
 30
0.0
  0
SPLINE
  5
278
100
AcDbEntity
  8
0
100
AcDbSpline
 62
7
  6
BYLAYER
 70
0
 71
3
 72
10
 73
6
 74
0
 42
0.0000001
 43
0.0000001
 44
0.0000000001
 40
0.0
 40
0.0
 40
0.0
 40
0.0
 40
0.2497808681
 40
0.499669392
 40
1.0
 40
1.0
 40
1.0
 40
1.0
 10
40.7488070794
 20
17.005652148
 30
0.0
 10
41.4649195087
 20
17.0056521039
 30
0.0
 10
42.8976535487
 20
16.9749301724
 30
0.0
 10
45.7595407423
 20
16.7944787342
 30
0.0
 10
47.8970269844
 20
16.5367024435
 30
0.0
 10
49.315790053
 20
16.3252823804
 30
0.0
  0
SPLINE
  5
279
100
AcDbEntity
  8
0
100
AcDbSpline
 62
7
  6
BYLAYER
 70
0
 71
3
 72
10
 73
6
 74
0
 42
0.0000001
 43
0.0000001
 44
0.0000000001
 40
0.0
 40
0.0
 40
0.0
 40
0.0
 40
0.5003306106
 40
0.7502191338
 40
1.0
 40
1.0
 40
1.0
 40
1.0
 10
49.315790053
 20
12.6860219674
 30
0.0
 10
47.897026977
 20
12.4746019032
 30
0.0
 10
45.7595407297
 20
12.2168256105
 30
0.0
 10
42.8976535358
 20
12.0363741797
 30
0.0
 10
41.4649195034
 20
12.0056522439
 30
0.0
 10
40.7488070794
 20
12.0056521999
 30
0.0
  0
SPLINE
  5
27A
100
AcDbEntity
  8
0
100
AcDbSpline
 62
7
  6
BYLAYER
 70
0
 71
3
 72
10
 73
6
 74
0
 42
0.0000001
 43
0.0000001
 44
0.0000000001
 40
0.0
 40
0.0
 40
0.0
 40
0.0
 40
0.5003195018
 40
0.7502115222
 40
1.0
 40
1.0
 40
1.0
 40
1.0
 10
14.3550205375
 20
16.3508916021
 30
0.0
 10
15.7453494089
 20
16.5548347131
 30
0.0
 10
17.8398034186
 20
16.8028798611
 30
0.0
 10
20.6436444552
 20
16.9761712236
 30
0.0
 10
22.0472462643
 20
17.0056522256
 30
0.0
 10
22.7488070794
 20
17.0056521479
 30
0.0
  0
SPLINE
  5
27B
100
AcDbEntity
  8
0
100
AcDbSpline
 62
7
  6
BYLAYER
 70
0
 71
3
 72
10
 73
6
 74
0
 42
0.0000001
 43
0.0000001
 44
0.0000000001
 40
0.0
 40
0.0
 40
0.0
 40
0.0
 40
0.2497884794
 40
0.4996805005
 40
1.0
 40
1.0
 40
1.0
 40
1.0
 10
22.7488070794
 20
12.0056521999
 30
0.0
 10
22.0472462598
 20
12.0056521222
 30
0.0
 10
20.643644444
 20
12.0351331203
 30
0.0
 10
17.8398034077
 20
12.2084244894
 30
0.0
 10
15.7453494024
 20
12.4564696356
 30
0.0
 10
14.3550205375
 20
12.6604127457
 30
0.0
  0
ENDSEC
  0
SECTION
  2
OBJECTS
  0
DICTIONARY
  5
C
100
AcDbDictionary
280
0
281
1
  3
ACAD_GROUP
350
D
  3
ACAD_MLINESTYLE
350
17
  3
ACAD_LAYOUT
350
1A
  3
ACAD_PLOTSETTINGS
350
19
  3
ACAD_PLOTSTYLENAME
350
E
  0
DICTIONARY
  5
D
102
{ACAD_REACTORS
330
C
102
}
100
AcDbDictionary
280
0
281
1
  0
ACDBDICTIONARYWDFLT
  5
E
102
{ACAD_REACTORS
330
C
102
}
100
AcDbDictionary
281
1
  3
Normal
350
F
100
AcDbDictionaryWithDefault
340
F
  0
DICTIONARY
  5
17
102
{ACAD_REACTORS
330
C
102
}
100
AcDbDictionary
280
0
281
1
  3
Standard
350
18
  0
DICTIONARY
  5
19
102
{ACAD_REACTORS
330
C
102
}
100
AcDbDictionary
281
1
  0
DICTIONARY
  5
1A
102
{ACAD_REACTORS
330
C
102
}
100
AcDbDictionary
281
1
  3
Model
350
27C
  3
Layout1
350
27D
  0
ACDBPLACEHOLDER
  5
F
102
{ACAD_REACTORS
330
E
102
}
  0
MLINESTYLE
  5
18
102
{ACAD_REACTORS
330
17
102
}
100
AcDbMlineStyle
  2
STANDARD
 70
0
  3

 62
256
 51
90.0
 52
90.0
 71
2
 49
0.5
 62
256
  6
BYLAYER
 49
-0.5
 62
256
  6
BYLAYER
  0
LAYOUT
  5
27C
102
{ACAD_REACTORS
330
1A
102
}
100
AcDbPlotSettings
  1

  2
none_device
  4

  6

 40
0.0
 41
0.0
 42
0.0
 43
0.0
 44
210.0
 45
297.0
 46
0.0
 47
0.0
 48
0.0
 49
0.0
140
0.0
141
0.0
142
1.0
143
1.0
 70
1024
 72
1
 73
0
 74
0
  7

 75
0
147
1.0
148
0.0
149
0.0
100
AcDbLayout
  1
Model
 70
0
 71
0
 10
0.0
 20
0.0
 11
210.0
 21
297.0
 12
0.0
 22
0.0
 32
0.0
 14
0.0
 24
0.0
 34
0.0
 15
0.0
 25
0.0
 35
0.0
146
0.0
 13
0.0
 23
0.0
 33
0.0
 16
1.0
 26
0.0
 36
0.0
 17
0.0
 27
1.0
 37
0.0
 76
0
330
210
345
0
346
0
  0
LAYOUT
  5
27D
102
{ACAD_REACTORS
330
1A
102
}
100
AcDbPlotSettings
  1

  2
none_device
  4

  6

 40
0.0
 41
0.0
 42
0.0
 43
0.0
 44
210.0
 45
297.0
 46
0.0
 47
0.0
 48
0.0
 49
0.0
140
0.0
141
0.0
142
1.0
143
1.0
 70
0
 72
1
 73
0
 74
0
  7

 75
0
147
1.0
148
0.0
149
0.0
100
AcDbLayout
  1
Layout1
 70
0
 71
1
 10
0.0
 20
0.0
 11
210.0
 21
297.0
 12
0.0
 22
0.0
 32
0.0
 14
0.0
 24
0.0
 34
0.0
 15
0.0
 25
0.0
 35
0.0
146
0.0
 13
0.0
 23
0.0
 33
0.0
 16
1.0
 26
0.0
 36
0.0
 17
0.0
 27
1.0
 37
0.0
 76
0
330
211
345
0
346
0
  0
ENDSEC
  0
EOF
