999
DXF file: C:\Gen2D\CAD\GV2ME016_3D-CAD\drw0001_6.dxf
999
Pro/ENGINEER 2019471 by Parametric Technology Corporation
  0
SECTION
  2
HEADER
  9
$ACADVER
  1
AC1024
  9
$DWGCODEPAGE
  3
ANSI_1252
  9
$EXTMAX
 10
99.0132421952
 20
140.0330139618
 30
0.0
  9
$EXTMIN
 10
0.0
 20
0.0
 30
0.0
  9
$LIMMIN
 10
0.0
 20
0.0
  9
$LIMMAX
 10
99.0132421952
 20
140.0330139618
  9
$VIEWCTR
 10
49.5066210976
 20
70.0165069809
  9
$VIEWSIZE
 40
140.0330139618
  9
$CLAYER
  8
0
  9
$LTSCALE
 40
9.1280779471
  9
$CELTYPE
  6
BYLAYER
  9
$DIMSCALE
 40
1.0
  9
$DIMASZ
 40
1.1787290738
  9
$DIMEXO
 40
1.0
  9
$DIMDLI
 40
6.3066720362
  9
$DIMEXE
 40
1.0
  9
$DIMCEN
 40
1.4936854823
  9
$DIMLFAC
 40
1.0
  9
$DIMBLK
  1
_FILLED
  9
$DIMALT
 70
0
  9
$DIMALTF
 40
0.0393700787
  9
$DIMTXT
 40
1.6502207033
  9
$DIMTOL
 70
1
  9
$DIMLIM
 70
0
  9
$DIMTFAC
 40
1.0
  9
$DIMTP
 40
0.01
  9
$DIMTM
 40
0.01
  9
$DIMGAP
 40
0.625
  9
$DIMDSEP
 70
46
  9
$AUNITS
 70
0
  9
$PDMODE
 70
3
  9
$PDSIZE
 40
0.3125
  9
$HANDSEED
  5
28D
  9
$TILEMODE
 70
1
  9
$MEASUREMENT
 70
1
  9
$INSUNITS
 70
4
  0
ENDSEC
  0
SECTION
  2
CLASSES
  0
CLASS
  1
ACDBDICTIONARYWDFLT
  2
AcDbDictionaryWithDefault
  3
AutoCAD 2000
 90
0
 91
1
280
0
281
0
  0
CLASS
  1
ACDBPLACEHOLDER
  2
AcDbPlaceHolder
  3
AutoCAD 2000
 90
0
 91
1
280
0
281
0
  0
CLASS
  1
LAYOUT
  2
AcDbLayout
  3
AutoCAD 2000
 90
0
 91
0
280
0
281
0
  0
ENDSEC
  0
SECTION
  2
TABLES
  0
TABLE
  2
VPORT
  5
8
100
AcDbSymbolTable
 70
2
  0
VPORT
  5
1F4
100
AcDbSymbolTableRecord
100
AcDbViewportTableRecord
  2
*ACTIVE
 70
0
 10
0.0
 20
0.0
 11
1.0
 21
1.0
 12
49.5066210976
 22
70.0165069809
 13
0.0
 23
0.0
 14
1.0
 24
1.0
 15
0.0
 25
0.0
 16
0.0
 26
0.0
 36
1.0
 17
0.0
 27
0.0
 37
0.0
 40
140.0330139618
 41
0.7070707071
 42
50.0
 43
0.0
 44
0.0
 50
0.0
 51
0.0
 71
0
 72
100
 73
1
 74
1
 75
0
 76
0
 77
0
 78
0
  0
ENDTAB
  0
TABLE
  2
LTYPE
  5
5
100
AcDbSymbolTable
 70
6
  0
LTYPE
  5
14
100
AcDbSymbolTableRecord
100
AcDbLinetypeTableRecord
  2
BYBLOCK
 70
0
  3

 72
65
 73
0
 40
0.0
  0
LTYPE
  5
15
100
AcDbSymbolTableRecord
100
AcDbLinetypeTableRecord
  2
BYLAYER
 70
0
  3

 72
65
 73
0
 40
0.0
  0
LTYPE
  5
16
100
AcDbSymbolTableRecord
100
AcDbLinetypeTableRecord
  2
CONTINUOUS
 70
64
  3
Solid line
 72
65
 73
0
 40
0.0
  0
LTYPE
  5
1F5
100
AcDbSymbolTableRecord
100
AcDbLinetypeTableRecord
  2
CENTER
 70
64
  3
____ _ ____ _ ____ _ ____ _ ____ _ ____ _ ____
 72
65
 73
4
 40
0.6
 49
0.375
 74
0
 49
-0.075
 74
0
 49
0.075
 74
0
 49
-0.075
 74
0
  0
LTYPE
  5
1F6
100
AcDbSymbolTableRecord
100
AcDbLinetypeTableRecord
  2
HIDDEN
 70
64
  3
- - - - - - - - - - - - - - - - - - - -
 72
65
 73
2
 40
0.2
 49
0.1
 74
0
 49
-0.1
 74
0
  0
LTYPE
  5
1F7
100
AcDbSymbolTableRecord
100
AcDbLinetypeTableRecord
  2
PHANTOM
 70
64
  3
_____ _ _ _____ _ _ _____ _ _ _____
 72
65
 73
6
 40
0.8
 49
0.45
 74
0
 49
-0.05
 74
0
 49
0.1
 74
0
 49
-0.05
 74
0
 49
0.1
 74
0
 49
-0.05
 74
0
  0
LTYPE
  5
1F8
100
AcDbSymbolTableRecord
100
AcDbLinetypeTableRecord
  2
DOT
 70
64
  3
. . . . . . . . . . . . . . . . . . . .
 72
65
 73
2
 40
0.2
 49
0.1
 74
0
 49
-0.1
 74
0
  0
LTYPE
  5
1F9
100
AcDbSymbolTableRecord
100
AcDbLinetypeTableRecord
  2
DASHED
 70
64
  3
- - - - - - - - - - - - - - - - - - - -
 72
65
 73
2
 40
0.2
 49
0.1
 74
0
 49
-0.1
 74
0
  0
ENDTAB
  0
TABLE
  2
LAYER
  5
2
100
AcDbSymbolTable
 70
36
  0
LAYER
  5
10
100
AcDbSymbolTableRecord
100
AcDbLayerTableRecord
  2
0
 70
0
 62
7
  6
CONTINUOUS
370
-3
390
F
  0
LAYER
  5
1FA
100
AcDbSymbolTableRecord
100
AcDbLayerTableRecord
  2
DEFAULT_1
 70
0
 62
7
  6
CENTER
370
-3
390
F
  0
LAYER
  5
1FB
100
AcDbSymbolTableRecord
100
AcDbLayerTableRecord
  2
DEFAULT_2
 70
0
 62
8
  6
HIDDEN
370
-3
390
F
  0
LAYER
  5
1FC
100
AcDbSymbolTableRecord
100
AcDbLayerTableRecord
  2
DEFAULT_3
 70
0
 62
7
  6
PHANTOM
370
-3
390
F
  0
LAYER
  5
1FD
100
AcDbSymbolTableRecord
100
AcDbLayerTableRecord
  2
00_COMPONENTS
 70
0
 62
7
  6
CONTINUOUS
370
-3
390
F
  0
LAYER
  5
1FE
100
AcDbSymbolTableRecord
100
AcDbLayerTableRecord
  2
01_1_DEFAULT_DATUMS
 70
0
 62
7
  6
CONTINUOUS
370
-3
390
F
  0
LAYER
  5
1FF
100
AcDbSymbolTableRecord
100
AcDbLayerTableRecord
  2
01_PLANES
 70
0
 62
7
  6
CONTINUOUS
370
-3
390
F
  0
LAYER
  5
200
100
AcDbSymbolTableRecord
100
AcDbLayerTableRecord
  2
02_COORD_SYS
 70
0
 62
7
  6
CONTINUOUS
370
-3
390
F
  0
LAYER
  5
201
100
AcDbSymbolTableRecord
100
AcDbLayerTableRecord
  2
03_AXES
 70
0
 62
7
  6
CONTINUOUS
370
-3
390
F
  0
LAYER
  5
202
100
AcDbSymbolTableRecord
100
AcDbLayerTableRecord
  2
04_POINTS
 70
0
 62
7
  6
CONTINUOUS
370
-3
390
F
  0
LAYER
  5
203
100
AcDbSymbolTableRecord
100
AcDbLayerTableRecord
  2
05_CURVES
 70
0
 62
7
  6
CONTINUOUS
370
-3
390
F
  0
LAYER
  5
204
100
AcDbSymbolTableRecord
100
AcDbLayerTableRecord
  2
06_SURFS
 70
0
 62
7
  6
CONTINUOUS
370
-3
390
F
  0
LAYER
  5
205
100
AcDbSymbolTableRecord
100
AcDbLayerTableRecord
  2
07_COSMETICS
 70
0
 62
7
  6
CONTINUOUS
370
-3
390
F
  0
LAYER
  5
206
100
AcDbSymbolTableRecord
100
AcDbLayerTableRecord
  2
10_NOTES
 70
0
 62
7
  6
CONTINUOUS
370
-3
390
F
  0
LAYER
  5
207
100
AcDbSymbolTableRecord
100
AcDbLayerTableRecord
  2
11_NOTES_PUB
 70
0
 62
7
  6
CONTINUOUS
370
-3
390
F
  0
LAYER
  5
208
100
AcDbSymbolTableRecord
100
AcDbLayerTableRecord
  2
13_REF_GTOL
 70
0
 62
7
  6
CONTINUOUS
370
-3
390
F
  0
LAYER
  5
209
100
AcDbSymbolTableRecord
100
AcDbLayerTableRecord
  2
16_MISC
 70
0
 62
7
  6
CONTINUOUS
370
-3
390
F
  0
LAYER
  5
20A
100
AcDbSymbolTableRecord
100
AcDbLayerTableRecord
  2
17_NO_PRINT
 70
0
 62
7
  6
CONTINUOUS
370
-3
390
F
  0
LAYER
  5
20B
100
AcDbSymbolTableRecord
100
AcDbLayerTableRecord
  2
18_DATUM_CAMS_JOINTS
 70
0
 62
7
  6
CONTINUOUS
370
-3
390
F
  0
LAYER
  5
20C
100
AcDbSymbolTableRecord
100
AcDbLayerTableRecord
  2
19_DATUM_FUNCTIONAL
 70
0
 62
7
  6
CONTINUOUS
370
-3
390
F
  0
LAYER
  5
20D
100
AcDbSymbolTableRecord
100
AcDbLayerTableRecord
  2
20_DATUM_KINEMATIC_SCHEME
 70
0
 62
7
  6
CONTINUOUS
370
-3
390
F
  0
LAYER
  5
20E
100
AcDbSymbolTableRecord
100
AcDbLayerTableRecord
  2
INTFCLR_65
 70
0
 62
7
  6
CONTINUOUS
370
-3
390
F
  0
LAYER
  5
20F
100
AcDbSymbolTableRecord
100
AcDbLayerTableRecord
  2
INTFCLR_75
 70
0
 62
7
  6
CONTINUOUS
370
-3
390
F
  0
ENDTAB
  0
TABLE
  2
STYLE
  5
3
100
AcDbSymbolTable
 70
1
  0
STYLE
  5
11
100
AcDbSymbolTableRecord
100
AcDbTextStyleTableRecord
  2
STANDARD
 70
0
 40
0.0
 41
0.8
 50
0.0
 71
0
 42
0.2
  3
txt
  4

  0
STYLE
  5
210
100
AcDbSymbolTableRecord
100
AcDbTextStyleTableRecord
  2
TEXTSTYLE_1
 70
0
 40
0.0
 41
0.8
 50
0.0
 71
0
 42
0.2
  3
gdt
  4

  0
ENDTAB
  0
TABLE
  2
VIEW
  5
6
100
AcDbSymbolTable
 70
0
  0
ENDTAB
  0
TABLE
  2
UCS
  5
7
100
AcDbSymbolTable
 70
0
  0
ENDTAB
  0
TABLE
  2
APPID
  5
9
100
AcDbSymbolTable
 70
1
  0
APPID
  5
211
100
AcDbSymbolTableRecord
100
AcDbRegAppTableRecord
  2
ACAD
 70
0
  0
ENDTAB
  0
TABLE
  2
BLOCK_RECORD
  5
1
100
AcDbSymbolTable
 70
0
  0
BLOCK_RECORD
  5
212
100
AcDbSymbolTableRecord
100
AcDbBlockTableRecord
  2
*Model_Space
  0
BLOCK_RECORD
  5
213
100
AcDbSymbolTableRecord
100
AcDbBlockTableRecord
  2
*Paper_Space
  0
BLOCK_RECORD
  5
214
100
AcDbSymbolTableRecord
100
AcDbBlockTableRecord
  2
_FILLED
  0
ENDTAB
  0
TABLE
  2
DIMSTYLE
  5
A
100
AcDbSymbolTable
 70
1
100
AcDbDimStyleTable
 71
0
  0
DIMSTYLE
105
215
100
AcDbSymbolTableRecord
100
AcDbDimStyleTableRecord
  2
STANDARD
 70
0
  3

  4

 40
1.0
 41
1.1787290738
 42
1.0
 43
0.38
 44
1.0
 45
0.0
 46
0.0
 47
0.01
 48
0.01
140
1.6502207033
141
0.09
142
0.0
143
25.4
144
1.0
145
0.0
146
1.0
147
0.625
 71
1
 72
0
 73
0
 74
0
 75
0
 76
0
 77
1
 78
8
 79
2
170
0
171
1
172
0
173
0
174
0
175
0
176
0
177
0
178
0
270
2
179
2
271
2
272
2
273
2
274
2
275
0
280
0
281
0
282
0
283
1
284
8
285
0
286
0
287
3
288
0
340
11
278
46
341
214
342
214
343
214
344
214
  0
ENDTAB
  0
ENDSEC
  0
SECTION
  2
BLOCKS
  0
BLOCK
  5
20
100
AcDbEntity
  8
0
100
AcDbBlockBegin
  2
*Model_Space
 70
0
 10
0.0
 20
0.0
 30
0.0
  3
*Model_Space
  1

  0
ENDBLK
  5
21
100
AcDbEntity
  8
0
100
AcDbBlockEnd
  0
BLOCK
  5
1C
100
AcDbEntity
  8
0
100
AcDbBlockBegin
  2
*Paper_Space
 70
0
 10
0.0
 20
0.0
 30
0.0
  3
*Paper_Space
  1

  0
ENDBLK
  5
1D
100
AcDbEntity
  8
0
100
AcDbBlockEnd
  0
BLOCK
  5
216
100
AcDbEntity
  8
0
100
AcDbBlockBegin
  2
_FILLED
 70
64
 10
0.0
 20
0.0
  3
_FILLED
  1

  0
SOLID
  5
217
100
AcDbEntity
  8
0
  6
BYBLOCK
 62
0
100
AcDbTrace
 10
0.0
 20
0.0
 11
-1.0
 21
0.25
 12
-1.0
 22
-0.25
 13
-1.0
 23
-0.25
  0
ENDBLK
  5
218
100
AcDbEntity
  8
0
  6
BYBLOCK
 62
0
100
AcDbBlockEnd
  0
ENDSEC
  0
SECTION
  2
ENTITIES
  0
LINE
  5
219
100
AcDbEntity
  8
0
100
AcDbLine
 62
7
  6
CONTINUOUS
 10
49.0282964465
 20
25.5665069809
 11
70.1282964465
 21
25.5665069809
  0
LINE
  5
21A
100
AcDbEntity
  8
0
100
AcDbLine
 62
7
  6
CONTINUOUS
 10
84.8282964465
 20
25.5665069809
 11
89.5282964465
 21
25.5665069809
  0
LINE
  5
21B
100
AcDbEntity
  8
0
100
AcDbLine
 62
7
  6
CONTINUOUS
 10
38.5297796575
 20
26.5665069809
 11
89.4982964465
 21
26.5665069809
  0
LINE
  5
21C
100
AcDbEntity
  8
0
100
AcDbLine
 62
7
  6
CONTINUOUS
 10
89.4982964465
 20
27.5665069809
 11
89.5282964465
 21
27.5665069809
  0
LINE
  5
21D
100
AcDbEntity
  8
0
100
AcDbLine
 62
7
  6
CONTINUOUS
 10
14.9282964465
 20
74.8509767808
 11
14.9582964465
 21
76.5870397326
  0
LINE
  5
21E
100
AcDbEntity
  8
0
100
AcDbLine
 62
7
  6
CONTINUOUS
 10
17.9448111886
 20
83.3871040389
 11
13.7726688841
 21
74.4030990056
  0
LINE
  5
21F
100
AcDbEntity
  8
INTFCLR_75
100
AcDbLine
 62
7
420
3604575
  6
CONTINUOUS
 10
39.4745863098
 20
34.5765069809
 11
38.806283246
 21
34.5765069809
  0
LINE
  5
220
100
AcDbEntity
  8
INTFCLR_75
100
AcDbLine
 62
7
420
3604575
  6
CONTINUOUS
 10
38.5792871623
 20
34.5765069809
 11
38.5297082287
 21
34.5765069809
  0
LINE
  5
221
100
AcDbEntity
  8
0
100
AcDbLine
 62
7
  6
CONTINUOUS
 10
14.9582964465
 20
76.5870397326
 11
13.9136721963
 21
74.3376175325
  0
LINE
  5
222
100
AcDbEntity
  8
0
100
AcDbLine
 62
7
  6
CONTINUOUS
 10
20.7882964465
 20
70.6042049398
 11
20.7882964465
 21
70.9665069809
  0
LINE
  5
223
100
AcDbEntity
  8
0
100
AcDbLine
 62
7
  6
CONTINUOUS
 10
22.3327851045
 20
47.7465069809
 11
22.3327851045
 21
62.9665069809
  0
LINE
  5
224
100
AcDbEntity
  8
0
100
AcDbLine
 62
7
  6
CONTINUOUS
 10
22.360177978
 20
62.9665069809
 11
22.360177978
 21
70.3473281568
  0
LINE
  5
225
100
AcDbEntity
  8
0
100
AcDbLine
 62
7
  6
CONTINUOUS
 10
22.360177978
 20
91.7681686743
 11
22.360177978
 21
92.2664785063
  0
LINE
  5
226
100
AcDbEntity
  8
0
100
AcDbLine
 62
7
  6
CONTINUOUS
 10
22.4282964465
 20
55.9265069809
 11
22.4282964465
 21
47.9765069809
  0
LINE
  5
227
100
AcDbEntity
  8
0
100
AcDbLine
 62
7
  6
CONTINUOUS
 10
22.504065575
 20
92.2673044472
 11
22.504065575
 21
91.765606865
  0
LINE
  5
228
100
AcDbEntity
  8
0
100
AcDbLine
 62
7
  6
CONTINUOUS
 10
22.504065575
 20
70.287437187
 11
22.504065575
 21
62.9665069809
  0
LINE
  5
229
100
AcDbEntity
  8
0
100
AcDbLine
 62
7
  6
CONTINUOUS
 10
23.4351504627
 20
62.9665069809
 11
23.4351504627
 21
92.2726490432
  0
LINE
  5
22A
100
AcDbEntity
  8
0
100
AcDbLine
 62
7
  6
CONTINUOUS
 10
23.6080029527
 20
48.1265069809
 11
23.6080029527
 21
55.7765069809
  0
LINE
  5
22B
100
AcDbEntity
  8
0
100
AcDbLine
 62
7
  6
CONTINUOUS
 10
23.7167824527
 20
92.2734399227
 11
23.7167824527
 21
47.7465069809
  0
LINE
  5
22C
100
AcDbEntity
  8
0
100
AcDbLine
 62
7
  6
CONTINUOUS
 10
24.7082964465
 20
92.279957132
 11
24.7082964465
 21
47.7465069809
  0
LINE
  5
22D
100
AcDbEntity
  8
0
100
AcDbLine
 62
7
  6
CONTINUOUS
 10
26.3582964465
 20
47.4465069809
 11
26.3582964465
 21
92.289428431
  0
LINE
  5
22E
100
AcDbEntity
  8
0
100
AcDbLine
 62
7
  6
CONTINUOUS
 10
22.3327851045
 20
47.7465069809
 11
26.3582964465
 21
47.7465069809
  0
LINE
  5
22F
100
AcDbEntity
  8
0
100
AcDbLine
 62
7
  6
CONTINUOUS
 10
23.5892741321
 20
47.9765069809
 11
22.4282964465
 21
47.9765069809
  0
LINE
  5
230
100
AcDbEntity
  8
0
100
AcDbLine
 62
7
  6
CONTINUOUS
 10
22.4282964465
 20
48.1265069809
 11
23.6080029527
 21
48.1265069809
  0
LINE
  5
231
100
AcDbEntity
  8
0
100
AcDbLine
 62
7
  6
CONTINUOUS
 10
40.9082964465
 20
47.3627040702
 11
26.3582964465
 21
47.4465069809
  0
LINE
  5
232
100
AcDbEntity
  8
0
100
AcDbLine
 62
7
  6
CONTINUOUS
 10
84.0282964465
 20
52.4665069809
 11
85.3282964465
 21
52.4665069809
  0
LINE
  5
233
100
AcDbEntity
  8
0
100
AcDbLine
 62
7
  6
CONTINUOUS
 10
85.7282964465
 20
53.4665069809
 11
86.0282964465
 21
53.4665069809
  0
LINE
  5
234
100
AcDbEntity
  8
0
100
AcDbLine
 62
7
  6
CONTINUOUS
 10
38.5297764255
 20
47.3757472683
 11
38.5297764255
 21
38.5915069809
  0
LINE
  5
235
100
AcDbEntity
  8
0
100
AcDbLine
 62
7
  6
CONTINUOUS
 10
38.5297764255
 20
30.5615069809
 11
38.5297764255
 21
26.5665069809
  0
LINE
  5
236
100
AcDbEntity
  8
0
100
AcDbLine
 62
7
  6
CONTINUOUS
 10
38.5297764255
 20
92.8365069809
 11
38.5297764255
 21
100.9365069809
  0
LINE
  5
237
100
AcDbEntity
  8
0
100
AcDbLine
 62
7
  6
CONTINUOUS
 10
38.5297764255
 20
100.9776779631
 11
38.5297764255
 21
101.1615069809
  0
LINE
  5
238
100
AcDbEntity
  8
0
100
AcDbLine
 62
7
  6
CONTINUOUS
 10
38.5297764255
 20
109.1915069809
 11
38.5297764255
 21
113.4665069809
  0
LINE
  5
239
100
AcDbEntity
  8
0
100
AcDbLine
 62
7
  6
CONTINUOUS
 10
38.530410951
 20
101.1873217567
 11
38.5297764257
 21
101.1615069828
  0
LINE
  5
23A
100
AcDbEntity
  8
0
100
AcDbLine
 62
7
  6
CONTINUOUS
 10
23.6080029527
 20
55.7765069809
 11
22.4282964465
 21
55.7765069809
  0
LINE
  5
23B
100
AcDbEntity
  8
0
100
AcDbLine
 62
7
  6
CONTINUOUS
 10
22.4282964465
 20
55.9265069809
 11
23.5892741321
 21
55.9265069809
  0
LINE
  5
23C
100
AcDbEntity
  8
0
100
AcDbLine
 62
7
  6
CONTINUOUS
 10
13.9136721963
 20
74.3376175325
 11
11.7777420116
 21
75.3295364651
  0
LINE
  5
23D
100
AcDbEntity
  8
0
100
AcDbLine
 62
7
  6
CONTINUOUS
 10
39.9673543642
 20
47.3681235675
 11
39.9673543642
 21
26.5665069809
  0
LINE
  5
23E
100
AcDbEntity
  8
0
100
AcDbLine
 62
7
  6
CONTINUOUS
 10
39.9673543641
 20
92.8365069809
 11
39.9673543641
 21
113.4665069809
  0
LINE
  5
23F
100
AcDbEntity
  8
0
100
AcDbLine
 62
7
  6
CONTINUOUS
 10
40.9082964465
 20
113.4665069809
 11
40.9082964465
 21
92.8365069809
  0
LINE
  5
240
100
AcDbEntity
  8
0
100
AcDbLine
 62
7
  6
CONTINUOUS
 10
40.9082964465
 20
47.3627040702
 11
40.9082964465
 21
26.5665069809
  0
LINE
  5
241
100
AcDbEntity
  8
0
100
AcDbLine
 62
7
  6
CONTINUOUS
 10
41.5282964465
 20
92.3765069809
 11
41.5282964465
 21
92.8365069809
  0
LINE
  5
242
100
AcDbEntity
  8
0
100
AcDbLine
 62
7
  6
CONTINUOUS
 10
38.5305216451
 20
30.5918697123
 11
38.5297764255
 21
30.5621897077
  0
LINE
  5
243
100
AcDbEntity
  8
0
100
AcDbLine
 62
7
  6
CONTINUOUS
 10
23.4351504627
 20
62.9665069809
 11
22.504065575
 21
62.9665069809
  0
LINE
  5
244
100
AcDbEntity
  8
0
100
AcDbLine
 62
7
  6
CONTINUOUS
 10
22.360177978
 20
62.9665069809
 11
22.3327851045
 21
62.9665069809
  0
LINE
  5
245
100
AcDbEntity
  8
0
100
AcDbLine
 62
7
  6
CONTINUOUS
 10
49.0282964466
 20
114.4665069809
 11
49.0282964466
 21
113.4665069809
  0
LINE
  5
246
100
AcDbEntity
  8
0
100
AcDbLine
 62
7
  6
CONTINUOUS
 10
49.0282964465
 20
25.5665069809
 11
49.0282964465
 21
26.5665069809
  0
LINE
  5
247
100
AcDbEntity
  8
0
100
AcDbLine
 62
7
  6
CONTINUOUS
 10
21.6249662016
 20
68.7165069809
 11
22.360177978
 21
68.7165069809
  0
LINE
  5
248
100
AcDbEntity
  8
0
100
AcDbLine
 62
7
  6
CONTINUOUS
 10
54.0282964466
 20
114.4665069809
 11
54.0282964466
 21
113.4665069809
  0
LINE
  5
249
100
AcDbEntity
  8
0
100
AcDbLine
 62
7
  6
CONTINUOUS
 10
86.0282964465
 20
53.4665069809
 11
89.4982964465
 21
51.0365069809
  0
LINE
  5
24A
100
AcDbEntity
  8
0
100
AcDbLine
 62
7
  6
CONTINUOUS
 10
60.0282964466
 20
114.4665069809
 11
60.0282964466
 21
113.4665069809
  0
LINE
  5
24B
100
AcDbEntity
  8
0
100
AcDbLine
 62
7
  6
CONTINUOUS
 10
60.0282964465
 20
25.5665069809
 11
60.0282964465
 21
26.5665069809
  0
LINE
  5
24C
100
AcDbEntity
  8
0
100
AcDbLine
 62
7
  6
CONTINUOUS
 10
89.5282964465
 20
85.7565069809
 11
85.8682964465
 21
85.7565069809
  0
LINE
  5
24D
100
AcDbEntity
  8
0
100
AcDbLine
 62
7
  6
CONTINUOUS
 10
70.1282964466
 20
114.4665069809
 11
70.1282964466
 21
113.4665069809
  0
LINE
  5
24E
100
AcDbEntity
  8
0
100
AcDbLine
 62
7
  6
CONTINUOUS
 10
70.1282964465
 20
25.5665069809
 11
70.1282964465
 21
26.5665069809
  0
LINE
  5
24F
100
AcDbEntity
  8
0
100
AcDbLine
 62
7
  6
CONTINUOUS
 10
85.1954240721
 20
89.8572445288
 11
83.7682964465
 21
89.8565069809
  0
LINE
  5
250
100
AcDbEntity
  8
0
100
AcDbLine
 62
7
  6
CONTINUOUS
 10
83.7682964465
 20
86.6565069809
 11
84.0282964465
 21
86.6565069809
  0
LINE
  5
251
100
AcDbEntity
  8
0
100
AcDbLine
 62
7
  6
CONTINUOUS
 10
85.2282964465
 20
89.8265069809
 11
89.5282964465
 21
89.8265069809
  0
LINE
  5
252
100
AcDbEntity
  8
0
100
AcDbLine
 62
7
  6
CONTINUOUS
 10
85.1954240622
 20
89.8577713042
 11
89.5282964465
 21
89.8577713487
  0
LINE
  5
253
100
AcDbEntity
  8
0
100
AcDbLine
 62
7
  6
CONTINUOUS
 10
22.360177978
 20
92.2664785063
 11
41.5282964465
 21
92.3765069809
  0
LINE
  5
254
100
AcDbEntity
  8
0
100
AcDbLine
 62
7
  6
CONTINUOUS
 10
38.5297764255
 20
92.8365069809
 11
41.5282964465
 21
92.8365069809
  0
LINE
  5
255
100
AcDbEntity
  8
0
100
AcDbLine
 62
7
  6
CONTINUOUS
 10
20.2571971555
 20
91.805610648
 11
23.4351504627
 21
91.7490296069
  0
LINE
  5
256
100
AcDbEntity
  8
0
100
AcDbLine
 62
7
  6
CONTINUOUS
 10
38.5982964465
 20
100.9365069809
 11
38.5297620017
 21
100.9776866299
  0
LINE
  5
257
100
AcDbEntity
  8
0
100
AcDbLine
 62
7
  6
CONTINUOUS
 10
87.9754493193
 20
63.5509002274
 11
84.4547200102
 21
61.0856590252
  0
LINE
  5
258
100
AcDbEntity
  8
0
100
AcDbLine
 62
7
  6
CONTINUOUS
 10
84.4546756848
 20
78.8506216604
 11
87.9755379701
 21
76.385003403
  0
LINE
  5
259
100
AcDbEntity
  8
0
100
AcDbLine
 62
7
  6
CONTINUOUS
 10
38.5982964465
 20
100.9365069809
 11
38.5297764255
 21
100.9365069809
  0
LINE
  5
25A
100
AcDbEntity
  8
0
100
AcDbLine
 62
7
  6
CONTINUOUS
 10
83.2282964466
 20
113.4665069809
 11
83.2282964466
 21
114.4665069809
  0
LINE
  5
25B
100
AcDbEntity
  8
0
100
AcDbLine
 62
7
  6
CONTINUOUS
 10
83.7682964465
 20
89.8565069809
 11
83.7682964465
 21
86.6565069809
  0
LINE
  5
25C
100
AcDbEntity
  8
0
100
AcDbLine
 62
7
  6
CONTINUOUS
 10
84.0282964465
 20
86.6565069809
 11
84.0282964465
 21
79.669742666
  0
LINE
  5
25D
100
AcDbEntity
  8
0
100
AcDbLine
 62
7
  6
CONTINUOUS
 10
84.0282964465
 20
60.2665069809
 11
84.0282964465
 21
52.4665069809
  0
LINE
  5
25E
100
AcDbEntity
  8
0
100
AcDbLine
 62
7
  6
CONTINUOUS
 10
84.1282964466
 20
114.4665069809
 11
84.1282964466
 21
113.4665069809
  0
LINE
  5
25F
100
AcDbEntity
  8
0
100
AcDbLine
 62
7
  6
CONTINUOUS
 10
84.8282964465
 20
25.5665069809
 11
84.8282964465
 21
26.5665069809
  0
LINE
  5
260
100
AcDbEntity
  8
0
100
AcDbLine
 62
7
  6
CONTINUOUS
 10
85.2282964465
 20
89.8565069809
 11
85.2282964465
 21
89.6565069809
  0
LINE
  5
261
100
AcDbEntity
  8
0
100
AcDbLine
 62
7
  6
CONTINUOUS
 10
85.3282964465
 20
52.4665069809
 11
85.3282964465
 21
53.0665069809
  0
LINE
  5
262
100
AcDbEntity
  8
INTFCLR_75
100
AcDbLine
 62
7
420
3604575
  6
CONTINUOUS
 10
39.4745863098
 20
105.1765069809
 11
38.806283246
 21
105.1765069809
  0
LINE
  5
263
100
AcDbEntity
  8
INTFCLR_75
100
AcDbLine
 62
7
420
3604575
  6
CONTINUOUS
 10
38.5792871623
 20
105.1765069809
 11
38.5295799809
 21
105.1765069809
  0
LINE
  5
264
100
AcDbEntity
  8
0
100
AcDbLine
 62
7
  6
CONTINUOUS
 10
87.3509467274
 20
113.4665069809
 11
87.3509467274
 21
114.4665069809
  0
LINE
  5
265
100
AcDbEntity
  8
0
100
AcDbLine
 62
7
  6
CONTINUOUS
 10
87.6820031661
 20
114.4665069809
 11
87.6820031661
 21
113.4665069809
  0
LINE
  5
266
100
AcDbEntity
  8
0
100
AcDbLine
 62
7
  6
CONTINUOUS
 10
87.8705974036
 20
114.4665069809
 11
87.8705974036
 21
113.2616485595
  0
LINE
  5
267
100
AcDbEntity
  8
0
100
AcDbLine
 62
7
  6
CONTINUOUS
 10
88.8282964465
 20
74.746761392
 11
88.8282964465
 21
65.189204316
  0
LINE
  5
268
100
AcDbEntity
  8
0
100
AcDbLine
 62
7
  6
CONTINUOUS
 10
89.4982964465
 20
51.0365069809
 11
89.4982964465
 21
26.5665069809
  0
LINE
  5
269
100
AcDbEntity
  8
0
100
AcDbLine
 62
7
  6
CONTINUOUS
 10
89.5282964465
 20
25.5665069809
 11
89.5282964465
 21
27.5665069809
  0
LINE
  5
26A
100
AcDbEntity
  8
0
100
AcDbLine
 62
7
  6
CONTINUOUS
 10
89.5282964465
 20
85.7565069809
 11
89.5282964465
 21
101.4665069809
  0
LINE
  5
26B
100
AcDbEntity
  8
0
100
AcDbLine
 62
7
  6
CONTINUOUS
 10
85.3282964465
 20
53.0665069809
 11
85.7282964465
 21
53.4665069809
  0
LINE
  5
26C
100
AcDbEntity
  8
0
100
AcDbLine
 62
7
  6
CONTINUOUS
 10
85.8682964465
 20
85.7565069809
 11
85.2282964465
 21
89.6565069809
  0
LINE
  5
26D
100
AcDbEntity
  8
0
100
AcDbLine
 62
7
  6
CONTINUOUS
 10
38.5297764255
 20
113.4665069809
 11
87.8418064301
 21
113.4665069809
  0
LINE
  5
26E
100
AcDbEntity
  8
0
100
AcDbLine
 62
7
  6
CONTINUOUS
 10
87.8418064301
 20
113.4665069809
 11
89.5282964465
 21
101.4665069809
  0
LINE
  5
26F
100
AcDbEntity
  8
0
100
AcDbLine
 62
7
  6
CONTINUOUS
 10
87.8705974036
 20
114.4665069809
 11
83.2282964466
 21
114.4665069809
  0
LINE
  5
270
100
AcDbEntity
  8
0
100
AcDbLine
 62
7
  6
CONTINUOUS
 10
70.1282964466
 20
114.4665069809
 11
49.0282964466
 21
114.4665069809
  0
ARC
  5
271
100
AcDbEntity
  8
0
100
AcDbCircle
 62
7
  6
CONTINUOUS
 10
-124.4285356655
 20
105.174726328
 40
163.0078228375
100
AcDbArc
 50
0.0006258834
 51
1.4121932682
  0
ARC
  5
272
100
AcDbEntity
  8
0
100
AcDbCircle
 62
7
  6
CONTINUOUS
 10
-29.6469490923
 20
110.0501416593
 40
52.8
100
AcDbArc
 50
321.0599999998
 51
339.4100000002
  0
ARC
  5
273
100
AcDbEntity
  8
0
100
AcDbCircle
 62
7
  6
CONTINUOUS
 10
-30.570803742
 20
82.7565069809
 40
52.8
100
AcDbArc
 50
345.9729957275
 51
347.095505737
  0
ARC
  5
274
100
AcDbEntity
  8
0
100
AcDbCircle
 62
7
  6
CONTINUOUS
 10
30.8782964465
 20
92.3670722362
 40
23.69
100
AcDbArc
 50
227.6792861226
 51
251.7773697802
  0
ARC
  5
275
100
AcDbEntity
  8
0
100
AcDbCircle
 62
7
  6
CONTINUOUS
 10
30.8782964465
 20
92.3688733792
 40
15.0
100
AcDbArc
 50
216.3741651185
 51
240.1735904685
  0
ARC
  5
276
100
AcDbEntity
  8
0
100
AcDbCircle
 62
7
  6
CONTINUOUS
 10
86.8282964465
 20
74.746761392
 40
2.0
100
AcDbArc
 50
0.0
 51
54.9968995877
  0
ARC
  5
277
100
AcDbEntity
  8
0
100
AcDbCircle
 62
7
  6
CONTINUOUS
 10
86.8282964465
 20
65.189204316
 40
2.0
100
AcDbArc
 50
305.0000000005
 51
360.0
  0
ARC
  5
278
100
AcDbEntity
  8
0
100
AcDbCircle
 62
7
  6
CONTINUOUS
 10
12.1989361276
 20
76.2365069809
 40
1.0
100
AcDbArc
 50
141.0600000089
 51
245.0899999979
  0
ARC
  5
279
100
AcDbEntity
  8
0
100
AcDbCircle
 62
7
  6
CONTINUOUS
 10
85.0282964465
 20
79.669742666
 40
1.0
100
AcDbArc
 50
180.0
 51
234.9968995895
  0
ARC
  5
27A
100
AcDbEntity
  8
0
100
AcDbCircle
 62
7
  6
CONTINUOUS
 10
85.0282964465
 20
60.2665069809
 40
1.0
100
AcDbArc
 50
124.9999999997
 51
180.0
  0
ARC
  5
27B
100
AcDbEntity
  8
0
100
AcDbCircle
 62
7
  6
CONTINUOUS
 10
21.6249662016
 20
69.7165069809
 40
1.0
100
AcDbArc
 50
165.9729957272
 51
270.0
  0
ARC
  5
27C
100
AcDbEntity
  8
0
100
AcDbCircle
 62
7
  6
CONTINUOUS
 10
18.3982964465
 20
83.1765069809
 40
0.5
100
AcDbArc
 50
36.3741651163
 51
155.0900000015
  0
ARC
  5
27D
100
AcDbEntity
  8
0
100
AcDbCircle
 62
7
  6
CONTINUOUS
 10
20.2482964465
 20
91.3056898769
 40
0.5
100
AcDbArc
 50
88.9800000039
 51
159.4099999767
  0
SPLINE
  5
27E
100
AcDbEntity
  8
0
100
AcDbSpline
 62
7
  6
CONTINUOUS
 70
0
 71
3
 72
21
 73
17
 74
0
 42
0.0000001
 43
0.0000001
 44
0.0000000001
 40
0.0
 40
0.0
 40
0.0
 40
0.0
 40
0.001205164
 40
0.004816141
 40
0.0108256187
 40
0.0192184091
 40
0.0430682883
 40
0.0761351536
 40
0.1180995459
 40
0.1685566836
 40
0.2270199421
 40
0.2929258361
 40
0.4444600255
 40
0.6173384585
 40
0.8049183828
 40
1.0
 40
1.0
 40
1.0
 40
1.0
 10
38.5297764257
 20
101.1615069828
 30
0.0
 10
38.5299353654
 20
101.1631122071
 30
0.0
 10
38.5298045353
 20
101.1695744002
 30
0.0
 10
38.5304398262
 20
101.1840425119
 30
0.0
 10
38.5308718649
 20
101.2081552053
 30
0.0
 10
38.5322105438
 20
101.259333489
 30
0.0
 10
38.5342279828
 20
101.3467276508
 30
0.0
 10
38.5373298987
 20
101.4790392716
 30
0.0
 10
38.5410558767
 20
101.646960705
 30
0.0
 10
38.5453262115
 20
101.8488699077
 30
0.0
 10
38.5499534379
 20
102.0828237313
 30
0.0
 10
38.556693006
 20
102.452050177
 30
0.0
 10
38.5648266869
 20
102.9744170938
 30
0.0
 10
38.5727560613
 20
103.6596590325
 30
0.0
 10
38.5780544629
 20
104.403215273
 30
0.0
 10
38.5792871623
 20
104.9153964413
 30
0.0
 10
38.5792871623
 20
105.1765069809
 30
0.0
  0
SPLINE
  5
27F
100
AcDbEntity
  8
0
100
AcDbSpline
 62
7
  6
CONTINUOUS
 70
0
 71
3
 72
21
 73
17
 74
0
 42
0.0000001
 43
0.0000001
 44
0.0000000001
 40
0.0
 40
0.0
 40
0.0
 40
0.0
 40
0.0094850366
 40
0.01669846
 40
0.0259057291
 40
0.0506708053
 40
0.0841836138
 40
0.1042294053
 40
0.1263989886
 40
0.1768439396
 40
0.2349791445
 40
0.3002828114
 40
0.4502563989
 40
0.6213311393
 40
0.8070012595
 40
1.0
 40
1.0
 40
1.0
 40
1.0
 10
39.0904100973
 20
101.1619953783
 30
0.0
 10
39.1032638433
 20
101.1622415124
 30
0.0
 10
39.1234253805
 20
101.1787853193
 30
0.0
 10
39.1422468199
 20
101.2075431573
 30
0.0
 10
39.167295871
 20
101.257950411
 30
0.0
 10
39.1962797293
 20
101.3447628187
 30
0.0
 10
39.2220527119
 20
101.4478568894
 30
0.0
 10
39.2430390366
 20
101.5483301603
 30
0.0
 10
39.2660310741
 20
101.6718117925
 30
0.0
 10
39.2935975246
 20
101.8469049751
 30
0.0
 10
39.3242257964
 20
102.0806089906
 30
0.0
 10
39.3646580402
 20
102.4490050548
 30
0.0
 10
39.4074911755
 20
102.9710116139
 30
0.0
 10
39.4453645316
 20
103.6568397579
 30
0.0
 10
39.4691849173
 20
104.4016469463
 30
0.0
 10
39.4745863098
 20
104.9149147839
 30
0.0
 10
39.4745863098
 20
105.1765069809
 30
0.0
  0
SPLINE
  5
280
100
AcDbEntity
  8
0
100
AcDbSpline
 62
7
  6
CONTINUOUS
 70
0
 71
3
 72
15
 73
11
 74
0
 42
0.0000001
 43
0.0000001
 44
0.0000000001
 40
0.0
 40
0.0
 40
0.0
 40
0.0
 40
0.0048080411
 40
0.0192354549
 40
0.0431121679
 40
0.0761896078
 40
0.1685896052
 40
0.2929349629
 40
0.6173456952
 40
1.0
 40
1.0
 40
1.0
 40
1.0
 10
38.5297806393
 20
30.5614718076
 30
0.0
 10
38.5297422738
 20
30.555036467
 30
0.0
 10
38.5308486663
 20
30.6121173817
 30
0.0
 10
38.5317977095
 20
30.6396209124
 30
0.0
 10
38.5343327258
 20
30.7520833945
 30
0.0
 10
38.5388096575
 20
30.94185462
 30
0.0
 10
38.5461616539
 20
31.2833928939
 30
0.0
 10
38.5598363433
 20
32.0031550722
 30
0.0
 10
38.5748272667
 20
33.1188785829
 30
0.0
 10
38.5792871623
 20
34.0643327985
 30
0.0
 10
38.5792871623
 20
34.5765069809
 30
0.0
  0
SPLINE
  5
281
100
AcDbEntity
  8
0
100
AcDbSpline
 62
7
  6
CONTINUOUS
 70
0
 71
3
 72
21
 73
17
 74
0
 42
0.0000001
 43
0.0000001
 44
0.0000000001
 40
0.0
 40
0.0
 40
0.0
 40
0.0
 40
0.0094322984
 40
0.0166599658
 40
0.0259280781
 40
0.0508734754
 40
0.0844795422
 40
0.1044949794
 40
0.126599933
 40
0.1768972743
 40
0.2349814517
 40
0.3003256588
 40
0.4503705484
 40
0.621401002
 40
0.8070300733
 40
1.0
 40
1.0
 40
1.0
 40
1.0
 10
39.0904128745
 20
30.5614685494
 30
0.0
 10
39.1031995187
 20
30.5614577885
 30
0.0
 10
39.1235703689
 20
30.5778712143
 30
0.0
 10
39.1422779508
 20
30.6067248304
 30
0.0
 10
39.1673070663
 20
30.6575495036
 30
0.0
 10
39.1961640211
 20
30.7448853053
 30
0.0
 10
39.2219783656
 20
30.8483227652
 30
0.0
 10
39.2430175939
 20
30.9487991773
 30
0.0
 10
39.2660407759
 20
31.0719605298
 30
0.0
 10
39.2936645489
 20
31.2467126291
 30
0.0
 10
39.3242654012
 20
31.4802427896
 30
0.0
 10
39.3646200518
 20
31.8487893998
 30
0.0
 10
39.4074209016
 20
32.3709724935
 30
0.0
 10
39.4453553259
 20
33.0568871433
 30
0.0
 10
39.4691914877
 20
33.801657743
 30
0.0
 10
39.4745863098
 20
34.3149123436
 30
0.0
 10
39.4745863098
 20
34.5765069809
 30
0.0
  0
SPLINE
  5
282
100
AcDbEntity
  8
0
100
AcDbSpline
 62
7
  6
CONTINUOUS
 70
0
 71
3
 72
15
 73
11
 74
0
 42
0.0000001
 43
0.0000001
 44
0.0000000001
 40
0.0
 40
0.0
 40
0.0
 40
0.0
 40
0.3826705557
 40
0.7070978094
 40
0.8314473402
 40
0.9238298177
 40
0.9570031694
 40
0.9809888584
 40
0.9953945408
 40
1.0
 40
1.0
 40
1.0
 40
1.0
 10
38.5792871623
 20
34.5765069809
 30
0.0
 10
38.5792871623
 20
35.0886841917
 30
0.0
 10
38.5748265069
 20
36.0341385539
 30
0.0
 10
38.5598373542
 20
37.1498997558
 30
0.0
 10
38.5461624654
 20
37.8695970315
 30
0.0
 10
38.5388061091
 20
38.2113046367
 30
0.0
 10
38.5343181763
 20
38.4011984293
 30
0.0
 10
38.5318177964
 20
38.5141380826
 30
0.0
 10
38.5308289984
 20
38.5413266109
 30
0.0
 10
38.529779391
 20
38.5975593448
 30
0.0
 10
38.5297791612
 20
38.5913952665
 30
0.0
  0
SPLINE
  5
283
100
AcDbEntity
  8
0
100
AcDbSpline
 62
7
  6
CONTINUOUS
 70
0
 71
3
 72
21
 73
17
 74
0
 42
0.0000001
 43
0.0000001
 44
0.0000000001
 40
0.0
 40
0.0
 40
0.0
 40
0.0
 40
0.1930090535
 40
0.3786620199
 40
0.5497719784
 40
0.6998024171
 40
0.7650340302
 40
0.8230637031
 40
0.8734312452
 40
0.8955951686
 40
0.915668747
 40
0.9493367875
 40
0.9742425344
 40
0.9834663996
 40
0.9906431654
 40
1.0
 40
1.0
 40
1.0
 40
1.0
 10
39.4745863098
 20
34.5765069809
 30
0.0
 10
39.4745863098
 20
34.8381423736
 30
0.0
 10
39.4691866057
 20
35.3514584875
 30
0.0
 10
39.4453051073
 20
36.0963858543
 30
0.0
 10
39.407441725
 20
36.7823909879
 30
0.0
 10
39.3647381156
 20
37.3044955194
 30
0.0
 10
39.324246466
 20
37.6727628598
 30
0.0
 10
39.2935680449
 20
37.9061383743
 30
0.0
 10
39.2659737628
 20
38.0809880504
 30
0.0
 10
39.242985202
 20
38.2044078029
 30
0.0
 10
39.2219789747
 20
38.3051348799
 30
0.0
 10
39.1962129222
 20
38.4086879069
 30
0.0
 10
39.1673565541
 20
38.4960038378
 30
0.0
 10
39.1422754131
 20
38.5465912744
 30
0.0
 10
39.1236001899
 20
38.5752083737
 30
0.0
 10
39.1030920744
 20
38.5912191404
 30
0.0
 10
39.0904102856
 20
38.5909959488
 30
0.0
  0
SPLINE
  5
284
100
AcDbEntity
  8
0
100
AcDbSpline
 62
7
  6
CONTINUOUS
 70
0
 71
3
 72
21
 73
17
 74
0
 42
0.0000001
 43
0.0000001
 44
0.0000000001
 40
0.0
 40
0.0
 40
0.0
 40
0.0
 40
0.1929815829
 40
0.3786161997
 40
0.5496364237
 40
0.6996751887
 40
0.7650228479
 40
0.8231079054
 40
0.8734052428
 40
0.8955096169
 40
0.9155231683
 40
0.9491230358
 40
0.9740657591
 40
0.9833336862
 40
0.9905621387
 40
1.0
 40
1.0
 40
1.0
 40
1.0
 10
39.4745863098
 20
105.1765069809
 30
0.0
 10
39.4745863098
 20
105.4381162281
 30
0.0
 10
39.469186067
 20
105.9513917499
 30
0.0
 10
39.4453536343
 20
106.6961684727
 30
0.0
 10
39.4074184744
 20
107.3820653913
 30
0.0
 10
39.3646156929
 20
107.9042282166
 30
0.0
 10
39.3242713142
 20
108.2727717859
 30
0.0
 10
39.2936729511
 20
108.5063071482
 30
0.0
 10
39.2660486986
 20
108.6810587835
 30
0.0
 10
39.2430247243
 20
108.8042160199
 30
0.0
 10
39.2219851291
 20
108.9046798602
 30
0.0
 10
39.1961680458
 20
109.0081013509
 30
0.0
 10
39.1673071993
 20
109.0954221145
 30
0.0
 10
39.1422800739
 20
109.1462442105
 30
0.0
 10
39.1235625488
 20
109.1751017817
 30
0.0
 10
39.1032070088
 20
109.1915349572
 30
0.0
 10
39.0904128808
 20
109.1915446908
 30
0.0
  0
SPLINE
  5
285
100
AcDbEntity
  8
0
100
AcDbSpline
 62
7
  6
CONTINUOUS
 70
0
 71
3
 72
13
 73
9
 74
0
 42
0.0000001
 43
0.0000001
 44
0.0000000001
 40
0.0
 40
0.0
 40
0.0
 40
0.0
 40
0.0301709619
 40
0.0900026416
 40
0.1822880713
 40
0.3050752328
 40
0.6244733749
 40
1.0
 40
1.0
 40
1.0
 40
1.0
 10
23.5892741321
 20
55.9265069809
 30
0.0
 10
23.5908149959
 20
55.9265069809
 30
0.0
 10
23.5942563998
 20
55.92216975
 30
0.0
 10
23.5969362068
 20
55.9137592083
 30
0.0
 10
23.6001760325
 20
55.8998291597
 30
0.0
 10
23.6039804233
 20
55.8729123578
 30
0.0
 10
23.6071648925
 20
55.8311537893
 30
0.0
 10
23.6080029527
 20
55.7956855338
 30
0.0
 10
23.6080029527
 20
55.7765069809
 30
0.0
  0
SPLINE
  5
286
100
AcDbEntity
  8
0
100
AcDbSpline
 62
7
  6
CONTINUOUS
 70
0
 71
3
 72
13
 73
9
 74
0
 42
0.0000001
 43
0.0000001
 44
0.0000000001
 40
0.0
 40
0.0
 40
0.0
 40
0.0
 40
0.375544086
 40
0.6949479954
 40
0.817726448
 40
0.9100075852
 40
0.9698352314
 40
1.0
 40
1.0
 40
1.0
 40
1.0
 10
23.6080029527
 20
48.1265069809
 30
0.0
 10
23.6080029527
 20
48.1073276304
 30
0.0
 10
23.6071735854
 20
48.0718582891
 30
0.0
 10
23.6039868026
 20
48.0300987813
 30
0.0
 10
23.6001736599
 20
48.0031838649
 30
0.0
 10
23.5969319999
 20
47.9892550999
 30
0.0
 10
23.5942546537
 20
47.9808451824
 30
0.0
 10
23.590814672
 20
47.9765069809
 30
0.0
 10
23.5892741321
 20
47.9765069809
 30
0.0
  0
SPLINE
  5
287
100
AcDbEntity
  8
0
100
AcDbSpline
 62
7
  6
CONTINUOUS
 70
0
 71
3
 72
22
 73
18
 74
0
 42
0.0000001
 43
0.0000001
 44
0.0000000001
 40
0.0
 40
0.0
 40
0.0
 40
0.0
 40
0.1933318215
 40
0.3793093551
 40
0.5506220022
 40
0.7008297112
 40
0.7661864267
 40
0.8242184267
 40
0.8743942668
 40
0.9163202826
 40
0.9496683827
 40
0.9630810197
 40
0.9743245109
 40
0.9834357053
 40
0.9905142692
 40
0.9958230808
 40
1.0
 40
1.0
 40
1.0
 40
1.0
 10
38.806283246
 20
34.5765069809
 30
0.0
 10
38.806283246
 20
34.3151225772
 30
0.0
 10
38.809172086
 20
33.8022920457
 30
0.0
 10
38.82223544
 20
33.0579449131
 30
0.0
 10
38.8440810829
 20
32.3721324456
 30
0.0
 10
38.870430628
 20
31.849683609
 30
0.0
 10
38.8971833795
 20
31.480734046
 30
0.0
 10
38.9184383822
 20
31.247024562
 30
0.0
 10
38.9417103823
 20
31.0453498232
 30
0.0
 10
38.9668149704
 20
30.87758149
 30
0.0
 10
38.9903756848
 20
30.7599040965
 30
0.0
 10
39.0109813333
 20
30.6842005138
 30
0.0
 10
39.0256437891
 20
30.6409313825
 30
0.0
 10
39.0405860435
 20
30.6068937871
 30
0.0
 10
39.0559226653
 20
30.5820723397
 30
0.0
 10
39.0719302777
 20
30.5658743478
 30
0.0
 10
39.0847656865
 20
30.5614733019
 30
0.0
 10
39.0904128745
 20
30.5614685494
 30
0.0
  0
SPLINE
  5
288
100
AcDbEntity
  8
0
100
AcDbSpline
 62
7
  6
CONTINUOUS
 70
0
 71
3
 72
22
 73
18
 74
0
 42
0.0000001
 43
0.0000001
 44
0.0000000001
 40
0.0
 40
0.0
 40
0.0
 40
0.0
 40
0.1933495113
 40
0.3793985004
 40
0.5507383124
 40
0.7008793357
 40
0.7661881993
 40
0.8242217708
 40
0.874460903
 40
0.9164680552
 40
0.9498649384
 40
0.9632717169
 40
0.9744912576
 40
0.9835637526
 40
0.9905930188
 40
0.9958481949
 40
1.0
 40
1.0
 40
1.0
 40
1.0
 10
38.806283246
 20
105.1765069809
 30
0.0
 10
38.806283246
 20
104.9151073287
 30
0.0
 10
38.8091920427
 20
104.4021734089
 30
0.0
 10
38.8222342217
 20
103.6576935353
 30
0.0
 10
38.8440482217
 20
102.9718595335
 30
0.0
 10
38.8704161398
 20
102.4495466381
 30
0.0
 10
38.8972169083
 20
102.0807659027
 30
0.0
 10
38.9184896857
 20
101.8470431897
 30
0.0
 10
38.9417470802
 20
101.6451749469
 30
0.0
 10
38.9668305593
 20
101.4771461828
 30
0.0
 10
38.9903585318
 20
101.3592937233
 30
0.0
 10
39.0109814436
 20
101.2835701113
 30
0.0
 10
39.0256433291
 20
101.2403997623
 30
0.0
 10
39.040588424
 20
101.2065272757
 30
0.0
 10
39.0559037822
 20
101.1819204601
 30
0.0
 10
39.0719637658
 20
101.1659773894
 30
0.0
 10
39.0847980765
 20
101.1618879148
 30
0.0
 10
39.0904100973
 20
101.1619953783
 30
0.0
  0
SPLINE
  5
289
100
AcDbEntity
  8
0
100
AcDbSpline
 62
7
  6
CONTINUOUS
 70
0
 71
3
 72
22
 73
18
 74
0
 42
0.0000001
 43
0.0000001
 44
0.0000000001
 40
0.0
 40
0.0
 40
0.0
 40
0.0
 40
0.0041751381
 40
0.0094809885
 40
0.016558651
 40
0.0256700771
 40
0.0369146169
 40
0.0503291936
 40
0.0836837261
 40
0.1256124302
 40
0.1757884941
 40
0.2338198613
 40
0.2991735195
 40
0.4493869584
 40
0.6207086796
 40
0.8066798748
 40
1.0
 40
1.0
 40
1.0
 40
1.0
 10
39.0904128808
 20
109.1915446908
 30
0.0
 10
39.0847680716
 20
109.1915489853
 30
0.0
 10
39.0719304761
 20
109.1871697456
 30
0.0
 10
39.0559191618
 20
109.1709821597
 30
0.0
 10
39.0405873315
 20
109.1461636214
 30
0.0
 10
39.0256452541
 20
109.1121251767
 30
0.0
 10
39.0109833032
 20
109.0688509972
 30
0.0
 10
38.9903774481
 20
108.9931338429
 30
0.0
 10
38.9668219473
 20
108.8754395258
 30
0.0
 10
38.9417156474
 20
108.7076579528
 30
0.0
 10
38.9184429562
 20
108.5059790961
 30
0.0
 10
38.8971872631
 20
108.2722732124
 30
0.0
 10
38.8704274124
 20
107.9033194913
 30
0.0
 10
38.8440795192
 20
107.3808519024
 30
0.0
 10
38.822234098
 20
106.6950245184
 30
0.0
 10
38.8091696583
 20
105.950685691
 30
0.0
 10
38.806283246
 20
105.4378769082
 30
0.0
 10
38.806283246
 20
105.1765069809
 30
0.0
  0
SPLINE
  5
28A
100
AcDbEntity
  8
0
100
AcDbSpline
 62
7
  6
CONTINUOUS
 70
0
 71
3
 72
21
 73
17
 74
0
 42
0.0000001
 43
0.0000001
 44
0.0000000001
 40
0.0
 40
0.0
 40
0.0
 40
0.0
 40
0.0092940464
 40
0.0163505084
 40
0.0253950037
 40
0.0365491219
 40
0.0498764138
 40
0.0831752162
 40
0.1252620321
 40
0.175626393
 40
0.2336857949
 40
0.2989443789
 40
0.4491214972
 40
0.6205943286
 40
0.8066107329
 40
1.0
 40
1.0
 40
1.0
 40
1.0
 10
39.0904102856
 20
38.5909959488
 30
0.0
 10
39.0778515506
 20
38.5907749229
 30
0.0
 10
39.0581527875
 20
38.574335762
 30
0.0
 10
39.0408366819
 20
38.5455434766
 30
0.0
 10
39.0255721454
 20
38.5116528014
 30
0.0
 10
39.0109910037
 20
38.46880718
 30
0.0
 10
38.9902751865
 20
38.3934400079
 30
0.0
 10
38.966745
 20
38.2757831988
 30
0.0
 10
38.9417356398
 20
38.1076491619
 30
0.0
 10
38.9185204199
 20
37.9055383555
 30
0.0
 10
38.8972185332
 20
37.6717643843
 30
0.0
 10
38.8703518311
 20
37.3031039244
 30
0.0
 10
38.8440256701
 20
36.780811969
 30
0.0
 10
38.8222567892
 20
36.0950355957
 30
0.0
 10
38.8091591638
 20
35.3506304345
 30
0.0
 10
38.806283246
 20
34.8378679155
 30
0.0
 10
38.806283246
 20
34.5765069809
 30
0.0
  0
ENDSEC
  0
SECTION
  2
OBJECTS
  0
DICTIONARY
  5
C
100
AcDbDictionary
280
0
281
1
  3
ACAD_GROUP
350
D
  3
ACAD_MLINESTYLE
350
17
  3
ACAD_LAYOUT
350
1A
  3
ACAD_PLOTSETTINGS
350
19
  3
ACAD_PLOTSTYLENAME
350
E
  0
DICTIONARY
  5
D
102
{ACAD_REACTORS
330
C
102
}
100
AcDbDictionary
280
0
281
1
  0
ACDBDICTIONARYWDFLT
  5
E
102
{ACAD_REACTORS
330
C
102
}
100
AcDbDictionary
281
1
  3
Normal
350
F
100
AcDbDictionaryWithDefault
340
F
  0
DICTIONARY
  5
17
102
{ACAD_REACTORS
330
C
102
}
100
AcDbDictionary
280
0
281
1
  3
Standard
350
18
  0
DICTIONARY
  5
19
102
{ACAD_REACTORS
330
C
102
}
100
AcDbDictionary
281
1
  0
DICTIONARY
  5
1A
102
{ACAD_REACTORS
330
C
102
}
100
AcDbDictionary
281
1
  3
Model
350
28B
  3
Layout1
350
28C
  0
ACDBPLACEHOLDER
  5
F
102
{ACAD_REACTORS
330
E
102
}
  0
MLINESTYLE
  5
18
102
{ACAD_REACTORS
330
17
102
}
100
AcDbMlineStyle
  2
STANDARD
 70
0
  3

 62
256
 51
90.0
 52
90.0
 71
2
 49
0.5
 62
256
  6
BYLAYER
 49
-0.5
 62
256
  6
BYLAYER
  0
LAYOUT
  5
28B
102
{ACAD_REACTORS
330
1A
102
}
100
AcDbPlotSettings
  1

  2
none_device
  4

  6

 40
0.0
 41
0.0
 42
0.0
 43
0.0
 44
210.0
 45
297.0
 46
0.0
 47
0.0
 48
0.0
 49
0.0
140
0.0
141
0.0
142
1.0
143
1.0
 70
1024
 72
1
 73
0
 74
0
  7

 75
0
147
1.0
148
0.0
149
0.0
100
AcDbLayout
  1
Model
 70
0
 71
0
 10
0.0
 20
0.0
 11
210.0
 21
297.0
 12
0.0
 22
0.0
 32
0.0
 14
0.0
 24
0.0
 34
0.0
 15
0.0
 25
0.0
 35
0.0
146
0.0
 13
0.0
 23
0.0
 33
0.0
 16
1.0
 26
0.0
 36
0.0
 17
0.0
 27
1.0
 37
0.0
 76
0
330
212
345
0
346
0
  0
LAYOUT
  5
28C
102
{ACAD_REACTORS
330
1A
102
}
100
AcDbPlotSettings
  1

  2
none_device
  4

  6

 40
0.0
 41
0.0
 42
0.0
 43
0.0
 44
210.0
 45
297.0
 46
0.0
 47
0.0
 48
0.0
 49
0.0
140
0.0
141
0.0
142
1.0
143
1.0
 70
0
 72
1
 73
0
 74
0
  7

 75
0
147
1.0
148
0.0
149
0.0
100
AcDbLayout
  1
Layout1
 70
0
 71
1
 10
0.0
 20
0.0
 11
210.0
 21
297.0
 12
0.0
 22
0.0
 32
0.0
 14
0.0
 24
0.0
 34
0.0
 15
0.0
 25
0.0
 35
0.0
146
0.0
 13
0.0
 23
0.0
 33
0.0
 16
1.0
 26
0.0
 36
0.0
 17
0.0
 27
1.0
 37
0.0
 76
0
330
213
345
0
346
0
  0
ENDSEC
  0
EOF
