999
DXF file: C:\Users\sesa63760\OneDrive - Schneider Electric\Documents\7-Dev\_Creo\CAD\MCADUE0000005_3D-CAD\drw0001_1.dxf
999
Pro/ENGINEER 2019471 by Parametric Technology Corporation
  0
SECTION
  2
HEADER
  9
$ACADVER
  1
AC1024
  9
$DWGCODEPAGE
  3
ANSI_1252
  9
$EXTMAX
 10
1087.2288157298
 20
1537.6521822465
 30
0.0
  9
$EXTMIN
 10
0.0
 20
0.0
 30
0.0
  9
$LIMMIN
 10
0.0
 20
0.0
  9
$LIMMAX
 10
1087.2288157298
 20
1537.6521822465
  9
$VIEWCTR
 10
543.6144078649
 20
768.8260911232
  9
$VIEWSIZE
 40
1537.6521822465
  9
$CLAYER
  8
0
  9
$LTSCALE
 40
100.2321422501
  9
$CELTYPE
  6
BYLAYER
  9
$DIMSCALE
 40
1.0
  9
$DIMASZ
 40
12.9432001873
  9
$DIMEXO
 40
1.0
  9
$DIMDLI
 40
69.2512982819
  9
$DIMEXE
 40
1.0
  9
$DIMCEN
 40
16.4016232773
  9
$DIMLFAC
 40
1.0
  9
$DIMBLK
  1
_FILLED
  9
$DIMALT
 70
0
  9
$DIMALTF
 40
0.0393700787
  9
$DIMTXT
 40
18.1204802622
  9
$DIMTOL
 70
1
  9
$DIMLIM
 70
0
  9
$DIMTFAC
 40
1.0
  9
$DIMTP
 40
0.01
  9
$DIMTM
 40
0.01
  9
$DIMGAP
 40
0.625
  9
$DIMDSEP
 70
46
  9
$AUNITS
 70
0
  9
$PDMODE
 70
3
  9
$PDSIZE
 40
0.3125
  9
$HANDSEED
  5
38E
  9
$TILEMODE
 70
1
  9
$MEASUREMENT
 70
1
  9
$INSUNITS
 70
4
  0
ENDSEC
  0
SECTION
  2
CLASSES
  0
CLASS
  1
ACDBDICTIONARYWDFLT
  2
AcDbDictionaryWithDefault
  3
AutoCAD 2000
 90
0
 91
1
280
0
281
0
  0
CLASS
  1
ACDBPLACEHOLDER
  2
AcDbPlaceHolder
  3
AutoCAD 2000
 90
0
 91
1
280
0
281
0
  0
CLASS
  1
LAYOUT
  2
AcDbLayout
  3
AutoCAD 2000
 90
0
 91
0
280
0
281
0
  0
ENDSEC
  0
SECTION
  2
TABLES
  0
TABLE
  2
VPORT
  5
8
100
AcDbSymbolTable
 70
2
  0
VPORT
  5
1F4
100
AcDbSymbolTableRecord
100
AcDbViewportTableRecord
  2
*ACTIVE
 70
0
 10
0.0
 20
0.0
 11
1.0
 21
1.0
 12
543.6144078649
 22
768.8260911232
 13
0.0
 23
0.0
 14
1.0
 24
1.0
 15
0.0
 25
0.0
 16
0.0
 26
0.0
 36
1.0
 17
0.0
 27
0.0
 37
0.0
 40
1537.6521822465
 41
0.7070707071
 42
50.0
 43
0.0
 44
0.0
 50
0.0
 51
0.0
 71
0
 72
100
 73
1
 74
1
 75
0
 76
0
 77
0
 78
0
  0
ENDTAB
  0
TABLE
  2
LTYPE
  5
5
100
AcDbSymbolTable
 70
6
  0
LTYPE
  5
14
100
AcDbSymbolTableRecord
100
AcDbLinetypeTableRecord
  2
BYBLOCK
 70
0
  3

 72
65
 73
0
 40
0.0
  0
LTYPE
  5
15
100
AcDbSymbolTableRecord
100
AcDbLinetypeTableRecord
  2
BYLAYER
 70
0
  3

 72
65
 73
0
 40
0.0
  0
LTYPE
  5
16
100
AcDbSymbolTableRecord
100
AcDbLinetypeTableRecord
  2
CONTINUOUS
 70
64
  3
Solid line
 72
65
 73
0
 40
0.0
  0
LTYPE
  5
1F5
100
AcDbSymbolTableRecord
100
AcDbLinetypeTableRecord
  2
CENTER
 70
64
  3
____ _ ____ _ ____ _ ____ _ ____ _ ____ _ ____
 72
65
 73
4
 40
0.6
 49
0.375
 74
0
 49
-0.075
 74
0
 49
0.075
 74
0
 49
-0.075
 74
0
  0
LTYPE
  5
1F6
100
AcDbSymbolTableRecord
100
AcDbLinetypeTableRecord
  2
HIDDEN
 70
64
  3
- - - - - - - - - - - - - - - - - - - -
 72
65
 73
2
 40
0.2
 49
0.1
 74
0
 49
-0.1
 74
0
  0
LTYPE
  5
1F7
100
AcDbSymbolTableRecord
100
AcDbLinetypeTableRecord
  2
PHANTOM
 70
64
  3
_____ _ _ _____ _ _ _____ _ _ _____
 72
65
 73
6
 40
0.8
 49
0.45
 74
0
 49
-0.05
 74
0
 49
0.1
 74
0
 49
-0.05
 74
0
 49
0.1
 74
0
 49
-0.05
 74
0
  0
LTYPE
  5
1F8
100
AcDbSymbolTableRecord
100
AcDbLinetypeTableRecord
  2
DOT
 70
64
  3
. . . . . . . . . . . . . . . . . . . .
 72
65
 73
2
 40
0.2
 49
0.1
 74
0
 49
-0.1
 74
0
  0
LTYPE
  5
1F9
100
AcDbSymbolTableRecord
100
AcDbLinetypeTableRecord
  2
DASHED
 70
64
  3
- - - - - - - - - - - - - - - - - - - -
 72
65
 73
2
 40
0.2
 49
0.1
 74
0
 49
-0.1
 74
0
  0
ENDTAB
  0
TABLE
  2
LAYER
  5
2
100
AcDbSymbolTable
 70
36
  0
LAYER
  5
10
100
AcDbSymbolTableRecord
100
AcDbLayerTableRecord
  2
0
 70
0
 62
7
  6
CONTINUOUS
370
-3
390
F
  0
LAYER
  5
1FA
100
AcDbSymbolTableRecord
100
AcDbLayerTableRecord
  2
DEFAULT_1
 70
0
 62
7
  6
CENTER
370
-3
390
F
  0
LAYER
  5
1FB
100
AcDbSymbolTableRecord
100
AcDbLayerTableRecord
  2
DEFAULT_2
 70
0
 62
8
  6
HIDDEN
370
-3
390
F
  0
LAYER
  5
1FC
100
AcDbSymbolTableRecord
100
AcDbLayerTableRecord
  2
DEFAULT_3
 70
0
 62
7
  6
PHANTOM
370
-3
390
F
  0
LAYER
  5
1FD
100
AcDbSymbolTableRecord
100
AcDbLayerTableRecord
  2
00_COMPONENTS
 70
0
 62
7
  6
CONTINUOUS
370
-3
390
F
  0
LAYER
  5
1FE
100
AcDbSymbolTableRecord
100
AcDbLayerTableRecord
  2
01_1_DEFAULT_DATUMS
 70
0
 62
7
  6
CONTINUOUS
370
-3
390
F
  0
LAYER
  5
1FF
100
AcDbSymbolTableRecord
100
AcDbLayerTableRecord
  2
01_PLANES
 70
0
 62
7
  6
CONTINUOUS
370
-3
390
F
  0
LAYER
  5
200
100
AcDbSymbolTableRecord
100
AcDbLayerTableRecord
  2
02_COORD_SYS
 70
0
 62
7
  6
CONTINUOUS
370
-3
390
F
  0
LAYER
  5
201
100
AcDbSymbolTableRecord
100
AcDbLayerTableRecord
  2
03_AXES
 70
0
 62
7
  6
CONTINUOUS
370
-3
390
F
  0
LAYER
  5
202
100
AcDbSymbolTableRecord
100
AcDbLayerTableRecord
  2
04_POINTS
 70
0
 62
7
  6
CONTINUOUS
370
-3
390
F
  0
LAYER
  5
203
100
AcDbSymbolTableRecord
100
AcDbLayerTableRecord
  2
05_CURVES
 70
0
 62
7
  6
CONTINUOUS
370
-3
390
F
  0
LAYER
  5
204
100
AcDbSymbolTableRecord
100
AcDbLayerTableRecord
  2
06_SURFS
 70
0
 62
7
  6
CONTINUOUS
370
-3
390
F
  0
LAYER
  5
205
100
AcDbSymbolTableRecord
100
AcDbLayerTableRecord
  2
07_COSMETICS
 70
0
 62
7
  6
CONTINUOUS
370
-3
390
F
  0
LAYER
  5
206
100
AcDbSymbolTableRecord
100
AcDbLayerTableRecord
  2
10_NOTES
 70
0
 62
7
  6
CONTINUOUS
370
-3
390
F
  0
LAYER
  5
207
100
AcDbSymbolTableRecord
100
AcDbLayerTableRecord
  2
11_NOTES_PUB
 70
0
 62
7
  6
CONTINUOUS
370
-3
390
F
  0
LAYER
  5
208
100
AcDbSymbolTableRecord
100
AcDbLayerTableRecord
  2
13_REF_GTOL
 70
0
 62
7
  6
CONTINUOUS
370
-3
390
F
  0
LAYER
  5
209
100
AcDbSymbolTableRecord
100
AcDbLayerTableRecord
  2
16_MISC
 70
0
 62
7
  6
CONTINUOUS
370
-3
390
F
  0
LAYER
  5
20A
100
AcDbSymbolTableRecord
100
AcDbLayerTableRecord
  2
17_NO_PRINT
 70
0
 62
7
  6
CONTINUOUS
370
-3
390
F
  0
LAYER
  5
20B
100
AcDbSymbolTableRecord
100
AcDbLayerTableRecord
  2
18_DATUM_CAMS_JOINTS
 70
0
 62
7
  6
CONTINUOUS
370
-3
390
F
  0
LAYER
  5
20C
100
AcDbSymbolTableRecord
100
AcDbLayerTableRecord
  2
19_DATUM_FUNCTIONAL
 70
0
 62
7
  6
CONTINUOUS
370
-3
390
F
  0
LAYER
  5
20D
100
AcDbSymbolTableRecord
100
AcDbLayerTableRecord
  2
20_DATUM_KINEMATIC_SCHEME
 70
0
 62
7
  6
CONTINUOUS
370
-3
390
F
  0
ENDTAB
  0
TABLE
  2
STYLE
  5
3
100
AcDbSymbolTable
 70
1
  0
STYLE
  5
11
100
AcDbSymbolTableRecord
100
AcDbTextStyleTableRecord
  2
STANDARD
 70
0
 40
0.0
 41
0.8
 50
0.0
 71
0
 42
0.2
  3
txt
  4

  0
STYLE
  5
20E
100
AcDbSymbolTableRecord
100
AcDbTextStyleTableRecord
  2
TEXTSTYLE_1
 70
0
 40
0.0
 41
0.8
 50
0.0
 71
0
 42
0.2
  3
gdt
  4

  0
ENDTAB
  0
TABLE
  2
VIEW
  5
6
100
AcDbSymbolTable
 70
0
  0
ENDTAB
  0
TABLE
  2
UCS
  5
7
100
AcDbSymbolTable
 70
0
  0
ENDTAB
  0
TABLE
  2
APPID
  5
9
100
AcDbSymbolTable
 70
1
  0
APPID
  5
20F
100
AcDbSymbolTableRecord
100
AcDbRegAppTableRecord
  2
ACAD
 70
0
  0
ENDTAB
  0
TABLE
  2
BLOCK_RECORD
  5
1
100
AcDbSymbolTable
 70
0
  0
BLOCK_RECORD
  5
210
100
AcDbSymbolTableRecord
100
AcDbBlockTableRecord
  2
*Model_Space
  0
BLOCK_RECORD
  5
211
100
AcDbSymbolTableRecord
100
AcDbBlockTableRecord
  2
*Paper_Space
  0
BLOCK_RECORD
  5
212
100
AcDbSymbolTableRecord
100
AcDbBlockTableRecord
  2
_FILLED
  0
ENDTAB
  0
TABLE
  2
DIMSTYLE
  5
A
100
AcDbSymbolTable
 70
1
100
AcDbDimStyleTable
 71
0
  0
DIMSTYLE
105
213
100
AcDbSymbolTableRecord
100
AcDbDimStyleTableRecord
  2
STANDARD
 70
0
  3

  4

 40
1.0
 41
12.9432001873
 42
1.0
 43
0.38
 44
1.0
 45
0.0
 46
0.0
 47
0.01
 48
0.01
140
18.1204802622
141
0.09
142
0.0
143
25.4
144
1.0
145
0.0
146
1.0
147
0.625
 71
1
 72
0
 73
0
 74
0
 75
0
 76
0
 77
1
 78
8
 79
2
170
0
171
1
172
0
173
0
174
0
175
0
176
0
177
0
178
0
270
2
179
2
271
2
272
2
273
2
274
2
275
0
280
0
281
0
282
0
283
1
284
8
285
0
286
0
287
3
288
0
340
11
278
46
341
212
342
212
343
212
344
212
  0
ENDTAB
  0
ENDSEC
  0
SECTION
  2
BLOCKS
  0
BLOCK
  5
20
100
AcDbEntity
  8
0
100
AcDbBlockBegin
  2
*Model_Space
 70
0
 10
0.0
 20
0.0
 30
0.0
  3
*Model_Space
  1

  0
ENDBLK
  5
21
100
AcDbEntity
  8
0
100
AcDbBlockEnd
  0
BLOCK
  5
1C
100
AcDbEntity
  8
0
100
AcDbBlockBegin
  2
*Paper_Space
 70
0
 10
0.0
 20
0.0
 30
0.0
  3
*Paper_Space
  1

  0
ENDBLK
  5
1D
100
AcDbEntity
  8
0
100
AcDbBlockEnd
  0
BLOCK
  5
214
100
AcDbEntity
  8
0
100
AcDbBlockBegin
  2
_FILLED
 70
64
 10
0.0
 20
0.0
  3
_FILLED
  1

  0
SOLID
  5
215
100
AcDbEntity
  8
0
  6
BYBLOCK
 62
0
100
AcDbTrace
 10
0.0
 20
0.0
 11
-1.0
 21
0.25
 12
-1.0
 22
-0.25
 13
-1.0
 23
-0.25
  0
ENDBLK
  5
216
100
AcDbEntity
  8
0
  6
BYBLOCK
 62
0
100
AcDbBlockEnd
  0
ENDSEC
  0
SECTION
  2
ENTITIES
  0
LINE
  5
217
100
AcDbEntity
  8
0
100
AcDbLine
 62
7
  6
CONTINUOUS
 10
707.5104652713
 20
156.0698631495
 11
714.3176777853
 21
157.0530752701
  0
LINE
  5
218
100
AcDbEntity
  8
0
100
AcDbLine
 62
7
  6
CONTINUOUS
 10
451.6329099215
 20
1379.4639581382
 11
448.9610939496
 21
1377.9213936755
  0
LINE
  5
219
100
AcDbEntity
  8
0
100
AcDbLine
 62
7
  6
CONTINUOUS
 10
664.9597854698
 20
178.4196153397
 11
670.5439346134
 21
178.3777770189
  0
LINE
  5
21A
100
AcDbEntity
  8
0
100
AcDbLine
 62
7
  6
CONTINUOUS
 10
459.1940464081
 20
1372.0135294727
 11
458.2041009833
 21
1371.4419876269
  0
LINE
  5
21B
100
AcDbEntity
  8
0
100
AcDbLine
 62
7
  6
CONTINUOUS
 10
664.7592857123
 20
177.926215279
 11
671.0416946323
 21
177.0522239673
  0
LINE
  5
21C
100
AcDbEntity
  8
0
100
AcDbLine
 62
7
  6
CONTINUOUS
 10
670.5439346134
 20
178.3777770189
 11
671.1733032462
 21
178.2901375994
  0
LINE
  5
21D
100
AcDbEntity
  8
0
100
AcDbLine
 62
7
  6
CONTINUOUS
 10
452.002481444
 20
1379.8271335495
 11
451.6329099215
 21
1379.4639581382
  0
LINE
  5
21E
100
AcDbEntity
  8
0
100
AcDbLine
 62
7
  6
CONTINUOUS
 10
451.0523131164
 20
1380.4698699637
 11
448.8412217829
 21
1378.4295590567
  0
LINE
  5
21F
100
AcDbEntity
  8
0
100
AcDbLine
 62
7
  6
CONTINUOUS
 10
388.3833846192
 20
267.9797503926
 11
646.2821670139
 21
119.0851873984
  0
LINE
  5
220
100
AcDbEntity
  8
0
100
AcDbLine
 62
7
  6
CONTINUOUS
 10
644.1440216022
 20
121.3071417023
 11
389.2613776305
 21
268.4603757601
  0
LINE
  5
221
100
AcDbEntity
  8
0
100
AcDbLine
 62
7
  6
CONTINUOUS
 10
451.0523131164
 20
1416.7732328414
 11
455.3113859484
 21
1422.1791054066
  0
LINE
  5
222
100
AcDbEntity
  8
0
100
AcDbLine
 62
7
  6
CONTINUOUS
 10
699.1310661864
 20
162.2040927263
 11
699.67953591
 21
161.8910185533
  0
LINE
  5
223
100
AcDbEntity
  8
0
100
AcDbLine
 62
7
  6
CONTINUOUS
 10
655.6544354151
 20
183.1827841296
 11
664.7592857123
 21
177.926215279
  0
LINE
  5
224
100
AcDbEntity
  8
0
100
AcDbLine
 62
7
  6
CONTINUOUS
 10
655.6544354151
 20
183.7919401605
 11
664.9597854698
 21
178.4196153397
  0
LINE
  5
225
100
AcDbEntity
  8
0
100
AcDbLine
 62
7
  6
CONTINUOUS
 10
671.0416946323
 20
177.0522239673
 11
699.0902892803
 21
160.8587266428
  0
LINE
  5
226
100
AcDbEntity
  8
0
100
AcDbLine
 62
7
  6
CONTINUOUS
 10
699.1718430926
 20
160.8840599931
 11
707.5104652713
 21
156.0698631453
  0
LINE
  5
227
100
AcDbEntity
  8
0
100
AcDbLine
 62
7
  6
CONTINUOUS
 10
670.5439346134
 20
178.3777770189
 11
655.6544354151
 21
186.9740389157
  0
LINE
  5
228
100
AcDbEntity
  8
0
100
AcDbLine
 62
7
  6
CONTINUOUS
 10
671.0824715385
 20
178.3975900508
 11
699.6771137625
 21
161.8896134239
  0
LINE
  5
229
100
AcDbEntity
  8
0
100
AcDbLine
 62
7
  6
CONTINUOUS
 10
655.790629087
 20
189.3830306123
 11
657.2048485373
 21
188.5665491032
  0
LINE
  5
22A
100
AcDbEntity
  8
0
100
AcDbLine
 62
7
  6
CONTINUOUS
 10
657.2048485373
 20
190.9473909296
 11
655.790629087
 21
191.7638724386
  0
LINE
  5
22B
100
AcDbEntity
  8
0
100
AcDbLine
 62
7
  6
CONTINUOUS
 10
655.6544354151
 20
195.5166689037
 11
706.3394705634
 21
166.25431222
  0
LINE
  5
22C
100
AcDbEntity
  8
0
100
AcDbLine
 62
7
  6
CONTINUOUS
 10
655.9378104474
 20
187.1882508448
 11
671.0824715385
 21
178.3975900508
  0
LINE
  5
22D
100
AcDbEntity
  8
0
100
AcDbLine
 62
7
  6
CONTINUOUS
 10
691.8734312841
 20
196.502178475
 11
700.8839444269
 21
191.3000740346
  0
LINE
  5
22E
100
AcDbEntity
  8
0
100
AcDbLine
 62
7
  6
CONTINUOUS
 10
714.3176777853
 20
1272.6451360031
 11
707.5104652713
 21
1268.7103992878
  0
LINE
  5
22F
100
AcDbEntity
  8
0
100
AcDbLine
 62
7
  6
CONTINUOUS
 10
653.0634698376
 20
1237.2755994578
 11
648.8043970056
 21
1234.8212514874
  0
LINE
  5
230
100
AcDbEntity
  8
0
100
AcDbLine
 62
7
  6
CONTINUOUS
 10
703.9462425638
 20
1231.1195296017
 11
707.5104652713
 21
1232.40703641
  0
LINE
  5
231
100
AcDbEntity
  8
0
100
AcDbLine
 62
7
  6
CONTINUOUS
 10
706.0257119737
 20
1232.8909363571
 11
706.323263439
 21
1232.9982833166
  0
LINE
  5
232
100
AcDbEntity
  8
0
100
AcDbLine
 62
7
  6
CONTINUOUS
 10
691.8734312841
 20
1236.5359888578
 11
692.8633767089
 21
1237.1075307037
  0
LINE
  5
233
100
AcDbEntity
  8
0
100
AcDbLine
 62
7
  6
CONTINUOUS
 10
653.0634698376
 20
1202.3133541265
 11
655.1546890044
 21
1203.5207128684
  0
LINE
  5
234
100
AcDbEntity
  8
0
100
AcDbLine
 62
7
  6
CONTINUOUS
 10
703.0963291675
 20
1231.1996665009
 11
706.0257119737
 21
1232.8909363571
  0
LINE
  5
235
100
AcDbEntity
  8
0
100
AcDbLine
 62
7
  6
CONTINUOUS
 10
388.3832562787
 20
267.9794904587
 11
388.3833204679
 21
267.9793119088
  0
LINE
  5
236
100
AcDbEntity
  8
0
100
AcDbLine
 62
7
  6
CONTINUOUS
 10
653.0634698376
 20
1200.9722365801
 11
655.2745611711
 21
1203.0125474871
  0
LINE
  5
237
100
AcDbEntity
  8
0
100
AcDbLine
 62
7
  6
CONTINUOUS
 10
388.3832562787
 20
267.9794904587
 11
388.3832562787
 21
1382.2035442189
  0
LINE
  5
238
100
AcDbEntity
  8
0
100
AcDbLine
 62
7
  6
CONTINUOUS
 10
389.2613776305
 20
268.4603757601
 11
389.2613776305
 21
1379.2767390714
  0
LINE
  5
239
100
AcDbEntity
  8
0
100
AcDbLine
 62
7
  6
CONTINUOUS
 10
397.792519515
 20
1323.4041405431
 11
397.792519515
 21
1315.4265878625
  0
LINE
  5
23A
100
AcDbEntity
  8
0
100
AcDbLine
 62
7
  6
CONTINUOUS
 10
397.792519515
 20
1037.6282945477
 11
397.792519515
 21
1029.6507418671
  0
LINE
  5
23B
100
AcDbEntity
  8
0
100
AcDbLine
 62
7
  6
CONTINUOUS
 10
397.792519515
 20
608.9645255547
 11
397.792519515
 21
600.9869728741
  0
LINE
  5
23C
100
AcDbEntity
  8
0
100
AcDbLine
 62
7
  6
CONTINUOUS
 10
397.792519515
 20
323.1886795593
 11
397.792519515
 21
315.2111268788
  0
LINE
  5
23D
100
AcDbEntity
  8
0
100
AcDbLine
 62
7
  6
CONTINUOUS
 10
398.0900709803
 20
1323.0920901488
 11
398.0900709803
 21
1315.3963315197
  0
LINE
  5
23E
100
AcDbEntity
  8
0
100
AcDbLine
 62
7
  6
CONTINUOUS
 10
398.0900709803
 20
1037.3162441535
 11
398.0900709803
 21
1029.6204855244
  0
LINE
  5
23F
100
AcDbEntity
  8
0
100
AcDbLine
 62
7
  6
CONTINUOUS
 10
398.0900709803
 20
608.6524751605
 11
398.0900709803
 21
600.9567165313
  0
LINE
  5
240
100
AcDbEntity
  8
0
100
AcDbLine
 62
7
  6
CONTINUOUS
 10
398.0900709803
 20
322.8766291651
 11
398.0900709803
 21
315.180870536
  0
LINE
  5
241
100
AcDbEntity
  8
0
100
AcDbLine
 62
7
  6
CONTINUOUS
 10
448.4613475389
 20
1352.0252655487
 11
448.4613475389
 21
1354.2200453161
  0
LINE
  5
242
100
AcDbEntity
  8
0
100
AcDbLine
 62
7
  6
CONTINUOUS
 10
448.4613475389
 20
1358.2255120314
 11
448.4613475389
 21
1377.6647025127
  0
LINE
  5
243
100
AcDbEntity
  8
0
100
AcDbLine
 62
7
  6
CONTINUOUS
 10
449.1935879459
 20
1351.7483721379
 11
449.1935879459
 21
1354.2200453161
  0
LINE
  5
244
100
AcDbEntity
  8
0
100
AcDbLine
 62
7
  6
CONTINUOUS
 10
449.1935879459
 20
1357.8027623992
 11
449.1935879459
 21
1376.6440921281
  0
LINE
  5
245
100
AcDbEntity
  8
0
100
AcDbLine
 62
7
  6
CONTINUOUS
 10
451.0523131164
 20
1380.4698699637
 11
451.0523131164
 21
1416.7732328414
  0
LINE
  5
246
100
AcDbEntity
  8
0
100
AcDbLine
 62
7
  6
CONTINUOUS
 10
451.6329099215
 20
1356.3944510602
 11
451.6329099215
 21
1358.6520551979
  0
LINE
  5
247
100
AcDbEntity
  8
0
100
AcDbLine
 62
7
  6
CONTINUOUS
 10
451.6329099215
 20
1376.3788549018
 11
451.6329099215
 21
1379.4639581382
  0
LINE
  5
248
100
AcDbEntity
  8
0
100
AcDbLine
 62
7
  6
CONTINUOUS
 10
452.002481444
 20
1379.8271335495
 11
452.002481444
 21
1376.1654875108
  0
LINE
  5
249
100
AcDbEntity
  8
0
100
AcDbLine
 62
7
  6
CONTINUOUS
 10
452.002481444
 20
1358.6520551979
 11
452.002481444
 21
1356.1810836692
  0
LINE
  5
24A
100
AcDbEntity
  8
0
100
AcDbLine
 62
7
  6
CONTINUOUS
 10
452.002481444
 20
1353.9543547617
 11
452.002481444
 21
1353.7268584624
  0
LINE
  5
24B
100
AcDbEntity
  8
0
100
AcDbLine
 62
7
  6
CONTINUOUS
 10
452.1729946789
 20
1358.8034982408
 11
452.1729946789
 21
1356.0826400343
  0
LINE
  5
24C
100
AcDbEntity
  8
0
100
AcDbLine
 62
7
  6
CONTINUOUS
 10
452.1729946789
 20
1353.8857323479
 11
452.1729946789
 21
1353.5127297736
  0
LINE
  5
24D
100
AcDbEntity
  8
0
100
AcDbLine
 62
7
  6
CONTINUOUS
 10
452.5677651144
 20
1353.7268584624
 11
452.5677651144
 21
1354.59894876
  0
LINE
  5
24E
100
AcDbEntity
  8
0
100
AcDbLine
 62
7
  6
CONTINUOUS
 10
453.9819845647
 20
1353.782467251
 11
453.9819845647
 21
1352.9103769533
  0
LINE
  5
24F
100
AcDbEntity
  8
0
100
AcDbLine
 62
7
  6
CONTINUOUS
 10
458.2041009833
 20
1371.4419876269
 11
458.2041009833
 21
1352.6006579588
  0
LINE
  5
250
100
AcDbEntity
  8
0
100
AcDbLine
 62
7
  6
CONTINUOUS
 10
459.1940464081
 20
1372.0135294727
 11
459.1940464081
 21
1352.0291256312
  0
LINE
  5
251
100
AcDbEntity
  8
0
100
AcDbLine
 62
7
  6
CONTINUOUS
 10
459.284809973
 20
1410.5919184301
 11
459.284809973
 21
1372.0135294727
  0
LINE
  5
252
100
AcDbEntity
  8
0
100
AcDbLine
 62
7
  6
CONTINUOUS
 10
459.3909352953
 20
1410.6154608473
 11
459.3909352953
 21
1411.9590359977
  0
LINE
  5
253
100
AcDbEntity
  8
0
100
AcDbLine
 62
7
  6
CONTINUOUS
 10
452.213771585
 20
1414.7591045057
 11
452.1738021997
 21
1380.4685627452
  0
LINE
  5
254
100
AcDbEntity
  8
0
100
AcDbLine
 62
7
  6
CONTINUOUS
 10
452.1738021997
 20
1380.4685627452
 11
452.1729946789
 21
1376.0670438758
  0
LINE
  5
255
100
AcDbEntity
  8
0
100
AcDbLine
 62
7
  6
CONTINUOUS
 10
487.4395570974
 20
1391.2426827248
 11
487.3579761308
 21
1395.6967023547
  0
LINE
  5
256
100
AcDbEntity
  8
0
100
AcDbLine
 62
7
  6
CONTINUOUS
 10
487.3579761308
 20
1395.6967023547
 11
487.3579761308
 21
1394.4404622571
  0
LINE
  5
257
100
AcDbEntity
  8
0
100
AcDbLine
 62
7
  6
CONTINUOUS
 10
509.1360720915
 20
1386.3863907721
 11
509.1360720915
 21
1388.7672325984
  0
LINE
  5
258
100
AcDbEntity
  8
0
100
AcDbLine
 62
7
  6
CONTINUOUS
 10
510.5502915418
 20
1387.9507510894
 11
510.5502915418
 21
1385.569909263
  0
LINE
  5
259
100
AcDbEntity
  8
0
100
AcDbLine
 62
7
  6
CONTINUOUS
 10
487.436953484
 20
1390.8635373742
 11
487.4395570974
 21
1391.2426827248
  0
LINE
  5
25A
100
AcDbEntity
  8
0
100
AcDbLine
 62
7
  6
CONTINUOUS
 10
599.2223221099
 20
1269.0577259748
 11
599.2223221099
 21
1269.9298162725
  0
LINE
  5
25B
100
AcDbEntity
  8
0
100
AcDbLine
 62
7
  6
CONTINUOUS
 10
600.6365415602
 20
1269.1133347635
 11
600.6365415602
 21
1268.2412444658
  0
LINE
  5
25C
100
AcDbEntity
  8
0
100
AcDbLine
 62
7
  6
CONTINUOUS
 10
616.6762258566
 20
1261.1088038265
 11
616.7578068232
 21
1258.3086269848
  0
LINE
  5
25D
100
AcDbEntity
  8
0
100
AcDbLine
 62
7
  6
CONTINUOUS
 10
644.1440216022
 20
1232.1235050136
 11
644.1440216022
 21
121.3071417023
  0
LINE
  5
25E
100
AcDbEntity
  8
0
100
AcDbLine
 62
7
  6
CONTINUOUS
 10
648.8043970056
 20
119.2291907544
 11
648.8043970056
 21
1234.8212514874
  0
LINE
  5
25F
100
AcDbEntity
  8
0
100
AcDbLine
 62
7
  6
CONTINUOUS
 10
653.0634698376
 20
124.6350633195
 11
653.0634698376
 21
160.9384261973
  0
LINE
  5
260
100
AcDbEntity
  8
0
100
AcDbLine
 62
7
  6
CONTINUOUS
 10
653.0634698376
 20
1200.9722365801
 11
653.0634698376
 21
1237.2755994578
  0
LINE
  5
261
100
AcDbEntity
  8
0
100
AcDbLine
 62
7
  6
CONTINUOUS
 10
655.2745611711
 20
1203.0125474871
 11
655.2745611711
 21
162.9787371042
  0
LINE
  5
262
100
AcDbEntity
  8
0
100
AcDbLine
 62
7
  6
CONTINUOUS
 10
655.6544354151
 20
163.7435936482
 11
655.6544354151
 21
1203.7774040311
  0
LINE
  5
263
100
AcDbEntity
  8
0
100
AcDbLine
 62
7
  6
CONTINUOUS
 10
655.790629087
 20
189.3830306123
 11
655.790629087
 21
191.7638724386
  0
LINE
  5
264
100
AcDbEntity
  8
0
100
AcDbLine
 62
7
  6
CONTINUOUS
 10
655.790629087
 20
1301.7172582846
 11
655.790629087
 21
1304.0981001109
  0
LINE
  5
265
100
AcDbEntity
  8
0
100
AcDbLine
 62
7
  6
CONTINUOUS
 10
657.2048485373
 20
1303.2816186019
 11
657.2048485373
 21
1300.9007767755
  0
LINE
  5
266
100
AcDbEntity
  8
0
100
AcDbLine
 62
7
  6
CONTINUOUS
 10
657.2048485373
 20
190.9473909296
 11
657.2048485373
 21
188.5665491032
  0
LINE
  5
267
100
AcDbEntity
  8
0
100
AcDbLine
 62
7
  6
CONTINUOUS
 10
671.0416946323
 20
1289.6492571459
 11
671.0416946323
 21
1288.3274334796
  0
LINE
  5
268
100
AcDbEntity
  8
0
100
AcDbLine
 62
7
  6
CONTINUOUS
 10
671.0416946323
 20
178.3740476336
 11
671.0416946323
 21
177.0522239673
  0
LINE
  5
269
100
AcDbEntity
  8
0
100
AcDbLine
 62
7
  6
CONTINUOUS
 10
691.8734312841
 20
1236.5359888578
 11
691.8734312841
 21
196.502178475
  0
LINE
  5
26A
100
AcDbEntity
  8
0
100
AcDbLine
 62
7
  6
CONTINUOUS
 10
706.3490068028
 20
158.0839914851
 11
706.3094914315
 21
191.9393973575
  0
LINE
  5
26B
100
AcDbEntity
  8
0
100
AcDbLine
 62
7
  6
CONTINUOUS
 10
699.1718430926
 20
1273.5245961398
 11
699.1718430926
 21
1272.1810209895
  0
LINE
  5
26C
100
AcDbEntity
  8
0
100
AcDbLine
 62
7
  6
CONTINUOUS
 10
699.1718430926
 20
162.2276351435
 11
699.1718430926
 21
160.8840599931
  0
LINE
  5
26D
100
AcDbEntity
  8
0
100
AcDbLine
 62
7
  6
CONTINUOUS
 10
700.8839444269
 20
1231.3338844175
 11
700.8839444269
 21
191.3000740346
  0
LINE
  5
26E
100
AcDbEntity
  8
0
100
AcDbLine
 62
7
  6
CONTINUOUS
 10
703.9765110074
 20
191.0966531111
 11
703.9765110074
 21
1231.130463494
  0
LINE
  5
26F
100
AcDbEntity
  8
0
100
AcDbLine
 62
7
  6
CONTINUOUS
 10
707.5104652713
 20
192.3732260272
 11
707.5104652713
 21
156.0698631495
  0
LINE
  5
270
100
AcDbEntity
  8
0
100
AcDbLine
 62
7
  6
CONTINUOUS
 10
707.5104652713
 20
1232.40703641
 11
707.5104652713
 21
1268.710399292
  0
LINE
  5
271
100
AcDbEntity
  8
0
100
AcDbLine
 62
7
  6
CONTINUOUS
 10
714.3176777853
 20
1272.6451360031
 11
714.3176777853
 21
157.0530752701
  0
LINE
  5
272
100
AcDbEntity
  8
0
100
AcDbLine
 62
7
  6
CONTINUOUS
 10
715.7325266753
 20
159.2055103724
 11
715.7325266753
 21
1273.4295641327
  0
LINE
  5
273
100
AcDbEntity
  8
0
100
AcDbLine
 62
7
  6
CONTINUOUS
 10
706.3082298967
 20
1233.0540471823
 11
706.3490068028
 21
1268.0373773311
  0
LINE
  5
274
100
AcDbEntity
  8
0
100
AcDbLine
 62
7
  6
CONTINUOUS
 10
664.7592857123
 20
1288.8694056693
 11
664.9597854698
 21
1288.3730011856
  0
LINE
  5
275
100
AcDbEntity
  8
0
100
AcDbLine
 62
7
  6
CONTINUOUS
 10
664.9597854698
 20
178.4196153397
 11
664.7592857123
 21
177.926215279
  0
LINE
  5
276
100
AcDbEntity
  8
0
100
AcDbLine
 62
7
  6
CONTINUOUS
 10
655.1546890044
 20
1203.5207128684
 11
653.0634698376
 21
1204.7280515036
  0
LINE
  5
277
100
AcDbEntity
  8
0
100
AcDbLine
 62
7
  6
CONTINUOUS
 10
653.0634698376
 20
1205.8711256288
 11
654.9221950081
 21
1204.7980144158
  0
LINE
  5
278
100
AcDbEntity
  8
0
100
AcDbLine
 62
7
  6
CONTINUOUS
 10
389.2613776305
 20
1379.2767390714
 11
644.1440216022
 21
1232.1235050136
  0
LINE
  5
279
100
AcDbEntity
  8
0
100
AcDbLine
 62
7
  6
CONTINUOUS
 10
648.809361031
 20
1234.8241120738
 11
389.8060390964
 21
1384.3563668421
  0
LINE
  5
27A
100
AcDbEntity
  8
0
100
AcDbLine
 62
7
  6
CONTINUOUS
 10
446.9109344167
 20
1352.8417470577
 11
448.325153867
 21
1352.0252655487
  0
LINE
  5
27B
100
AcDbEntity
  8
0
100
AcDbLine
 62
7
  6
CONTINUOUS
 10
593.5654914122
 20
1268.1726145702
 11
594.9797108625
 21
1267.3561330612
  0
LINE
  5
27C
100
AcDbEntity
  8
0
100
AcDbLine
 62
7
  6
CONTINUOUS
 10
648.8043970056
 20
119.2291907544
 11
653.0634698376
 21
124.6350633195
  0
LINE
  5
27D
100
AcDbEntity
  8
0
100
AcDbLine
 62
7
  6
CONTINUOUS
 10
396.6053176827
 20
1385.3384330157
 11
404.9439398614
 21
1380.5242361678
  0
LINE
  5
27E
100
AcDbEntity
  8
0
100
AcDbLine
 62
7
  6
CONTINUOUS
 10
644.7248476587
 20
1242.08979631
 11
653.0634698376
 21
1237.275599462
  0
LINE
  5
27F
100
AcDbEntity
  8
0
100
AcDbLine
 62
7
  6
CONTINUOUS
 10
405.0254936737
 20
1380.5495695182
 11
433.0740883217
 21
1364.3560721936
  0
LINE
  5
280
100
AcDbEntity
  8
0
100
AcDbLine
 62
7
  6
CONTINUOUS
 10
616.7578068232
 20
1258.3086269848
 11
644.8064014711
 21
1242.1151296604
  0
LINE
  5
281
100
AcDbEntity
  8
0
100
AcDbLine
 62
7
  6
CONTINUOUS
 10
452.5677651144
 20
1353.7268584624
 11
453.9819845647
 21
1352.9103769533
  0
LINE
  5
282
100
AcDbEntity
  8
0
100
AcDbLine
 62
7
  6
CONTINUOUS
 10
599.2223221099
 20
1269.0577259748
 11
600.6365415602
 21
1268.2412444658
  0
LINE
  5
283
100
AcDbEntity
  8
0
100
AcDbLine
 62
7
  6
CONTINUOUS
 10
600.6365415602
 20
1269.1133347635
 11
599.2223221099
 21
1269.9298162725
  0
LINE
  5
284
100
AcDbEntity
  8
0
100
AcDbLine
 62
7
  6
CONTINUOUS
 10
453.9819845647
 20
1353.782467251
 11
452.5677651144
 21
1354.59894876
  0
LINE
  5
285
100
AcDbEntity
  8
0
100
AcDbLine
 62
7
  6
CONTINUOUS
 10
439.3564972417
 20
1363.482080882
 11
616.6762258567
 21
1261.1088038265
  0
LINE
  5
286
100
AcDbEntity
  8
0
100
AcDbLine
 62
7
  6
CONTINUOUS
 10
700.8839444269
 20
1231.3338844175
 11
691.8734312841
 21
1236.5359888578
  0
LINE
  5
287
100
AcDbEntity
  8
0
100
AcDbLine
 62
7
  6
CONTINUOUS
 10
458.2041009833
 20
1371.4419876269
 11
449.1935879459
 21
1376.6440921281
  0
LINE
  5
288
100
AcDbEntity
  8
0
100
AcDbLine
 62
7
  6
CONTINUOUS
 10
448.9610939496
 20
1377.9213936755
 11
459.1940464081
 21
1372.0135294727
  0
LINE
  5
289
100
AcDbEntity
  8
0
100
AcDbLine
 62
7
  6
CONTINUOUS
 10
692.8633767089
 20
1237.1075307037
 11
703.0963291675
 21
1231.1996665009
  0
LINE
  5
28A
100
AcDbEntity
  8
0
100
AcDbLine
 62
7
  6
CONTINUOUS
 10
451.0523131164
 20
1380.4698699637
 11
452.213771585
 21
1379.7993167741
  0
LINE
  5
28B
100
AcDbEntity
  8
0
100
AcDbLine
 62
7
  6
CONTINUOUS
 10
706.3490068028
 20
1233.0775895995
 11
707.5104652713
 21
1232.40703641
  0
LINE
  5
28C
100
AcDbEntity
  8
0
100
AcDbLine
 62
7
  6
CONTINUOUS
 10
655.2745611711
 20
162.9787371042
 11
653.0634698376
 21
160.9384261973
  0
LINE
  5
28D
100
AcDbEntity
  8
0
100
AcDbLine
 62
7
  6
CONTINUOUS
 10
671.1733032462
 20
1288.4093714019
 11
670.5439346134
 21
1288.3311628648
  0
LINE
  5
28E
100
AcDbEntity
  8
0
100
AcDbLine
 62
7
  6
CONTINUOUS
 10
671.0416946323
 20
1289.6492571459
 11
664.7592857123
 21
1288.8694056693
  0
LINE
  5
28F
100
AcDbEntity
  8
0
100
AcDbLine
 62
7
  6
CONTINUOUS
 10
670.5439346134
 20
1288.3311628648
 11
664.9597854698
 21
1288.3730011856
  0
LINE
  5
290
100
AcDbEntity
  8
0
100
AcDbLine
 62
7
  6
CONTINUOUS
 10
706.3490068028
 20
1268.0373773311
 11
699.1310661864
 21
1272.1574785722
  0
LINE
  5
291
100
AcDbEntity
  8
0
100
AcDbLine
 62
7
  6
CONTINUOUS
 10
664.9597854698
 20
1288.3730011856
 11
487.436953484
 21
1390.8635373742
  0
LINE
  5
292
100
AcDbEntity
  8
0
100
AcDbLine
 62
7
  6
CONTINUOUS
 10
664.7592857123
 20
1288.8694056693
 11
487.4395570974
 21
1391.2426827248
  0
LINE
  5
293
100
AcDbEntity
  8
0
100
AcDbLine
 62
7
  6
CONTINUOUS
 10
503.4792413938
 20
1383.9925278388
 11
504.8934608441
 21
1383.1760463297
  0
LINE
  5
294
100
AcDbEntity
  8
0
100
AcDbLine
 62
7
  6
CONTINUOUS
 10
650.1337983893
 20
1299.3233953513
 11
651.5480178396
 21
1298.5069138422
  0
LINE
  5
295
100
AcDbEntity
  8
0
100
AcDbLine
 62
7
  6
CONTINUOUS
 10
699.1310661864
 20
1272.1574785722
 11
671.0824715385
 21
1288.3509758968
  0
LINE
  5
296
100
AcDbEntity
  8
0
100
AcDbLine
 62
7
  6
CONTINUOUS
 10
487.3987530369
 20
1394.3984211056
 11
459.3501583891
 21
1410.5919184301
  0
LINE
  5
297
100
AcDbEntity
  8
0
100
AcDbLine
 62
7
  6
CONTINUOUS
 10
699.0902892803
 20
1273.4557598213
 11
671.0416946323
 21
1289.6492571459
  0
LINE
  5
298
100
AcDbEntity
  8
0
100
AcDbLine
 62
7
  6
CONTINUOUS
 10
487.3579761308
 20
1395.6967023547
 11
459.3093814829
 21
1411.8901996792
  0
LINE
  5
299
100
AcDbEntity
  8
0
100
AcDbLine
 62
7
  6
CONTINUOUS
 10
707.5104652713
 20
1268.710399292
 11
699.1718430926
 21
1273.5245961398
  0
LINE
  5
29A
100
AcDbEntity
  8
0
100
AcDbLine
 62
7
  6
CONTINUOUS
 10
459.3909352953
 20
1411.9590359977
 11
451.0523131164
 21
1416.7732328456
  0
LINE
  5
29B
100
AcDbEntity
  8
0
100
AcDbLine
 62
7
  6
CONTINUOUS
 10
509.1360720915
 20
1386.3863907721
 11
510.5502915418
 21
1385.569909263
  0
LINE
  5
29C
100
AcDbEntity
  8
0
100
AcDbLine
 62
7
  6
CONTINUOUS
 10
655.790629087
 20
1301.7172582846
 11
657.2048485373
 21
1300.9007767755
  0
LINE
  5
29D
100
AcDbEntity
  8
0
100
AcDbLine
 62
7
  6
CONTINUOUS
 10
657.2048485373
 20
1303.2816186019
 11
655.790629087
 21
1304.0981001109
  0
LINE
  5
29E
100
AcDbEntity
  8
0
100
AcDbLine
 62
7
  6
CONTINUOUS
 10
510.5502915418
 20
1387.9507510894
 11
509.1360720915
 21
1388.7672325984
  0
LINE
  5
29F
100
AcDbEntity
  8
0
100
AcDbLine
 62
7
  6
CONTINUOUS
 10
455.306421923
 20
1422.1728047656
 11
714.3097438576
 21
1272.6405499972
  0
LINE
  5
2A0
100
AcDbEntity
  8
0
100
AcDbLine
 62
7
  6
CONTINUOUS
 10
715.7330700558
 20
1273.4281579589
 11
457.8342876611
 21
1422.322720953
  0
LINE
  5
2A1
100
AcDbEntity
  8
0
100
AcDbLine
 62
7
  6
CONTINUOUS
 10
459.3501583891
 20
1410.5919184301
 11
452.213771585
 21
1414.7591045057
  0
LINE
  5
2A2
100
AcDbEntity
  8
0
100
AcDbLine
 62
7
  6
CONTINUOUS
 10
433.0740883217
 20
1364.3560721936
 11
439.3564972417
 21
1363.482080882
  0
LINE
  5
2A3
100
AcDbEntity
  8
0
100
AcDbLine
 62
7
  6
CONTINUOUS
 10
707.5104652713
 20
192.3732260272
 11
703.9462428408
 21
191.0857193189
  0
LINE
  5
2A4
100
AcDbEntity
  8
0
100
AcDbLine
 62
7
  6
CONTINUOUS
 10
389.7981051687
 20
1384.3552208909
 11
396.6053176827
 21
1385.3384330115
  0
ARC
  5
2A5
100
AcDbEntity
  8
0
100
AcDbCircle
 62
7
  6
CONTINUOUS
 10
750.1173021315
 20
1209.223402777
 40
72.8271234502
100
AcDbArc
 50
119.2592866504
 51
119.4387924632
  0
ARC
  5
2A6
100
AcDbEntity
  8
0
100
AcDbCircle
 62
7
  6
CONTINUOUS
 10
459.5213426842
 20
1357.0091723411
 40
9.4106113968
100
AcDbArc
 50
203.5745385452
 51
210.2293041106
  0
ARC
  5
2A7
100
AcDbEntity
  8
0
100
AcDbCircle
 62
7
  6
CONTINUOUS
 10
460.4910397856
 20
1357.5704192766
 40
9.387925817
100
AcDbArc
 50
202.9980875477
 51
210.0318761213
  0
ARC
  5
2A8
100
AcDbEntity
  8
0
100
AcDbCircle
 62
7
  6
CONTINUOUS
 10
459.470332828
 20
1356.9717601732
 40
9.3477047515
100
AcDbArc
 50
210.1885850332
 51
218.6998608132
  0
ARC
  5
2A9
100
AcDbEntity
  8
0
100
AcDbCircle
 62
7
  6
CONTINUOUS
 10
655.4737952652
 20
1297.8966389654
 40
3.4671875365
100
AcDbArc
 50
55.1563961793
 51
60.0484648898
  0
ARC
  5
2AA
100
AcDbEntity
  8
0
100
AcDbCircle
 62
7
  6
CONTINUOUS
 10
508.8192382698
 20
1382.565771453
 40
3.4671875363
100
AcDbArc
 50
55.1563961792
 51
60.0484648898
  0
ARC
  5
2AB
100
AcDbEntity
  8
0
100
AcDbCircle
 62
7
  6
CONTINUOUS
 10
595.2965335949
 20
1266.053604391
 40
3.4671679179
100
AcDbArc
 50
119.9519596112
 51
124.8434604028
  0
ARC
  5
2AC
100
AcDbEntity
  8
0
100
AcDbCircle
 62
7
  6
CONTINUOUS
 10
448.6419765995
 20
1350.7227368785
 40
3.467167918
100
AcDbArc
 50
119.9519596113
 51
124.8434604027
  0
ARC
  5
2AD
100
AcDbEntity
  8
0
100
AcDbCircle
 62
7
  6
CONTINUOUS
 10
655.4738065912
 20
190.6855588977
 40
3.4671674664
100
AcDbArc
 50
299.9519593966
 51
304.8434709691
  0
ARC
  5
2AE
100
AcDbEntity
  8
0
100
AcDbCircle
 62
7
  6
CONTINUOUS
 10
463.3523644513
 20
1363.8964095363
 40
2.4561300705
100
AcDbArc
 50
97.6472831797
 51
103.0546408674
  0
ARC
  5
2AF
100
AcDbEntity
  8
0
100
AcDbCircle
 62
7
  6
CONTINUOUS
 10
393.7026364857
 20
323.4688993963
 40
2.4561300704
100
AcDbArc
 50
97.6472831796
 51
103.0546408675
  0
ARC
  5
2B0
100
AcDbEntity
  8
0
100
AcDbCircle
 62
7
  6
CONTINUOUS
 10
393.7026364857
 20
1037.9085143847
 40
2.4561300704
100
AcDbArc
 50
97.6472831795
 51
103.0546408675
  0
ARC
  5
2B1
100
AcDbEntity
  8
0
100
AcDbCircle
 62
7
  6
CONTINUOUS
 10
393.7026364857
 20
609.2447453916
 40
2.4561300704
100
AcDbArc
 50
97.6472831797
 51
103.0546408675
  0
ARC
  5
2B2
100
AcDbEntity
  8
0
100
AcDbCircle
 62
7
  6
CONTINUOUS
 10
393.7026364857
 20
1323.68436038
 40
2.4561300704
100
AcDbArc
 50
97.6472831797
 51
103.0546408674
  0
ARC
  5
2B3
100
AcDbEntity
  8
0
100
AcDbCircle
 62
7
  6
CONTINUOUS
 10
635.534162486
 20
183.8505613503
 40
2.4561300704
100
AcDbArc
 50
97.6472831796
 51
103.0546408675
  0
ARC
  5
2B4
100
AcDbEntity
  8
0
100
AcDbCircle
 62
7
  6
CONTINUOUS
 10
635.534162486
 20
898.2901763387
 40
2.4561300704
100
AcDbArc
 50
97.6472831796
 51
103.0546408674
  0
ARC
  5
2B5
100
AcDbEntity
  8
0
100
AcDbCircle
 62
7
  6
CONTINUOUS
 10
635.534162486
 20
469.6264073457
 40
2.4561300704
100
AcDbArc
 50
97.6472831797
 51
103.0546408675
  0
ARC
  5
2B6
100
AcDbEntity
  8
0
100
AcDbCircle
 62
7
  6
CONTINUOUS
 10
635.534162486
 20
1184.0660223341
 40
2.4561300703
100
AcDbArc
 50
97.6472831796
 51
103.0546408676
  0
ARC
  5
2B7
100
AcDbEntity
  8
0
100
AcDbCircle
 62
7
  6
CONTINUOUS
 10
467.4144969653
 20
1356.8694627718
 40
2.443404607
100
AcDbArc
 50
316.9342114486
 51
322.2913260041
  0
ARC
  5
2B8
100
AcDbEntity
  8
0
100
AcDbCircle
 62
7
  6
CONTINUOUS
 10
639.596295
 20
1177.0390755696
 40
2.4434046071
100
AcDbArc
 50
316.9342114487
 51
322.2913260039
  0
ARC
  5
2B9
100
AcDbEntity
  8
0
100
AcDbCircle
 62
7
  6
CONTINUOUS
 10
639.5962950001
 20
462.5994605811
 40
2.443404607
100
AcDbArc
 50
316.9342114486
 51
322.2913260041
  0
ARC
  5
2BA
100
AcDbEntity
  8
0
100
AcDbCircle
 62
7
  6
CONTINUOUS
 10
639.5962950001
 20
891.2632295741
 40
2.4434046069
100
AcDbArc
 50
316.9342114484
 51
322.2913260041
  0
ARC
  5
2BB
100
AcDbEntity
  8
0
100
AcDbCircle
 62
7
  6
CONTINUOUS
 10
639.5962950001
 20
176.8236145857
 40
2.4434046069
100
AcDbArc
 50
316.9342114485
 51
322.2913260041
  0
ARC
  5
2BC
100
AcDbEntity
  8
0
100
AcDbCircle
 62
7
  6
CONTINUOUS
 10
397.7647689997
 20
1316.6574136155
 40
2.443404607
100
AcDbArc
 50
316.9342114487
 51
322.291326004
  0
ARC
  5
2BD
100
AcDbEntity
  8
0
100
AcDbCircle
 62
7
  6
CONTINUOUS
 10
397.7647689998
 20
602.2177986271
 40
2.443404607
100
AcDbArc
 50
316.9342114486
 51
322.291326004
  0
ARC
  5
2BE
100
AcDbEntity
  8
0
100
AcDbCircle
 62
7
  6
CONTINUOUS
 10
397.7647689998
 20
1030.8815676201
 40
2.443404607
100
AcDbArc
 50
316.9342114486
 51
322.291326004
  0
ARC
  5
2BF
100
AcDbEntity
  8
0
100
AcDbCircle
 62
7
  6
CONTINUOUS
 10
397.7647689998
 20
316.4419526317
 40
2.4434046069
100
AcDbArc
 50
316.9342114485
 51
322.2913260041
  0
ARC
  5
2C0
100
AcDbEntity
  8
0
100
AcDbCircle
 62
7
  6
CONTINUOUS
 10
694.1994060961
 20
216.9451143608
 40
2.1298470026
100
AcDbArc
 50
95.3883495335
 51
101.303906633
  0
ARC
  5
2C1
100
AcDbEntity
  8
0
100
AcDbCircle
 62
7
  6
CONTINUOUS
 10
694.1994060961
 20
931.3847293492
 40
2.1298470026
100
AcDbArc
 50
95.3883495336
 51
101.3039066331
  0
ARC
  5
2C2
100
AcDbEntity
  8
0
100
AcDbCircle
 62
7
  6
CONTINUOUS
 10
694.1994060961
 20
502.7209603562
 40
2.1298470026
100
AcDbArc
 50
95.3883495335
 51
101.303906633
  0
ARC
  5
2C3
100
AcDbEntity
  8
0
100
AcDbCircle
 62
7
  6
CONTINUOUS
 10
694.1994060961
 20
1217.1605753445
 40
2.1298470027
100
AcDbArc
 50
95.3883495337
 51
101.3039066329
  0
ARC
  5
2C4
100
AcDbEntity
  8
0
100
AcDbCircle
 62
7
  6
CONTINUOUS
 10
452.3678800995
 20
1356.7789134714
 40
2.1298469335
100
AcDbArc
 50
95.388349865
 51
101.3039068429
  0
ARC
  5
2C5
100
AcDbEntity
  8
0
100
AcDbCircle
 62
7
  6
CONTINUOUS
 10
697.5883966722
 20
1211.2983362422
 40
2.1189266522
100
AcDbArc
 50
318.6952515199
 51
324.5564466723
  0
ARC
  5
2C6
100
AcDbEntity
  8
0
100
AcDbCircle
 62
7
  6
CONTINUOUS
 10
697.5883966723
 20
496.8587212537
 40
2.1189266522
100
AcDbArc
 50
318.6952515197
 51
324.5564466723
  0
ARC
  5
2C7
100
AcDbEntity
  8
0
100
AcDbCircle
 62
7
  6
CONTINUOUS
 10
697.5883966722
 20
925.5224902468
 40
2.1189266522
100
AcDbArc
 50
318.6952515198
 51
324.5564466722
  0
ARC
  5
2C8
100
AcDbEntity
  8
0
100
AcDbCircle
 62
7
  6
CONTINUOUS
 10
697.5883966722
 20
211.0828752584
 40
2.1189266522
100
AcDbArc
 50
318.6952515198
 51
324.5564466723
  0
ARC
  5
2C9
100
AcDbEntity
  8
0
100
AcDbCircle
 62
7
  6
CONTINUOUS
 10
453.2529114699
 20
1351.0157448117
 40
1.9646541708
100
AcDbArc
 50
33.456635201
 51
38.7152832597
  0
ARC
  5
2CA
100
AcDbEntity
  8
0
100
AcDbCircle
 62
7
  6
CONTINUOUS
 10
599.9074684652
 20
1266.3466123241
 40
1.964654171
100
AcDbArc
 50
33.4566352012
 51
38.7152832595
  0
SPLINE
  5
2CB
100
AcDbEntity
  8
0
100
AcDbSpline
 62
7
  6
CONTINUOUS
 70
0
 71
3
 72
8
 73
4
 74
0
 42
0.0000001
 43
0.0000001
 44
0.0000000001
 40
0.0
 40
0.0
 40
0.0
 40
0.0
 40
1.0
 40
1.0
 40
1.0
 40
1.0
 10
714.3176777853
 20
157.0523966011
 30
0.0
 10
714.4999919987
 20
157.0808464153
 30
0.0
 10
714.7113727207
 20
157.130046383
 30
0.0
 10
714.8239662245
 20
157.2762331375
 30
0.0
  0
SPLINE
  5
2CC
100
AcDbEntity
  8
0
100
AcDbSpline
 62
7
  6
CONTINUOUS
 70
0
 71
3
 72
9
 73
5
 74
0
 42
0.0000001
 43
0.0000001
 44
0.0000000001
 40
0.0
 40
0.0
 40
0.0
 40
0.0
 40
0.4947679012
 40
1.0
 40
1.0
 40
1.0
 40
1.0
 10
502.4558899002
 20
1385.3746453106
 30
0.0
 10
502.4706871631
 20
1385.41427243
 30
0.0
 10
502.5000219332
 20
1385.494560436
 30
0.0
 10
502.5355923924
 20
1385.5725754128
 30
0.0
 10
502.5564797729
 20
1385.6103837486
 30
0.0
  0
SPLINE
  5
2CD
100
AcDbEntity
  8
0
100
AcDbSpline
 62
7
  6
CONTINUOUS
 70
0
 71
3
 72
9
 73
5
 74
0
 42
0.0000001
 43
0.0000001
 44
0.0000000001
 40
0.0
 40
0.0
 40
0.0
 40
0.0
 40
0.4902256255
 40
1.0
 40
1.0
 40
1.0
 40
1.0
 10
502.5564797729
 20
1385.6103837486
 30
0.0
 10
502.5668527865
 20
1385.6291599844
 30
0.0
 10
502.589464863
 20
1385.6666824395
 30
0.0
 10
502.6152945104
 20
1385.7020929297
 30
0.0
 10
502.6292731391
 20
1385.7194761014
 30
0.0
  0
SPLINE
  5
2CE
100
AcDbEntity
  8
0
100
AcDbSpline
 62
7
  6
CONTINUOUS
 70
0
 71
3
 72
9
 73
5
 74
0
 42
0.0000001
 43
0.0000001
 44
0.0000000001
 40
0.0
 40
0.0
 40
0.0
 40
0.0
 40
0.5000005437
 40
1.0
 40
1.0
 40
1.0
 40
1.0
 10
509.1360720915
 20
1386.3863907721
 30
0.0
 10
508.2965503588
 20
1386.8710779053
 30
0.0
 10
506.3076421982
 20
1387.2543906364
 30
0.0
 10
504.3187342537
 20
1386.8710693077
 30
0.0
 10
503.4792178421
 20
1386.3863771747
 30
0.0
  0
SPLINE
  5
2CF
100
AcDbEntity
  8
0
100
AcDbSpline
 62
7
  6
CONTINUOUS
 70
0
 71
3
 72
8
 73
4
 74
0
 42
0.0000001
 43
0.0000001
 44
0.0000000001
 40
0.0
 40
0.0
 40
0.0
 40
0.0
 40
1.0
 40
1.0
 40
1.0
 40
1.0
 10
650.1337748376
 20
1301.7172446872
 30
0.0
 10
649.8091101672
 20
1301.5298005712
 30
0.0
 10
649.5014202769
 20
1301.2878796694
 30
0.0
 10
649.279524936
 20
1300.9857126585
 30
0.0
  0
SPLINE
  5
2D0
100
AcDbEntity
  8
0
100
AcDbSpline
 62
7
  6
CONTINUOUS
 70
0
 71
3
 72
9
 73
5
 74
0
 42
0.0000001
 43
0.0000001
 44
0.0000000001
 40
0.0
 40
0.0
 40
0.0
 40
0.0
 40
0.5000005437
 40
1.0
 40
1.0
 40
1.0
 40
1.0
 10
655.790629087
 20
1301.7172582846
 30
0.0
 10
654.9511073543
 20
1302.2019454178
 30
0.0
 10
652.9621991937
 20
1302.5852581489
 30
0.0
 10
650.9732912492
 20
1302.2019368202
 30
0.0
 10
650.1337748376
 20
1301.7172446872
 30
0.0
  0
SPLINE
  5
2D1
100
AcDbEntity
  8
0
100
AcDbSpline
 62
7
  6
CONTINUOUS
 70
0
 71
3
 72
8
 73
4
 74
0
 42
0.0000001
 43
0.0000001
 44
0.0000000001
 40
0.0
 40
0.0
 40
0.0
 40
0.0
 40
1.0
 40
1.0
 40
1.0
 40
1.0
 10
503.4792178421
 20
1386.3863771747
 30
0.0
 10
503.1545531717
 20
1386.1989330587
 30
0.0
 10
502.8468632814
 20
1385.9570121569
 30
0.0
 10
502.6249679405
 20
1385.654845146
 30
0.0
  0
SPLINE
  5
2D2
100
AcDbEntity
  8
0
100
AcDbSpline
 62
7
  6
CONTINUOUS
 70
0
 71
3
 72
9
 73
5
 74
0
 42
0.0000001
 43
0.0000001
 44
0.0000000001
 40
0.0
 40
0.0
 40
0.0
 40
0.0
 40
0.4947679012
 40
1.0
 40
1.0
 40
1.0
 40
1.0
 10
649.1104468957
 20
1300.7055128231
 30
0.0
 10
649.1252441586
 20
1300.7451399425
 30
0.0
 10
649.1545789287
 20
1300.8254279485
 30
0.0
 10
649.1901493879
 20
1300.9034429253
 30
0.0
 10
649.2110367684
 20
1300.941251261
 30
0.0
  0
SPLINE
  5
2D3
100
AcDbEntity
  8
0
100
AcDbSpline
 62
7
  6
CONTINUOUS
 70
0
 71
3
 72
9
 73
5
 74
0
 42
0.0000001
 43
0.0000001
 44
0.0000000001
 40
0.0
 40
0.0
 40
0.0
 40
0.0
 40
0.4902256255
 40
1.0
 40
1.0
 40
1.0
 40
1.0
 10
649.2110367684
 20
1300.941251261
 30
0.0
 10
649.221409782
 20
1300.9600274969
 30
0.0
 10
649.2440218585
 20
1300.997549952
 30
0.0
 10
649.2698515059
 20
1301.0329604422
 30
0.0
 10
649.2838301346
 20
1301.0503436139
 30
0.0
  0
SPLINE
  5
2D4
100
AcDbEntity
  8
0
100
AcDbSpline
 62
7
  6
CONTINUOUS
 70
0
 71
3
 72
9
 73
5
 74
0
 42
0.0000001
 43
0.0000001
 44
0.0000000001
 40
0.0
 40
0.0
 40
0.0
 40
0.0
 40
0.5121010467
 40
1.0
 40
1.0
 40
1.0
 40
1.0
 10
655.6554447513
 20
187.090002985
 30
0.0
 10
655.6981700345
 20
187.0905826734
 30
0.0
 10
655.7815934123
 20
187.0931335249
 30
0.0
 10
655.8647759341
 20
187.1011124405
 30
0.0
 10
655.9050309888
 20
187.1071803659
 30
0.0
  0
SPLINE
  5
2D5
100
AcDbEntity
  8
0
100
AcDbSpline
 62
7
  6
CONTINUOUS
 70
0
 71
3
 72
8
 73
4
 74
0
 42
0.0000001
 43
0.0000001
 44
0.0000000001
 40
0.0
 40
0.0
 40
0.0
 40
0.0
 40
1.0
 40
1.0
 40
1.0
 40
1.0
 10
657.204872089
 20
187.681451296
 30
0.0
 10
656.8123697104
 20
187.4548412948
 30
0.0
 10
656.3780356917
 20
187.2960095759
 30
0.0
 10
655.9378104474
 20
187.1882508448
 30
0.0
  0
SPLINE
  5
2D6
100
AcDbEntity
  8
0
100
AcDbSpline
 62
7
  6
CONTINUOUS
 70
0
 71
3
 72
9
 73
5
 74
0
 42
0.0000001
 43
0.0000001
 44
0.0000000001
 40
0.0
 40
0.0
 40
0.0
 40
0.0
 40
0.2245236873
 40
1.0
 40
1.0
 40
1.0
 40
1.0
 10
451.7528645855
 20
1358.6616386414
 30
0.0
 10
451.6640056189
 20
1358.5369890757
 30
0.0
 10
451.3267704276
 20
1357.9394970217
 30
0.0
 10
451.2238450701
 20
1357.2345668139
 30
0.0
 10
451.2238450701
 20
1356.7058485614
 30
0.0
  0
SPLINE
  5
2D7
100
AcDbEntity
  8
0
100
AcDbSpline
 62
7
  6
CONTINUOUS
 70
0
 71
3
 72
8
 73
4
 74
0
 42
0.0000001
 43
0.0000001
 44
0.0000000001
 40
0.0
 40
0.0
 40
0.0
 40
0.0
 40
1.0
 40
1.0
 40
1.0
 40
1.0
 10
451.373057837
 20
1358.6520561458
 30
0.0
 10
451.5510022161
 20
1358.7546561797
 30
0.0
 10
451.7490081796
 20
1358.8270542843
 30
0.0
 10
451.9504023929
 20
1358.867444133
 30
0.0
  0
SPLINE
  5
2D8
100
AcDbEntity
  8
0
100
AcDbSpline
 62
7
  6
CONTINUOUS
 70
0
 71
3
 72
9
 73
5
 74
0
 42
0.0000001
 43
0.0000001
 44
0.0000000001
 40
0.0
 40
0.0
 40
0.0
 40
0.0
 40
0.2245627704
 40
1.0
 40
1.0
 40
1.0
 40
1.0
 10
452.1678749478
 20
1358.8993487803
 30
0.0
 10
452.3187756744
 20
1358.9136817511
 30
0.0
 10
452.9979171431
 20
1358.9076613066
 30
0.0
 10
453.6536145158
 20
1358.6485324524
 30
0.0
 10
454.1077984748
 20
1358.3883678129
 30
0.0
  0
SPLINE
  5
2D9
100
AcDbEntity
  8
0
100
AcDbSpline
 62
7
  6
CONTINUOUS
 70
0
 71
3
 72
9
 73
5
 74
0
 42
0.0000001
 43
0.0000001
 44
0.0000000001
 40
0.0
 40
0.0
 40
0.0
 40
0.0
 40
0.2330003093
 40
1.0
 40
1.0
 40
1.0
 40
1.0
 10
454.1077984748
 20
1358.3883678129
 30
0.0
 10
454.5656674077
 20
1358.126092355
 30
0.0
 10
456.3514716875
 20
1356.7106159667
 30
0.0
 10
457.5396223499
 20
1354.5671310823
 30
0.0
 10
457.8827813818
 20
1352.8643705704
 30
0.0
  0
SPLINE
  5
2DA
100
AcDbEntity
  8
0
100
AcDbSpline
 62
7
  6
CONTINUOUS
 70
0
 71
3
 72
9
 73
5
 74
0
 42
0.0000001
 43
0.0000001
 44
0.0000000001
 40
0.0
 40
0.0
 40
0.0
 40
0.0
 40
0.2236097662
 40
1.0
 40
1.0
 40
1.0
 40
1.0
 10
462.5864953547
 20
1366.0792257678
 30
0.0
 10
462.4717240488
 20
1365.930947555
 30
0.0
 10
462.0330170904
 20
1365.2090950348
 30
0.0
 10
461.9011071241
 20
1364.3378589136
 30
0.0
 10
461.9011071241
 20
1363.6868201933
 30
0.0
  0
SPLINE
  5
2DB
100
AcDbEntity
  8
0
100
AcDbSpline
 62
7
  6
CONTINUOUS
 70
0
 71
3
 72
8
 73
4
 74
0
 42
0.0000001
 43
0.0000001
 44
0.0000000001
 40
0.0
 40
0.0
 40
0.0
 40
0.0
 40
1.0
 40
1.0
 40
1.0
 40
1.0
 10
462.1867291839
 20
1366.0499759892
 30
0.0
 10
462.3761532146
 20
1366.1591950162
 30
0.0
 10
462.5845931814
 20
1366.2395667144
 30
0.0
 10
462.797573367
 20
1366.2890611565
 30
0.0
  0
SPLINE
  5
2DC
100
AcDbEntity
  8
0
100
AcDbSpline
 62
7
  6
CONTINUOUS
 70
0
 71
3
 72
11
 73
7
 74
0
 42
0.0000001
 43
0.0000001
 44
0.0000000001
 40
0.0
 40
0.0
 40
0.0
 40
0.0
 40
0.1980795881
 40
0.4559222641
 40
0.7401060645
 40
1.0
 40
1.0
 40
1.0
 40
1.0
 10
463.025516556
 20
1366.3306949297
 30
0.0
 10
463.8103927636
 20
1366.4364844098
 30
0.0
 10
465.6830741517
 20
1365.8280016389
 30
0.0
 10
467.8635944732
 20
1363.7752153086
 30
0.0
 10
469.5141549784
 20
1360.9801183005
 30
0.0
 10
470.0328777952
 20
1358.8064474679
 30
0.0
 10
470.0328777952
 20
1357.7673241537
 30
0.0
  0
SPLINE
  5
2DD
100
AcDbEntity
  8
0
100
AcDbSpline
 62
7
  6
CONTINUOUS
 70
0
 71
3
 72
9
 73
5
 74
0
 42
0.0000001
 43
0.0000001
 44
0.0000000001
 40
0.0
 40
0.0
 40
0.0
 40
0.0
 40
0.2807306068
 40
1.0
 40
1.0
 40
1.0
 40
1.0
 10
470.0328777952
 20
1357.7673241537
 30
0.0
 10
470.0328777952
 20
1357.5323168485
 30
0.0
 10
469.9854725274
 20
1356.6999616077
 30
0.0
 10
469.7160712373
 20
1355.851135172
 30
0.0
 10
469.347549961
 20
1355.3749621229
 30
0.0
  0
SPLINE
  5
2DE
100
AcDbEntity
  8
0
100
AcDbSpline
 62
7
  6
CONTINUOUS
 70
0
 71
3
 72
8
 73
4
 74
0
 42
0.0000001
 43
0.0000001
 44
0.0000000001
 40
0.0
 40
0.0
 40
0.0
 40
0.0
 40
1.0
 40
1.0
 40
1.0
 40
1.0
 10
469.1995753888
 20
1355.2010140625
 30
0.0
 10
469.0501396333
 20
1355.0412855521
 30
0.0
 10
468.8760913181
 20
1354.9010599628
 30
0.0
 10
468.6865999795
 20
1354.791802127
 30
0.0
  0
SPLINE
  5
2DF
100
AcDbEntity
  8
0
100
AcDbSpline
 62
7
  6
CONTINUOUS
 70
0
 71
3
 72
9
 73
5
 74
0
 42
0.0000001
 43
0.0000001
 44
0.0000000001
 40
0.0
 40
0.0
 40
0.0
 40
0.0
 40
0.766471999
 40
1.0
 40
1.0
 40
1.0
 40
1.0
 10
703.9462428408
 20
191.0857193189
 30
0.0
 10
703.1969451752
 20
190.8153976927
 30
0.0
 10
702.0677700416
 20
190.799737011
 30
0.0
 10
701.0941279553
 20
191.1787272631
 30
0.0
 10
700.8839444269
 20
191.3000740346
 30
0.0
  0
SPLINE
  5
2E0
100
AcDbEntity
  8
0
100
AcDbSpline
 62
7
  6
CONTINUOUS
 70
0
 71
3
 72
9
 73
5
 74
0
 42
0.0000001
 43
0.0000001
 44
0.0000000001
 40
0.0
 40
0.0
 40
0.0
 40
0.0
 40
0.4997671378
 40
1.0
 40
1.0
 40
1.0
 40
1.0
 10
693.0553710704
 20
1217.0875105155
 30
0.0
 10
693.0553710704
 20
1215.7580386273
 30
0.0
 10
693.9624276374
 20
1213.1312820213
 30
0.0
 10
695.7790914456
 20
1211.0295965701
 30
0.0
 10
696.9292698759
 20
1210.3603575905
 30
0.0
  0
SPLINE
  5
2E1
100
AcDbEntity
  8
0
100
AcDbSpline
 62
7
  6
CONTINUOUS
 70
0
 71
3
 72
9
 73
5
 74
0
 42
0.0000001
 43
0.0000001
 44
0.0000000001
 40
0.0
 40
0.0
 40
0.0
 40
0.0
 40
0.280349595
 40
1.0
 40
1.0
 40
1.0
 40
1.0
 10
696.9292698759
 20
1210.3603575905
 30
0.0
 10
697.0958653442
 20
1210.2634229078
 30
0.0
 10
697.7058469483
 20
1209.9515165517
 30
0.0
 10
698.4131100487
 20
1209.7843431562
 30
0.0
 10
698.9055374876
 20
1209.8324315115
 30
0.0
  0
SPLINE
  5
2E2
100
AcDbEntity
  8
0
100
AcDbSpline
 62
7
  6
CONTINUOUS
 70
0
 71
3
 72
9
 73
5
 74
0
 42
0.0000001
 43
0.0000001
 44
0.0000000001
 40
0.0
 40
0.0
 40
0.0
 40
0.0
 40
0.2245236876
 40
1.0
 40
1.0
 40
1.0
 40
1.0
 10
693.5843905683
 20
218.8278395874
 30
0.0
 10
693.4955316046
 20
218.703190022
 30
0.0
 10
693.1582964249
 20
218.105697973
 30
0.0
 10
693.0553710704
 20
217.4007677764
 30
0.0
 10
693.0553710704
 20
216.8720495317
 30
0.0
  0
SPLINE
  5
2E3
100
AcDbEntity
  8
0
100
AcDbSpline
 62
7
  6
CONTINUOUS
 70
0
 71
3
 72
9
 73
5
 74
0
 42
0.0000001
 43
0.0000001
 44
0.0000000001
 40
0.0
 40
0.0
 40
0.0
 40
0.0
 40
0.4997671378
 40
1.0
 40
1.0
 40
1.0
 40
1.0
 10
693.0553710704
 20
502.6478955271
 30
0.0
 10
693.0553710704
 20
501.3184236389
 30
0.0
 10
693.9624276374
 20
498.6916670329
 30
0.0
 10
695.7790914456
 20
496.5899815817
 30
0.0
 10
696.9292698759
 20
495.9207426021
 30
0.0
  0
SPLINE
  5
2E4
100
AcDbEntity
  8
0
100
AcDbSpline
 62
7
  6
CONTINUOUS
 70
0
 71
3
 72
9
 73
5
 74
0
 42
0.0000001
 43
0.0000001
 44
0.0000000001
 40
0.0
 40
0.0
 40
0.0
 40
0.0
 40
0.280349595
 40
1.0
 40
1.0
 40
1.0
 40
1.0
 10
696.9292698759
 20
495.9207426021
 30
0.0
 10
697.0958653442
 20
495.8238079194
 30
0.0
 10
697.7058469483
 20
495.5119015633
 30
0.0
 10
698.4131100487
 20
495.3447281678
 30
0.0
 10
698.9055374876
 20
495.3928165231
 30
0.0
  0
SPLINE
  5
2E5
100
AcDbEntity
  8
0
100
AcDbSpline
 62
7
  6
CONTINUOUS
 70
0
 71
3
 72
8
 73
4
 74
0
 42
0.0000001
 43
0.0000001
 44
0.0000000001
 40
0.0
 40
0.0
 40
0.0
 40
0.0
 40
1.0
 40
1.0
 40
1.0
 40
1.0
 10
693.2045838051
 20
218.8182570976
 30
0.0
 10
693.3825281911
 20
218.9208571354
 30
0.0
 10
693.5805341624
 20
218.9932552423
 30
0.0
 10
693.7819283836
 20
219.0336450918
 30
0.0
  0
SPLINE
  5
2E6
100
AcDbEntity
  8
0
100
AcDbSpline
 62
7
  6
CONTINUOUS
 70
0
 71
3
 72
9
 73
5
 74
0
 42
0.0000001
 43
0.0000001
 44
0.0000000001
 40
0.0
 40
0.0
 40
0.0
 40
0.0
 40
0.2245627712
 40
1.0
 40
1.0
 40
1.0
 40
1.0
 10
693.9994009501
 20
219.0655497398
 30
0.0
 10
694.1503016769
 20
219.0798827097
 30
0.0
 10
694.8294431434
 20
219.0738622637
 30
0.0
 10
695.485140515
 20
218.814733417
 30
0.0
 10
695.9393244749
 20
218.5545687832
 30
0.0
  0
SPLINE
  5
2E7
100
AcDbEntity
  8
0
100
AcDbSpline
 62
7
  6
CONTINUOUS
 70
0
 71
3
 72
9
 73
5
 74
0
 42
0.0000001
 43
0.0000001
 44
0.0000000001
 40
0.0
 40
0.0
 40
0.0
 40
0.0
 40
0.4997026048
 40
1.0
 40
1.0
 40
1.0
 40
1.0
 10
695.9393244749
 20
218.5545687832
 30
0.0
 10
697.0976538449
 20
217.89105716
 30
0.0
 10
698.9289298851
 20
215.7834288472
 30
0.0
 10
699.8436326688
 20
213.1463545525
 30
0.0
 10
699.8436326688
 20
211.8098594131
 30
0.0
  0
SPLINE
  5
2E8
100
AcDbEntity
  8
0
100
AcDbSpline
 62
7
  6
CONTINUOUS
 70
0
 71
3
 72
9
 73
5
 74
0
 42
0.0000001
 43
0.0000001
 44
0.0000000001
 40
0.0
 40
0.0
 40
0.0
 40
0.0
 40
0.4997671378
 40
1.0
 40
1.0
 40
1.0
 40
1.0
 10
693.0553710704
 20
931.3116645201
 30
0.0
 10
693.0553710704
 20
929.9821926319
 30
0.0
 10
693.9624276374
 20
927.355436026
 30
0.0
 10
695.7790914456
 20
925.2537505747
 30
0.0
 10
696.9292698759
 20
924.5845115951
 30
0.0
  0
SPLINE
  5
2E9
100
AcDbEntity
  8
0
100
AcDbSpline
 62
7
  6
CONTINUOUS
 70
0
 71
3
 72
9
 73
5
 74
0
 42
0.0000001
 43
0.0000001
 44
0.0000000001
 40
0.0
 40
0.0
 40
0.0
 40
0.0
 40
0.280349595
 40
1.0
 40
1.0
 40
1.0
 40
1.0
 10
696.9292698759
 20
924.5845115951
 30
0.0
 10
697.0958653442
 20
924.4875769124
 30
0.0
 10
697.7058469483
 20
924.1756705563
 30
0.0
 10
698.4131100487
 20
924.0084971609
 30
0.0
 10
698.9055374876
 20
924.0565855161
 30
0.0
  0
SPLINE
  5
2EA
100
AcDbEntity
  8
0
100
AcDbSpline
 62
7
  6
CONTINUOUS
 70
0
 71
3
 72
9
 73
5
 74
0
 42
0.0000001
 43
0.0000001
 44
0.0000000001
 40
0.0
 40
0.0
 40
0.0
 40
0.0
 40
0.4997671378
 40
1.0
 40
1.0
 40
1.0
 40
1.0
 10
693.0553710704
 20
216.8720495317
 30
0.0
 10
693.0553710704
 20
215.5425776435
 30
0.0
 10
693.9624276374
 20
212.9158210376
 30
0.0
 10
695.7790914456
 20
210.8141355863
 30
0.0
 10
696.9292698759
 20
210.1448966067
 30
0.0
  0
SPLINE
  5
2EB
100
AcDbEntity
  8
0
100
AcDbSpline
 62
7
  6
CONTINUOUS
 70
0
 71
3
 72
9
 73
5
 74
0
 42
0.0000001
 43
0.0000001
 44
0.0000000001
 40
0.0
 40
0.0
 40
0.0
 40
0.0
 40
0.280349595
 40
1.0
 40
1.0
 40
1.0
 40
1.0
 10
696.9292698759
 20
210.1448966067
 30
0.0
 10
697.0958653442
 20
210.047961924
 30
0.0
 10
697.7058469483
 20
209.7360555679
 30
0.0
 10
698.4131100487
 20
209.5688821725
 30
0.0
 10
698.9055374876
 20
209.6169705277
 30
0.0
  0
SPLINE
  5
2EC
100
AcDbEntity
  8
0
100
AcDbSpline
 62
7
  6
CONTINUOUS
 70
0
 71
3
 72
9
 73
5
 74
0
 42
0.0000001
 43
0.0000001
 44
0.0000000001
 40
0.0
 40
0.0
 40
0.0
 40
0.0
 40
0.2790951709
 40
1.0
 40
1.0
 40
1.0
 40
1.0
 10
699.8436326688
 20
1212.0253203968
 30
0.0
 10
699.8436326688
 20
1211.8353068201
 30
0.0
 10
699.8064300864
 20
1211.1578634158
 30
0.0
 10
699.5995353489
 20
1210.4692398417
 30
0.0
 10
699.3146591365
 20
1210.0695693554
 30
0.0
  0
SPLINE
  5
2ED
100
AcDbEntity
  8
0
100
AcDbSpline
 62
7
  6
CONTINUOUS
 70
0
 71
3
 72
8
 73
4
 74
0
 42
0.0000001
 43
0.0000001
 44
0.0000000001
 40
0.0
 40
0.0
 40
0.0
 40
0.0
 40
1.0
 40
1.0
 40
1.0
 40
1.0
 10
699.1801543596
 20
1209.8997091931
 30
0.0
 10
699.0444202137
 20
1209.7454259517
 30
0.0
 10
698.8824950176
 20
1209.6102149139
 30
0.0
 10
698.7044745104
 20
1209.5075709858
 30
0.0
  0
SPLINE
  5
2EE
100
AcDbEntity
  8
0
100
AcDbSpline
 62
7
  6
CONTINUOUS
 70
0
 71
3
 72
9
 73
5
 74
0
 42
0.0000001
 43
0.0000001
 44
0.0000000001
 40
0.0
 40
0.0
 40
0.0
 40
0.0
 40
0.2790951709
 40
1.0
 40
1.0
 40
1.0
 40
1.0
 10
699.8436326688
 20
497.5857054084
 30
0.0
 10
699.8436326688
 20
497.3956918317
 30
0.0
 10
699.8064300864
 20
496.7182484274
 30
0.0
 10
699.5995353489
 20
496.0296248534
 30
0.0
 10
699.3146591365
 20
495.6299543671
 30
0.0
  0
SPLINE
  5
2EF
100
AcDbEntity
  8
0
100
AcDbSpline
 62
7
  6
CONTINUOUS
 70
0
 71
3
 72
8
 73
4
 74
0
 42
0.0000001
 43
0.0000001
 44
0.0000000001
 40
0.0
 40
0.0
 40
0.0
 40
0.0
 40
1.0
 40
1.0
 40
1.0
 40
1.0
 10
699.1801543596
 20
495.4600942047
 30
0.0
 10
699.0444202137
 20
495.3058109633
 30
0.0
 10
698.8824950176
 20
495.1705999255
 30
0.0
 10
698.7044745104
 20
495.0679559974
 30
0.0
  0
SPLINE
  5
2F0
100
AcDbEntity
  8
0
100
AcDbSpline
 62
7
  6
CONTINUOUS
 70
0
 71
3
 72
9
 73
5
 74
0
 42
0.0000001
 43
0.0000001
 44
0.0000000001
 40
0.0
 40
0.0
 40
0.0
 40
0.0
 40
0.2790951709
 40
1.0
 40
1.0
 40
1.0
 40
1.0
 10
699.8436326688
 20
926.2494744015
 30
0.0
 10
699.8436326688
 20
926.0594608247
 30
0.0
 10
699.8064300864
 20
925.3820174204
 30
0.0
 10
699.5995353489
 20
924.6933938464
 30
0.0
 10
699.3146591365
 20
924.2937233601
 30
0.0
  0
SPLINE
  5
2F1
100
AcDbEntity
  8
0
100
AcDbSpline
 62
7
  6
CONTINUOUS
 70
0
 71
3
 72
8
 73
4
 74
0
 42
0.0000001
 43
0.0000001
 44
0.0000000001
 40
0.0
 40
0.0
 40
0.0
 40
0.0
 40
1.0
 40
1.0
 40
1.0
 40
1.0
 10
699.1801543596
 20
924.1238631978
 30
0.0
 10
699.0444202137
 20
923.9695799563
 30
0.0
 10
698.8824950176
 20
923.8343689185
 30
0.0
 10
698.7044745104
 20
923.7317249904
 30
0.0
  0
SPLINE
  5
2F2
100
AcDbEntity
  8
0
100
AcDbSpline
 62
7
  6
CONTINUOUS
 70
0
 71
3
 72
9
 73
5
 74
0
 42
0.0000001
 43
0.0000001
 44
0.0000000001
 40
0.0
 40
0.0
 40
0.0
 40
0.0
 40
0.2790951709
 40
1.0
 40
1.0
 40
1.0
 40
1.0
 10
699.8436326688
 20
211.8098594131
 30
0.0
 10
699.8436326688
 20
211.6198458363
 30
0.0
 10
699.8064300864
 20
210.942402432
 30
0.0
 10
699.5995353489
 20
210.253778858
 30
0.0
 10
699.3146591365
 20
209.8541083717
 30
0.0
  0
SPLINE
  5
2F3
100
AcDbEntity
  8
0
100
AcDbSpline
 62
7
  6
CONTINUOUS
 70
0
 71
3
 72
8
 73
4
 74
0
 42
0.0000001
 43
0.0000001
 44
0.0000000001
 40
0.0
 40
0.0
 40
0.0
 40
0.0
 40
1.0
 40
1.0
 40
1.0
 40
1.0
 10
699.1801543596
 20
209.6842482094
 30
0.0
 10
699.0444202137
 20
209.529964968
 30
0.0
 10
698.8824950176
 20
209.3947539301
 30
0.0
 10
698.7044745104
 20
209.292110002
 30
0.0
  0
SPLINE
  5
2F4
100
AcDbEntity
  8
0
100
AcDbSpline
 62
7
  6
CONTINUOUS
 70
0
 71
3
 72
9
 73
5
 74
0
 42
0.0000001
 43
0.0000001
 44
0.0000000001
 40
0.0
 40
0.0
 40
0.0
 40
0.0
 40
0.2245236876
 40
1.0
 40
1.0
 40
1.0
 40
1.0
 10
693.5843905683
 20
933.2674545757
 30
0.0
 10
693.4955316046
 20
933.1428050103
 30
0.0
 10
693.1582964249
 20
932.5453129614
 30
0.0
 10
693.0553710704
 20
931.8403827648
 30
0.0
 10
693.0553710704
 20
931.3116645201
 30
0.0
  0
SPLINE
  5
2F5
100
AcDbEntity
  8
0
100
AcDbSpline
 62
7
  6
CONTINUOUS
 70
0
 71
3
 72
8
 73
4
 74
0
 42
0.0000001
 43
0.0000001
 44
0.0000000001
 40
0.0
 40
0.0
 40
0.0
 40
0.0
 40
1.0
 40
1.0
 40
1.0
 40
1.0
 10
693.2045838051
 20
933.257872086
 30
0.0
 10
693.3825281911
 20
933.3604721238
 30
0.0
 10
693.5805341624
 20
933.4328702307
 30
0.0
 10
693.7819283836
 20
933.4732600802
 30
0.0
  0
SPLINE
  5
2F6
100
AcDbEntity
  8
0
100
AcDbSpline
 62
7
  6
CONTINUOUS
 70
0
 71
3
 72
9
 73
5
 74
0
 42
0.0000001
 43
0.0000001
 44
0.0000000001
 40
0.0
 40
0.0
 40
0.0
 40
0.0
 40
0.2245627712
 40
1.0
 40
1.0
 40
1.0
 40
1.0
 10
693.9994009501
 20
933.5051647281
 30
0.0
 10
694.1503016769
 20
933.5194976981
 30
0.0
 10
694.8294431434
 20
933.5134772521
 30
0.0
 10
695.485140515
 20
933.2543484053
 30
0.0
 10
695.9393244749
 20
932.9941837715
 30
0.0
  0
SPLINE
  5
2F7
100
AcDbEntity
  8
0
100
AcDbSpline
 62
7
  6
CONTINUOUS
 70
0
 71
3
 72
9
 73
5
 74
0
 42
0.0000001
 43
0.0000001
 44
0.0000000001
 40
0.0
 40
0.0
 40
0.0
 40
0.0
 40
0.4997026048
 40
1.0
 40
1.0
 40
1.0
 40
1.0
 10
695.9393244749
 20
932.9941837715
 30
0.0
 10
697.0976538449
 20
932.3306721484
 30
0.0
 10
698.9289298851
 20
930.2230438356
 30
0.0
 10
699.8436326688
 20
927.5859695409
 30
0.0
 10
699.8436326688
 20
926.2494744015
 30
0.0
  0
SPLINE
  5
2F8
100
AcDbEntity
  8
0
100
AcDbSpline
 62
7
  6
CONTINUOUS
 70
0
 71
3
 72
11
 73
7
 74
0
 42
0.0000001
 43
0.0000001
 44
0.0000000001
 40
0.0
 40
0.0
 40
0.0
 40
0.0
 40
0.2599631815
 40
0.5441993056
 40
0.8020240112
 40
1.0
 40
1.0
 40
1.0
 40
1.0
 10
461.9011071241
 20
1363.6868201933
 30
0.0
 10
461.9011071241
 20
1362.6468952647
 30
0.0
 10
462.4205518518
 20
1360.4716408315
 30
0.0
 10
464.0730497641
 20
1357.6752827592
 30
0.0
 10
466.2555521464
 20
1355.6225854645
 30
0.0
 10
468.1301856106
 20
1355.0166450148
 30
0.0
 10
468.9147865567
 20
1355.1243497952
 30
0.0
  0
SPLINE
  5
2F9
100
AcDbEntity
  8
0
100
AcDbSpline
 62
7
  6
CONTINUOUS
 70
0
 71
3
 72
9
 73
5
 74
0
 42
0.0000001
 43
0.0000001
 44
0.0000000001
 40
0.0
 40
0.0
 40
0.0
 40
0.0
 40
0.2245236876
 40
1.0
 40
1.0
 40
1.0
 40
1.0
 10
693.5843905683
 20
504.6036855827
 30
0.0
 10
693.4955316046
 20
504.4790360173
 30
0.0
 10
693.1582964249
 20
503.8815439684
 30
0.0
 10
693.0553710704
 20
503.1766137718
 30
0.0
 10
693.0553710704
 20
502.6478955271
 30
0.0
  0
SPLINE
  5
2FA
100
AcDbEntity
  8
0
100
AcDbSpline
 62
7
  6
CONTINUOUS
 70
0
 71
3
 72
8
 73
4
 74
0
 42
0.0000001
 43
0.0000001
 44
0.0000000001
 40
0.0
 40
0.0
 40
0.0
 40
0.0
 40
1.0
 40
1.0
 40
1.0
 40
1.0
 10
693.2045838051
 20
504.594103093
 30
0.0
 10
693.3825281911
 20
504.6967031307
 30
0.0
 10
693.5805341624
 20
504.7691012377
 30
0.0
 10
693.7819283836
 20
504.8094910871
 30
0.0
  0
SPLINE
  5
2FB
100
AcDbEntity
  8
0
100
AcDbSpline
 62
7
  6
CONTINUOUS
 70
0
 71
3
 72
9
 73
5
 74
0
 42
0.0000001
 43
0.0000001
 44
0.0000000001
 40
0.0
 40
0.0
 40
0.0
 40
0.0
 40
0.2245627712
 40
1.0
 40
1.0
 40
1.0
 40
1.0
 10
693.9994009501
 20
504.8413957351
 30
0.0
 10
694.1503016769
 20
504.8557287051
 30
0.0
 10
694.8294431434
 20
504.849708259
 30
0.0
 10
695.485140515
 20
504.5905794123
 30
0.0
 10
695.9393244749
 20
504.3304147785
 30
0.0
  0
SPLINE
  5
2FC
100
AcDbEntity
  8
0
100
AcDbSpline
 62
7
  6
CONTINUOUS
 70
0
 71
3
 72
9
 73
5
 74
0
 42
0.0000001
 43
0.0000001
 44
0.0000000001
 40
0.0
 40
0.0
 40
0.0
 40
0.0
 40
0.4997026048
 40
1.0
 40
1.0
 40
1.0
 40
1.0
 10
695.9393244749
 20
504.3304147785
 30
0.0
 10
697.0976538449
 20
503.6669031554
 30
0.0
 10
698.9289298851
 20
501.5592748426
 30
0.0
 10
699.8436326688
 20
498.9222005478
 30
0.0
 10
699.8436326688
 20
497.5857054084
 30
0.0
  0
SPLINE
  5
2FD
100
AcDbEntity
  8
0
100
AcDbSpline
 62
7
  6
CONTINUOUS
 70
0
 71
3
 72
9
 73
5
 74
0
 42
0.0000001
 43
0.0000001
 44
0.0000000001
 40
0.0
 40
0.0
 40
0.0
 40
0.0
 40
0.2245236876
 40
1.0
 40
1.0
 40
1.0
 40
1.0
 10
693.5843905683
 20
1219.0433005711
 30
0.0
 10
693.4955316046
 20
1218.9186510057
 30
0.0
 10
693.1582964249
 20
1218.3211589568
 30
0.0
 10
693.0553710704
 20
1217.6162287601
 30
0.0
 10
693.0553710704
 20
1217.0875105155
 30
0.0
  0
SPLINE
  5
2FE
100
AcDbEntity
  8
0
100
AcDbSpline
 62
7
  6
CONTINUOUS
 70
0
 71
3
 72
8
 73
4
 74
0
 42
0.0000001
 43
0.0000001
 44
0.0000000001
 40
0.0
 40
0.0
 40
0.0
 40
0.0
 40
1.0
 40
1.0
 40
1.0
 40
1.0
 10
693.2045838051
 20
1219.0337180813
 30
0.0
 10
693.3825281911
 20
1219.1363181191
 30
0.0
 10
693.5805341624
 20
1219.2087162261
 30
0.0
 10
693.7819283836
 20
1219.2491060755
 30
0.0
  0
SPLINE
  5
2FF
100
AcDbEntity
  8
0
100
AcDbSpline
 62
7
  6
CONTINUOUS
 70
0
 71
3
 72
9
 73
5
 74
0
 42
0.0000001
 43
0.0000001
 44
0.0000000001
 40
0.0
 40
0.0
 40
0.0
 40
0.0
 40
0.2245627712
 40
1.0
 40
1.0
 40
1.0
 40
1.0
 10
693.9994009501
 20
1219.2810107235
 30
0.0
 10
694.1503016769
 20
1219.2953436935
 30
0.0
 10
694.8294431434
 20
1219.2893232474
 30
0.0
 10
695.485140515
 20
1219.0301944007
 30
0.0
 10
695.9393244749
 20
1218.7700297669
 30
0.0
  0
SPLINE
  5
300
100
AcDbEntity
  8
0
100
AcDbSpline
 62
7
  6
CONTINUOUS
 70
0
 71
3
 72
9
 73
5
 74
0
 42
0.0000001
 43
0.0000001
 44
0.0000000001
 40
0.0
 40
0.0
 40
0.0
 40
0.0
 40
0.4997026048
 40
1.0
 40
1.0
 40
1.0
 40
1.0
 10
695.9393244749
 20
1218.7700297669
 30
0.0
 10
697.0976538449
 20
1218.1065181438
 30
0.0
 10
698.9289298851
 20
1215.998889831
 30
0.0
 10
699.8436326688
 20
1213.3618155362
 30
0.0
 10
699.8436326688
 20
1212.0253203968
 30
0.0
  0
SPLINE
  5
301
100
AcDbEntity
  8
0
100
AcDbSpline
 62
7
  6
CONTINUOUS
 70
0
 71
3
 72
8
 73
4
 74
0
 42
0.0000001
 43
0.0000001
 44
0.0000000001
 40
0.0
 40
0.0
 40
0.0
 40
0.0
 40
1.0
 40
1.0
 40
1.0
 40
1.0
 10
455.3113859484
 20
1422.1797840756
 30
0.0
 10
455.4243153569
 20
1422.3216728177
 30
0.0
 10
455.5703318833
 20
1422.4775037836
 30
0.0
 10
455.7500769357
 20
1422.5015284087
 30
0.0
  0
SPLINE
  5
302
100
AcDbEntity
  8
0
100
AcDbSpline
 62
7
  6
CONTINUOUS
 70
0
 71
3
 72
9
 73
5
 74
0
 42
0.0000001
 43
0.0000001
 44
0.0000000001
 40
0.0
 40
0.0
 40
0.0
 40
0.0
 40
0.7245450559
 40
1.0
 40
1.0
 40
1.0
 40
1.0
 10
658.3763464167
 20
189.3144143141
 30
0.0
 10
658.3763463991
 20
189.0115657777
 30
0.0
 10
658.2175298697
 20
188.587601237
 30
0.0
 10
657.9472024777
 20
188.2698297472
 30
0.0
 10
657.867016065
 20
188.1872076667
 30
0.0
  0
SPLINE
  5
303
100
AcDbEntity
  8
0
100
AcDbSpline
 62
7
  6
CONTINUOUS
 70
0
 71
3
 72
8
 73
4
 74
0
 42
0.0000001
 43
0.0000001
 44
0.0000000001
 40
0.0
 40
0.0
 40
0.0
 40
0.0
 40
1.0
 40
1.0
 40
1.0
 40
1.0
 10
657.867016065
 20
188.1872076667
 30
0.0
 10
657.7418836898
 20
188.0582743871
 30
0.0
 10
657.6020951654
 20
187.9427811228
 30
0.0
 10
657.4547256347
 20
187.8399992017
 30
0.0
  0
SPLINE
  5
304
100
AcDbEntity
  8
0
100
AcDbSpline
 62
7
  6
CONTINUOUS
 70
0
 71
3
 72
8
 73
4
 74
0
 42
0.0000001
 43
0.0000001
 44
0.0000000001
 40
0.0
 40
0.0
 40
0.0
 40
0.0
 40
1.0
 40
1.0
 40
1.0
 40
1.0
 10
448.8412217829
 20
1378.4295590567
 30
0.0
 10
448.6321268366
 20
1378.2363660065
 30
0.0
 10
448.4613340064
 20
1377.9493875512
 30
0.0
 10
448.4612266443
 20
1377.6647048512
 30
0.0
  0
SPLINE
  5
305
100
AcDbEntity
  8
0
100
AcDbSpline
 62
7
  6
CONTINUOUS
 70
0
 71
3
 72
8
 73
4
 74
0
 42
0.0000001
 43
0.0000001
 44
0.0000000001
 40
0.0
 40
0.0
 40
0.0
 40
0.0
 40
1.0
 40
1.0
 40
1.0
 40
1.0
 10
657.978936736
 20
1300.2710911546
 30
0.0
 10
657.8280678666
 20
1300.4511809308
 30
0.0
 10
657.6474281975
 20
1300.6078153667
 30
0.0
 10
657.4547323735
 20
1300.74221054
 30
0.0
  0
SPLINE
  5
306
100
AcDbEntity
  8
0
100
AcDbSpline
 62
7
  6
CONTINUOUS
 70
0
 71
3
 72
8
 73
4
 74
0
 42
0.0000001
 43
0.0000001
 44
0.0000000001
 40
0.0
 40
0.0
 40
0.0
 40
0.0
 40
1.0
 40
1.0
 40
1.0
 40
1.0
 10
511.3243797405
 20
1384.9402236421
 30
0.0
 10
511.1735108711
 20
1385.1203134183
 30
0.0
 10
510.9928712021
 20
1385.2769478542
 30
0.0
 10
510.800175378
 20
1385.4113430275
 30
0.0
  0
SPLINE
  5
307
100
AcDbEntity
  8
0
100
AcDbSpline
 62
7
  6
CONTINUOUS
 70
0
 71
3
 72
9
 73
5
 74
0
 42
0.0000001
 43
0.0000001
 44
0.0000000001
 40
0.0
 40
0.0
 40
0.0
 40
0.0
 40
0.2714606251
 40
1.0
 40
1.0
 40
1.0
 40
1.0
 10
457.8345013452
 20
1422.3229919758
 30
0.0
 10
457.6657104158
 20
1422.420230301
 30
0.0
 10
457.0296366524
 20
1422.7391159749
 30
0.0
 10
456.2031173513
 20
1422.7830912046
 30
0.0
 10
455.7382395911
 20
1422.5439299998
 30
0.0
  0
SPLINE
  5
308
100
AcDbEntity
  8
0
100
AcDbSpline
 62
7
  6
CONTINUOUS
 70
0
 71
3
 72
8
 73
4
 74
0
 42
0.0000001
 43
0.0000001
 44
0.0000000001
 40
0.0
 40
0.0
 40
0.0
 40
0.0
 40
1.0
 40
1.0
 40
1.0
 40
1.0
 10
452.363470252
 20
1352.8719339226
 30
0.0
 10
452.7539397265
 20
1352.1960845916
 30
0.0
 10
453.2296622101
 20
1351.5603208985
 30
0.0
 10
453.7823348284
 20
1351.0091478715
 30
0.0
  0
SPLINE
  5
309
100
AcDbEntity
  8
0
100
AcDbSpline
 62
7
  6
CONTINUOUS
 70
0
 71
3
 72
9
 73
5
 74
0
 42
0.0000001
 43
0.0000001
 44
0.0000000001
 40
0.0
 40
0.0
 40
0.0
 40
0.0
 40
0.2702229703
 40
1.0
 40
1.0
 40
1.0
 40
1.0
 10
715.7325370526
 20
159.2055089062
 30
0.0
 10
715.7325469639
 20
159.0079642951
 30
0.0
 10
715.690494877
 20
158.2841569403
 30
0.0
 10
715.3053921041
 20
157.5332020382
 30
0.0
 10
714.8560892523
 20
157.2455434211
 30
0.0
  0
SPLINE
  5
30A
100
AcDbEntity
  8
0
100
AcDbSpline
 62
7
  6
CONTINUOUS
 70
0
 71
3
 72
11
 73
7
 74
0
 42
0.0000001
 43
0.0000001
 44
0.0000000001
 40
0.0
 40
0.0
 40
0.0
 40
0.0
 40
0.1835917426
 40
0.4352068886
 40
0.7283955701
 40
1.0
 40
1.0
 40
1.0
 40
1.0
 10
468.6865999795
 20
1354.791802127
 30
0.0
 10
468.0065454275
 20
1354.3996929725
 30
0.0
 10
465.8874197346
 20
1354.5242151502
 30
0.0
 10
463.4205251037
 20
1356.5533391439
 30
0.0
 10
461.4754564341
 20
1359.4981386483
 30
0.0
 10
460.8404513683
 20
1361.9131312148
 30
0.0
 10
460.8404513683
 20
1363.0744539625
 30
0.0
  0
SPLINE
  5
30B
100
AcDbEntity
  8
0
100
AcDbSpline
 62
7
  6
CONTINUOUS
 70
0
 71
3
 72
8
 73
4
 74
0
 42
0.0000001
 43
0.0000001
 44
0.0000000001
 40
0.0
 40
0.0
 40
0.0
 40
0.0
 40
1.0
 40
1.0
 40
1.0
 40
1.0
 10
460.8404513683
 20
1363.0744539625
 30
0.0
 10
460.8404513683
 20
1363.4599822442
 30
0.0
 10
460.8774078425
 20
1363.8488097291
 30
0.0
 10
460.9645386593
 20
1364.2243630233
 30
0.0
  0
SPLINE
  5
30C
100
AcDbEntity
  8
0
100
AcDbSpline
 62
7
  6
CONTINUOUS
 70
0
 71
3
 72
9
 73
5
 74
0
 42
0.0000001
 43
0.0000001
 44
0.0000000001
 40
0.0
 40
0.0
 40
0.0
 40
0.0
 40
0.2787808137
 40
1.0
 40
1.0
 40
1.0
 40
1.0
 10
460.9645386593
 20
1364.2243630233
 30
0.0
 10
461.0113919084
 20
1364.4263109989
 30
0.0
 10
461.2259468048
 20
1365.1360608144
 30
0.0
 10
461.722103637
 20
1365.7820799361
 30
0.0
 10
462.1867291839
 20
1366.0499759892
 30
0.0
  0
SPLINE
  5
30D
100
AcDbEntity
  8
0
100
AcDbSpline
 62
7
  6
CONTINUOUS
 70
0
 71
3
 72
12
 73
8
 74
0
 42
0.0000001
 43
0.0000001
 44
0.0000000001
 40
0.0
 40
0.0
 40
0.0
 40
0.0
 40
0.1833928766
 40
0.434735473
 40
0.580325271
 40
0.7286897729
 40
1.0
 40
1.0
 40
1.0
 40
1.0
 10
698.7044745104
 20
209.292110002
 30
0.0
 10
698.1290437322
 20
208.9603253309
 30
0.0
 10
696.335676741
 20
209.0647562768
 30
0.0
 10
694.6721294641
 20
210.4388281524
 30
0.0
 10
693.4429561026
 20
211.9909552912
 30
0.0
 10
692.4698532737
 20
213.7965301516
 30
0.0
 10
692.0654256467
 20
215.3178499774
 30
0.0
 10
692.0654256467
 20
216.3005076866
 30
0.0
  0
SPLINE
  5
30E
100
AcDbEntity
  8
0
100
AcDbSpline
 62
7
  6
CONTINUOUS
 70
0
 71
3
 72
9
 73
5
 74
0
 42
0.0000001
 43
0.0000001
 44
0.0000000001
 40
0.0
 40
0.0
 40
0.0
 40
0.0
 40
0.2335270221
 40
1.0
 40
1.0
 40
1.0
 40
1.0
 10
700.8839444269
 20
1231.3338844175
 30
0.0
 10
701.0941270626
 20
1231.2125381613
 30
0.0
 10
702.067768247
 20
1230.8335459562
 30
0.0
 10
703.1969439826
 20
1230.8492076452
 30
0.0
 10
703.9462425638
 20
1231.1195296017
 30
0.0
  0
SPLINE
  5
30F
100
AcDbEntity
  8
0
100
AcDbSpline
 62
7
  6
CONTINUOUS
 70
0
 71
3
 72
8
 73
4
 74
0
 42
0.0000001
 43
0.0000001
 44
0.0000000001
 40
0.0
 40
0.0
 40
0.0
 40
0.0
 40
1.0
 40
1.0
 40
1.0
 40
1.0
 10
692.0654256467
 20
1216.5159686703
 30
0.0
 10
692.0654256467
 20
1216.8751891112
 30
0.0
 10
692.1032579233
 20
1217.2384121205
 30
0.0
 10
692.1943543348
 20
1217.585889845
 30
0.0
  0
SPLINE
  5
310
100
AcDbEntity
  8
0
100
AcDbSpline
 62
7
  6
CONTINUOUS
 70
0
 71
3
 72
9
 73
5
 74
0
 42
0.0000001
 43
0.0000001
 44
0.0000000001
 40
0.0
 40
0.0
 40
0.0
 40
0.0
 40
0.2768213698
 40
1.0
 40
1.0
 40
1.0
 40
1.0
 10
692.1943543348
 20
1217.585889845
 30
0.0
 10
692.2362633795
 20
1217.7457475082
 30
0.0
 10
692.42472416
 20
1218.3107600835
 30
0.0
 10
692.8305696592
 20
1218.8180671897
 30
0.0
 10
693.2045838051
 20
1219.0337180813
 30
0.0
  0
SPLINE
  5
311
100
AcDbEntity
  8
0
100
AcDbSpline
 62
7
  6
CONTINUOUS
 70
0
 71
3
 72
8
 73
4
 74
0
 42
0.0000001
 43
0.0000001
 44
0.0000000001
 40
0.0
 40
0.0
 40
0.0
 40
0.0
 40
1.0
 40
1.0
 40
1.0
 40
1.0
 10
692.0654256467
 20
502.0763536819
 30
0.0
 10
692.0654256467
 20
502.4355741229
 30
0.0
 10
692.1032579233
 20
502.7987971322
 30
0.0
 10
692.1943543348
 20
503.1462748566
 30
0.0
  0
SPLINE
  5
312
100
AcDbEntity
  8
0
100
AcDbSpline
 62
7
  6
CONTINUOUS
 70
0
 71
3
 72
9
 73
5
 74
0
 42
0.0000001
 43
0.0000001
 44
0.0000000001
 40
0.0
 40
0.0
 40
0.0
 40
0.0
 40
0.2768213698
 40
1.0
 40
1.0
 40
1.0
 40
1.0
 10
692.1943543348
 20
503.1462748566
 30
0.0
 10
692.2362633795
 20
503.3061325198
 30
0.0
 10
692.42472416
 20
503.8711450951
 30
0.0
 10
692.8305696592
 20
504.3784522013
 30
0.0
 10
693.2045838051
 20
504.594103093
 30
0.0
  0
SPLINE
  5
313
100
AcDbEntity
  8
0
100
AcDbSpline
 62
7
  6
CONTINUOUS
 70
0
 71
3
 72
8
 73
4
 74
0
 42
0.0000001
 43
0.0000001
 44
0.0000000001
 40
0.0
 40
0.0
 40
0.0
 40
0.0
 40
1.0
 40
1.0
 40
1.0
 40
1.0
 10
692.0654256467
 20
930.7401226749
 30
0.0
 10
692.0654256467
 20
931.0993431159
 30
0.0
 10
692.1032579233
 20
931.4625661252
 30
0.0
 10
692.1943543348
 20
931.8100438496
 30
0.0
  0
SPLINE
  5
314
100
AcDbEntity
  8
0
100
AcDbSpline
 62
7
  6
CONTINUOUS
 70
0
 71
3
 72
9
 73
5
 74
0
 42
0.0000001
 43
0.0000001
 44
0.0000000001
 40
0.0
 40
0.0
 40
0.0
 40
0.0
 40
0.2768213698
 40
1.0
 40
1.0
 40
1.0
 40
1.0
 10
692.1943543348
 20
931.8100438496
 30
0.0
 10
692.2362633795
 20
931.9699015129
 30
0.0
 10
692.42472416
 20
932.5349140882
 30
0.0
 10
692.8305696592
 20
933.0422211943
 30
0.0
 10
693.2045838051
 20
933.257872086
 30
0.0
  0
SPLINE
  5
315
100
AcDbEntity
  8
0
100
AcDbSpline
 62
7
  6
CONTINUOUS
 70
0
 71
3
 72
8
 73
4
 74
0
 42
0.0000001
 43
0.0000001
 44
0.0000000001
 40
0.0
 40
0.0
 40
0.0
 40
0.0
 40
1.0
 40
1.0
 40
1.0
 40
1.0
 10
699.6771137625
 20
161.8896134239
 30
0.0
 10
701.8970696343
 20
160.6140709063
 30
0.0
 10
704.13169645
 20
159.3641272537
 30
0.0
 10
706.3490068028
 20
158.0839914851
 30
0.0
  0
SPLINE
  5
316
100
AcDbEntity
  8
0
100
AcDbSpline
 62
7
  6
CONTINUOUS
 70
0
 71
3
 72
8
 73
4
 74
0
 42
0.0000001
 43
0.0000001
 44
0.0000000001
 40
0.0
 40
0.0
 40
0.0
 40
0.0
 40
1.0
 40
1.0
 40
1.0
 40
1.0
 10
692.0654256467
 20
216.3005076866
 30
0.0
 10
692.0654256467
 20
216.6597281275
 30
0.0
 10
692.1032579233
 20
217.0229511368
 30
0.0
 10
692.1943543348
 20
217.3704288613
 30
0.0
  0
SPLINE
  5
317
100
AcDbEntity
  8
0
100
AcDbSpline
 62
7
  6
CONTINUOUS
 70
0
 71
3
 72
9
 73
5
 74
0
 42
0.0000001
 43
0.0000001
 44
0.0000000001
 40
0.0
 40
0.0
 40
0.0
 40
0.0
 40
0.2768213698
 40
1.0
 40
1.0
 40
1.0
 40
1.0
 10
692.1943543348
 20
217.3704288613
 30
0.0
 10
692.2362633795
 20
217.5302865245
 30
0.0
 10
692.42472416
 20
218.0952990998
 30
0.0
 10
692.8305696592
 20
218.602606206
 30
0.0
 10
693.2045838051
 20
218.8182570976
 30
0.0
  0
SPLINE
  5
318
100
AcDbEntity
  8
0
100
AcDbSpline
 62
7
  6
CONTINUOUS
 70
0
 71
3
 72
8
 73
4
 74
0
 42
0.0000001
 43
0.0000001
 44
0.0000000001
 40
0.0
 40
0.0
 40
0.0
 40
0.0
 40
1.0
 40
1.0
 40
1.0
 40
1.0
 10
657.2048485373
 20
190.9473909296
 30
0.0
 10
657.355014936
 20
190.8606942802
 30
0.0
 10
657.4996507193
 20
190.7630934298
 30
0.0
 10
657.6342771165
 20
190.6538140197
 30
0.0
  0
SPLINE
  5
319
100
AcDbEntity
  8
0
100
AcDbSpline
 62
7
  6
CONTINUOUS
 70
0
 71
3
 72
9
 73
5
 74
0
 42
0.0000001
 43
0.0000001
 44
0.0000000001
 40
0.0
 40
0.0
 40
0.0
 40
0.0
 40
0.2837212947
 40
1.0
 40
1.0
 40
1.0
 40
1.0
 10
657.6342771165
 20
190.6538140197
 30
0.0
 10
657.7487280893
 20
190.5609114756
 30
0.0
 10
658.1279610071
 20
190.2093770619
 30
0.0
 10
658.3763464384
 20
189.6865651932
 30
0.0
 10
658.3763464167
 20
189.3144143141
 30
0.0
  0
SPLINE
  5
31A
100
AcDbEntity
  8
0
100
AcDbSpline
 62
7
  6
CONTINUOUS
 70
0
 71
3
 72
12
 73
8
 74
0
 42
0.0000001
 43
0.0000001
 44
0.0000000001
 40
0.0
 40
0.0
 40
0.0
 40
0.0
 40
0.1833928766
 40
0.434735473
 40
0.580325271
 40
0.7286897729
 40
1.0
 40
1.0
 40
1.0
 40
1.0
 10
698.7044745104
 20
923.7317249904
 30
0.0
 10
698.1290437322
 20
923.3999403193
 30
0.0
 10
696.335676741
 20
923.5043712652
 30
0.0
 10
694.6721294641
 20
924.8784431407
 30
0.0
 10
693.4429561026
 20
926.4305702796
 30
0.0
 10
692.4698532737
 20
928.23614514
 30
0.0
 10
692.0654256467
 20
929.7574649658
 30
0.0
 10
692.0654256467
 20
930.7401226749
 30
0.0
  0
SPLINE
  5
31B
100
AcDbEntity
  8
0
100
AcDbSpline
 62
7
  6
CONTINUOUS
 70
0
 71
3
 72
12
 73
8
 74
0
 42
0.0000001
 43
0.0000001
 44
0.0000000001
 40
0.0
 40
0.0
 40
0.0
 40
0.0
 40
0.1833928766
 40
0.434735473
 40
0.580325271
 40
0.7286897729
 40
1.0
 40
1.0
 40
1.0
 40
1.0
 10
698.7044745104
 20
495.0679559974
 30
0.0
 10
698.1290437322
 20
494.7361713262
 30
0.0
 10
696.335676741
 20
494.8406022722
 30
0.0
 10
694.6721294641
 20
496.2146741477
 30
0.0
 10
693.4429561026
 20
497.7668012866
 30
0.0
 10
692.4698532737
 20
499.572376147
 30
0.0
 10
692.0654256467
 20
501.0936959728
 30
0.0
 10
692.0654256467
 20
502.0763536819
 30
0.0
  0
SPLINE
  5
31C
100
AcDbEntity
  8
0
100
AcDbSpline
 62
7
  6
CONTINUOUS
 70
0
 71
3
 72
12
 73
8
 74
0
 42
0.0000001
 43
0.0000001
 44
0.0000000001
 40
0.0
 40
0.0
 40
0.0
 40
0.0
 40
0.1833928766
 40
0.434735473
 40
0.580325271
 40
0.7286897729
 40
1.0
 40
1.0
 40
1.0
 40
1.0
 10
698.7044745104
 20
1209.5075709858
 30
0.0
 10
698.1290437322
 20
1209.1757863146
 30
0.0
 10
696.335676741
 20
1209.2802172605
 30
0.0
 10
694.6721294641
 20
1210.6542891361
 30
0.0
 10
693.4429561026
 20
1212.206416275
 30
0.0
 10
692.4698532737
 20
1214.0119911354
 30
0.0
 10
692.0654256467
 20
1215.5333109612
 30
0.0
 10
692.0654256467
 20
1216.5159686703
 30
0.0
  0
SPLINE
  5
31D
100
AcDbEntity
  8
0
100
AcDbSpline
 62
7
  6
CONTINUOUS
 70
0
 71
3
 72
8
 73
4
 74
0
 42
0.0000001
 43
0.0000001
 44
0.0000000001
 40
0.0
 40
0.0
 40
0.0
 40
0.0
 40
1.0
 40
1.0
 40
1.0
 40
1.0
 10
450.8961357512
 20
1353.2454757239
 30
0.0
 10
450.7440015877
 20
1353.5943800885
 30
0.0
 10
450.6129494012
 20
1353.9535182822
 30
0.0
 10
450.5082317876
 20
1354.3194599178
 30
0.0
  0
SPLINE
  5
31E
100
AcDbEntity
  8
0
100
AcDbSpline
 62
7
  6
CONTINUOUS
 70
0
 71
3
 72
9
 73
5
 74
0
 42
0.0000001
 43
0.0000001
 44
0.0000000001
 40
0.0
 40
0.0
 40
0.0
 40
0.0
 40
0.2768097453
 40
1.0
 40
1.0
 40
1.0
 40
1.0
 10
450.3629766892
 20
1357.2047934355
 30
0.0
 10
450.4048979131
 20
1357.3645866434
 30
0.0
 10
450.5933956745
 20
1357.9293902197
 30
0.0
 10
450.9991560906
 20
1358.4364700621
 30
0.0
 10
451.373057837
 20
1358.6520561458
 30
0.0
  0
SPLINE
  5
31F
100
AcDbEntity
  8
0
100
AcDbSpline
 62
7
  6
CONTINUOUS
 70
0
 71
3
 72
9
 73
5
 74
0
 42
0.0000001
 43
0.0000001
 44
0.0000000001
 40
0.0
 40
0.0
 40
0.0
 40
0.0
 40
0.2208390513
 40
1.0
 40
1.0
 40
1.0
 40
1.0
 10
448.4612266443
 20
1377.6647048512
 30
0.0
 10
448.4611907526
 20
1377.5695338487
 30
0.0
 10
448.5381236289
 20
1377.135590774
 30
0.0
 10
448.9027915177
 20
1376.811979726
 30
0.0
 10
449.1935879459
 20
1376.6440921281
 30
0.0
  0
LINE
  5
320
100
AcDbEntity
  8
0
100
AcDbLine
 62
7
  6
CONTINUOUS
 10
714.8560892523
 20
1272.9455541136
 11
714.5221241713
 21
1272.7590086685
  0
SPLINE
  5
321
100
AcDbEntity
  8
0
100
AcDbSpline
 62
7
  6
CONTINUOUS
 70
0
 71
3
 72
10
 73
6
 74
0
 42
0.0000001
 43
0.0000001
 44
0.0000000001
 40
0.0
 40
0.0
 40
0.0
 40
0.0
 40
0.4499110126
 40
0.7673771018
 40
1.0
 40
1.0
 40
1.0
 40
1.0
 10
714.8560892523
 20
1272.9455541136
 30
0.0
 10
714.9900489434
 20
1273.0132763993
 30
0.0
 10
715.210922669
 20
1273.1565298001
 30
0.0
 10
715.5045209054
 20
1273.2730377891
 30
0.0
 10
715.6574867283
 20
1273.4489178726
 30
0.0
 10
715.732468756
 20
1273.4288904308
 30
0.0
  0
SPLINE
  5
322
100
AcDbEntity
  8
0
100
AcDbSpline
 62
7
  6
CONTINUOUS
 70
0
 71
3
 72
8
 73
4
 74
0
 42
0.0000001
 43
0.0000001
 44
0.0000000001
 40
0.0
 40
0.0
 40
0.0
 40
0.0
 40
1.0
 40
1.0
 40
1.0
 40
1.0
 10
392.5370012184
 20
325.6224658491
 30
0.0
 10
392.726425249
 20
325.7316848761
 30
0.0
 10
392.9348652158
 20
325.8120565744
 30
0.0
 10
393.1478454014
 20
325.8615510165
 30
0.0
  0
SPLINE
  5
323
100
AcDbEntity
  8
0
100
AcDbSpline
 62
7
  6
CONTINUOUS
 70
0
 71
3
 72
11
 73
7
 74
0
 42
0.0000001
 43
0.0000001
 44
0.0000000001
 40
0.0
 40
0.0
 40
0.0
 40
0.0
 40
0.1980795881
 40
0.4559222641
 40
0.7401060645
 40
1.0
 40
1.0
 40
1.0
 40
1.0
 10
393.3757885904
 20
325.9031847896
 30
0.0
 10
394.1606647981
 20
326.0089742698
 30
0.0
 10
396.0333461861
 20
325.4004914988
 30
0.0
 10
398.2138665077
 20
323.3477051686
 30
0.0
 10
399.8644270128
 20
320.5526081604
 30
0.0
 10
400.3831498296
 20
318.3789373278
 30
0.0
 10
400.3831498296
 20
317.3398140136
 30
0.0
  0
SPLINE
  5
324
100
AcDbEntity
  8
0
100
AcDbSpline
 62
7
  6
CONTINUOUS
 70
0
 71
3
 72
8
 73
4
 74
0
 42
0.0000001
 43
0.0000001
 44
0.0000000001
 40
0.0
 40
0.0
 40
0.0
 40
0.0
 40
1.0
 40
1.0
 40
1.0
 40
1.0
 10
389.2596937017
 20
1384.1627527398
 30
0.0
 10
389.4169841972
 20
1384.2565038442
 30
0.0
 10
389.6163002095
 20
1384.3460222619
 30
0.0
 10
389.792538751
 20
1384.2963277349
 30
0.0
  0
SPLINE
  5
325
100
AcDbEntity
  8
0
100
AcDbSpline
 62
7
  6
CONTINUOUS
 70
0
 71
3
 72
8
 73
4
 74
0
 42
0.0000001
 43
0.0000001
 44
0.0000000001
 40
0.0
 40
0.0
 40
0.0
 40
0.0
 40
1.0
 40
1.0
 40
1.0
 40
1.0
 10
389.2596937017
 20
1384.1627527398
 30
0.0
 10
388.8709036344
 20
1383.9103691309
 30
0.0
 10
388.5903317548
 20
1383.4627282457
 30
0.0
 10
388.4772221845
 20
1383.0132158125
 30
0.0
  0
SPLINE
  5
326
100
AcDbEntity
  8
0
100
AcDbSpline
 62
7
  6
CONTINUOUS
 70
0
 71
3
 72
8
 73
4
 74
0
 42
0.0000001
 43
0.0000001
 44
0.0000000001
 40
0.0
 40
0.0
 40
0.0
 40
0.0
 40
1.0
 40
1.0
 40
1.0
 40
1.0
 10
388.4772221845
 20
1383.0132158125
 30
0.0
 10
388.4109013689
 20
1382.7496480956
 30
0.0
 10
388.3832873372
 20
1382.4750822484
 30
0.0
 10
388.38324601
 20
1382.2032985288
 30
0.0
  0
SPLINE
  5
327
100
AcDbEntity
  8
0
100
AcDbSpline
 62
7
  6
CONTINUOUS
 70
0
 71
3
 72
9
 73
5
 74
0
 42
0.0000001
 43
0.0000001
 44
0.0000000001
 40
0.0
 40
0.0
 40
0.0
 40
0.0
 40
0.2236097662
 40
1.0
 40
1.0
 40
1.0
 40
1.0
 10
392.9367673891
 20
325.6517156278
 30
0.0
 10
392.8219960832
 20
325.5034374149
 30
0.0
 10
392.3832891249
 20
324.7815848947
 30
0.0
 10
392.2513791585
 20
323.9103487735
 30
0.0
 10
392.2513791585
 20
323.2593100532
 30
0.0
  0
SPLINE
  5
328
100
AcDbEntity
  8
0
100
AcDbSpline
 62
7
  6
CONTINUOUS
 70
0
 71
3
 72
8
 73
4
 74
0
 42
0.0000001
 43
0.0000001
 44
0.0000000001
 40
0.0
 40
0.0
 40
0.0
 40
0.0
 40
1.0
 40
1.0
 40
1.0
 40
1.0
 10
392.5370012184
 20
1040.0620808375
 30
0.0
 10
392.726425249
 20
1040.1712998645
 30
0.0
 10
392.9348652158
 20
1040.2516715627
 30
0.0
 10
393.1478454014
 20
1040.3011660048
 30
0.0
  0
SPLINE
  5
329
100
AcDbEntity
  8
0
100
AcDbSpline
 62
7
  6
CONTINUOUS
 70
0
 71
3
 72
11
 73
7
 74
0
 42
0.0000001
 43
0.0000001
 44
0.0000000001
 40
0.0
 40
0.0
 40
0.0
 40
0.0
 40
0.1980795881
 40
0.4559222641
 40
0.7401060645
 40
1.0
 40
1.0
 40
1.0
 40
1.0
 10
393.3757885904
 20
1040.342799778
 30
0.0
 10
394.1606647981
 20
1040.4485892581
 30
0.0
 10
396.0333461861
 20
1039.8401064872
 30
0.0
 10
398.2138665077
 20
1037.787320157
 30
0.0
 10
399.8644270128
 20
1034.9922231488
 30
0.0
 10
400.3831498296
 20
1032.8185523162
 30
0.0
 10
400.3831498296
 20
1031.779429002
 30
0.0
  0
SPLINE
  5
32A
100
AcDbEntity
  8
0
100
AcDbSpline
 62
7
  6
CONTINUOUS
 70
0
 71
3
 72
9
 73
5
 74
0
 42
0.0000001
 43
0.0000001
 44
0.0000000001
 40
0.0
 40
0.0
 40
0.0
 40
0.0
 40
0.2236097662
 40
1.0
 40
1.0
 40
1.0
 40
1.0
 10
392.9367673891
 20
1040.0913306161
 30
0.0
 10
392.8219960832
 20
1039.9430524033
 30
0.0
 10
392.3832891249
 20
1039.2211998831
 30
0.0
 10
392.2513791585
 20
1038.3499637619
 30
0.0
 10
392.2513791585
 20
1037.6989250416
 30
0.0
  0
SPLINE
  5
32B
100
AcDbEntity
  8
0
100
AcDbSpline
 62
7
  6
CONTINUOUS
 70
0
 71
3
 72
8
 73
4
 74
0
 42
0.0000001
 43
0.0000001
 44
0.0000000001
 40
0.0
 40
0.0
 40
0.0
 40
0.0
 40
1.0
 40
1.0
 40
1.0
 40
1.0
 10
392.5370012184
 20
611.3983118444
 30
0.0
 10
392.726425249
 20
611.5075308714
 30
0.0
 10
392.9348652158
 20
611.5879025697
 30
0.0
 10
393.1478454014
 20
611.6373970118
 30
0.0
  0
SPLINE
  5
32C
100
AcDbEntity
  8
0
100
AcDbSpline
 62
7
  6
CONTINUOUS
 70
0
 71
3
 72
11
 73
7
 74
0
 42
0.0000001
 43
0.0000001
 44
0.0000000001
 40
0.0
 40
0.0
 40
0.0
 40
0.0
 40
0.1980795881
 40
0.4559222641
 40
0.7401060645
 40
1.0
 40
1.0
 40
1.0
 40
1.0
 10
393.3757885904
 20
611.6790307849
 30
0.0
 10
394.1606647981
 20
611.7848202651
 30
0.0
 10
396.0333461861
 20
611.1763374942
 30
0.0
 10
398.2138665077
 20
609.1235511639
 30
0.0
 10
399.8644270128
 20
606.3284541558
 30
0.0
 10
400.3831498296
 20
604.1547833231
 30
0.0
 10
400.3831498296
 20
603.115660009
 30
0.0
  0
SPLINE
  5
32D
100
AcDbEntity
  8
0
100
AcDbSpline
 62
7
  6
CONTINUOUS
 70
0
 71
3
 72
9
 73
5
 74
0
 42
0.0000001
 43
0.0000001
 44
0.0000000001
 40
0.0
 40
0.0
 40
0.0
 40
0.0
 40
0.2236097662
 40
1.0
 40
1.0
 40
1.0
 40
1.0
 10
392.9367673891
 20
611.4275616231
 30
0.0
 10
392.8219960832
 20
611.2792834103
 30
0.0
 10
392.3832891249
 20
610.5574308901
 30
0.0
 10
392.2513791585
 20
609.6861947689
 30
0.0
 10
392.2513791585
 20
609.0351560486
 30
0.0
  0
SPLINE
  5
32E
100
AcDbEntity
  8
0
100
AcDbSpline
 62
7
  6
CONTINUOUS
 70
0
 71
3
 72
8
 73
4
 74
0
 42
0.0000001
 43
0.0000001
 44
0.0000000001
 40
0.0
 40
0.0
 40
0.0
 40
0.0
 40
1.0
 40
1.0
 40
1.0
 40
1.0
 10
593.3156148183
 20
1268.8991648229
 30
0.0
 10
593.2187280727
 20
1268.8315918192
 30
0.0
 10
593.1253035657
 20
1268.7586241811
 30
0.0
 10
593.0371262905
 20
1268.6800244327
 30
0.0
  0
SPLINE
  5
32F
100
AcDbEntity
  8
0
100
AcDbSpline
 62
7
  6
CONTINUOUS
 70
0
 71
3
 72
8
 73
4
 74
0
 42
0.0000001
 43
0.0000001
 44
0.0000000001
 40
0.0
 40
0.0
 40
0.0
 40
0.0
 40
1.0
 40
1.0
 40
1.0
 40
1.0
 10
594.8325295021
 20
1269.5509128286
 30
0.0
 10
594.5309698045
 20
1269.4770967747
 30
0.0
 10
594.2336586611
 20
1269.3793527517
 30
0.0
 10
593.9500749856
 20
1269.2529907317
 30
0.0
  0
SPLINE
  5
330
100
AcDbEntity
  8
0
100
AcDbSpline
 62
7
  6
CONTINUOUS
 70
0
 71
3
 72
8
 73
4
 74
0
 42
0.0000001
 43
0.0000001
 44
0.0000000001
 40
0.0
 40
0.0
 40
0.0
 40
0.0
 40
1.0
 40
1.0
 40
1.0
 40
1.0
 10
593.9500749856
 20
1269.2529907317
 30
0.0
 10
593.8187423181
 20
1269.1944702222
 30
0.0
 10
593.6899858751
 20
1269.1296024576
 30
0.0
 10
593.5654678605
 20
1269.0577123774
 30
0.0
  0
SPLINE
  5
331
100
AcDbEntity
  8
0
100
AcDbSpline
 62
7
  6
CONTINUOUS
 70
0
 71
3
 72
8
 73
4
 74
0
 42
0.0000001
 43
0.0000001
 44
0.0000000001
 40
0.0
 40
0.0
 40
0.0
 40
0.0
 40
1.0
 40
1.0
 40
1.0
 40
1.0
 10
392.5370012184
 20
1325.8379268328
 30
0.0
 10
392.726425249
 20
1325.9471458598
 30
0.0
 10
392.9348652158
 20
1326.0275175581
 30
0.0
 10
393.1478454014
 20
1326.0770120002
 30
0.0
  0
SPLINE
  5
332
100
AcDbEntity
  8
0
100
AcDbSpline
 62
7
  6
CONTINUOUS
 70
0
 71
3
 72
11
 73
7
 74
0
 42
0.0000001
 43
0.0000001
 44
0.0000000001
 40
0.0
 40
0.0
 40
0.0
 40
0.0
 40
0.1980795881
 40
0.4559222641
 40
0.7401060645
 40
1.0
 40
1.0
 40
1.0
 40
1.0
 10
393.3757885904
 20
1326.1186457733
 30
0.0
 10
394.1606647981
 20
1326.2244352535
 30
0.0
 10
396.0333461861
 20
1325.6159524825
 30
0.0
 10
398.2138665077
 20
1323.5631661523
 30
0.0
 10
399.8644270128
 20
1320.7680691441
 30
0.0
 10
400.3831498296
 20
1318.5943983115
 30
0.0
 10
400.3831498296
 20
1317.5552749974
 30
0.0
  0
SPLINE
  5
333
100
AcDbEntity
  8
0
100
AcDbSpline
 62
7
  6
CONTINUOUS
 70
0
 71
3
 72
9
 73
5
 74
0
 42
0.0000001
 43
0.0000001
 44
0.0000000001
 40
0.0
 40
0.0
 40
0.0
 40
0.0
 40
0.2236097662
 40
1.0
 40
1.0
 40
1.0
 40
1.0
 10
392.9367673891
 20
1325.8671766115
 30
0.0
 10
392.8219960832
 20
1325.7188983987
 30
0.0
 10
392.3832891249
 20
1324.9970458785
 30
0.0
 10
392.2513791585
 20
1324.1258097573
 30
0.0
 10
392.2513791585
 20
1323.4747710369
 30
0.0
  0
SPLINE
  5
334
100
AcDbEntity
  8
0
100
AcDbSpline
 62
7
  6
CONTINUOUS
 70
0
 71
3
 72
8
 73
4
 74
0
 42
0.0000001
 43
0.0000001
 44
0.0000000001
 40
0.0
 40
0.0
 40
0.0
 40
0.0
 40
1.0
 40
1.0
 40
1.0
 40
1.0
 10
446.6610578228
 20
1353.5682973104
 30
0.0
 10
446.5641710772
 20
1353.5007243067
 30
0.0
 10
446.4707465702
 20
1353.4277566686
 30
0.0
 10
446.3825692951
 20
1353.3491569202
 30
0.0
  0
SPLINE
  5
335
100
AcDbEntity
  8
0
100
AcDbSpline
 62
7
  6
CONTINUOUS
 70
0
 71
3
 72
8
 73
4
 74
0
 42
0.0000001
 43
0.0000001
 44
0.0000000001
 40
0.0
 40
0.0
 40
0.0
 40
0.0
 40
1.0
 40
1.0
 40
1.0
 40
1.0
 10
448.1779725067
 20
1354.2200453161
 30
0.0
 10
447.876412809
 20
1354.1462292622
 30
0.0
 10
447.5791016656
 20
1354.0484852392
 30
0.0
 10
447.2955179901
 20
1353.9221232192
 30
0.0
  0
SPLINE
  5
336
100
AcDbEntity
  8
0
100
AcDbSpline
 62
7
  6
CONTINUOUS
 70
0
 71
3
 72
8
 73
4
 74
0
 42
0.0000001
 43
0.0000001
 44
0.0000000001
 40
0.0
 40
0.0
 40
0.0
 40
0.0
 40
1.0
 40
1.0
 40
1.0
 40
1.0
 10
447.2955179901
 20
1353.9221232192
 30
0.0
 10
447.1641853226
 20
1353.8636027097
 30
0.0
 10
447.0354288796
 20
1353.7987349451
 30
0.0
 10
446.910910865
 20
1353.726844865
 30
0.0
  0
SPLINE
  5
337
100
AcDbEntity
  8
0
100
AcDbSpline
 62
7
  6
CONTINUOUS
 70
0
 71
3
 72
8
 73
4
 74
0
 42
0.0000001
 43
0.0000001
 44
0.0000000001
 40
0.0
 40
0.0
 40
0.0
 40
0.0
 40
1.0
 40
1.0
 40
1.0
 40
1.0
 10
634.3685272186
 20
186.0041278031
 30
0.0
 10
634.5579512493
 20
186.1133468302
 30
0.0
 10
634.7663912161
 20
186.1937185284
 30
0.0
 10
634.9793714017
 20
186.2432129705
 30
0.0
  0
SPLINE
  5
338
100
AcDbEntity
  8
0
100
AcDbSpline
 62
7
  6
CONTINUOUS
 70
0
 71
3
 72
11
 73
7
 74
0
 42
0.0000001
 43
0.0000001
 44
0.0000000001
 40
0.0
 40
0.0
 40
0.0
 40
0.0
 40
0.1980795881
 40
0.4559222641
 40
0.7401060645
 40
1.0
 40
1.0
 40
1.0
 40
1.0
 10
635.2073145907
 20
186.2848467436
 30
0.0
 10
635.9921907983
 20
186.3906362238
 30
0.0
 10
637.8648721864
 20
185.7821534529
 30
0.0
 10
640.0453925079
 20
183.7293671226
 30
0.0
 10
641.6959530131
 20
180.9342701145
 30
0.0
 10
642.2146758299
 20
178.7605992818
 30
0.0
 10
642.2146758299
 20
177.7214759677
 30
0.0
  0
SPLINE
  5
339
100
AcDbEntity
  8
0
100
AcDbSpline
 62
7
  6
CONTINUOUS
 70
0
 71
3
 72
9
 73
5
 74
0
 42
0.0000001
 43
0.0000001
 44
0.0000000001
 40
0.0
 40
0.0
 40
0.0
 40
0.0
 40
0.2236097662
 40
1.0
 40
1.0
 40
1.0
 40
1.0
 10
634.7682933894
 20
186.0333775818
 30
0.0
 10
634.6535220835
 20
185.885099369
 30
0.0
 10
634.2148151251
 20
185.1632468488
 30
0.0
 10
634.0829051588
 20
184.2920107276
 30
0.0
 10
634.0829051588
 20
183.6409720073
 30
0.0
  0
SPLINE
  5
33A
100
AcDbEntity
  8
0
100
AcDbSpline
 62
7
  6
CONTINUOUS
 70
0
 71
3
 72
8
 73
4
 74
0
 42
0.0000001
 43
0.0000001
 44
0.0000000001
 40
0.0
 40
0.0
 40
0.0
 40
0.0
 40
1.0
 40
1.0
 40
1.0
 40
1.0
 10
634.3685272186
 20
900.4437427915
 30
0.0
 10
634.5579512493
 20
900.5529618185
 30
0.0
 10
634.7663912161
 20
900.6333335168
 30
0.0
 10
634.9793714017
 20
900.6828279589
 30
0.0
  0
SPLINE
  5
33B
100
AcDbEntity
  8
0
100
AcDbSpline
 62
7
  6
CONTINUOUS
 70
0
 71
3
 72
11
 73
7
 74
0
 42
0.0000001
 43
0.0000001
 44
0.0000000001
 40
0.0
 40
0.0
 40
0.0
 40
0.0
 40
0.1980795881
 40
0.4559222641
 40
0.7401060645
 40
1.0
 40
1.0
 40
1.0
 40
1.0
 10
635.2073145907
 20
900.724461732
 30
0.0
 10
635.9921907983
 20
900.8302512122
 30
0.0
 10
637.8648721864
 20
900.2217684412
 30
0.0
 10
640.0453925079
 20
898.168982111
 30
0.0
 10
641.6959530131
 20
895.3738851028
 30
0.0
 10
642.2146758299
 20
893.2002142702
 30
0.0
 10
642.2146758299
 20
892.1610909561
 30
0.0
  0
SPLINE
  5
33C
100
AcDbEntity
  8
0
100
AcDbSpline
 62
7
  6
CONTINUOUS
 70
0
 71
3
 72
9
 73
5
 74
0
 42
0.0000001
 43
0.0000001
 44
0.0000000001
 40
0.0
 40
0.0
 40
0.0
 40
0.0
 40
0.2236097662
 40
1.0
 40
1.0
 40
1.0
 40
1.0
 10
634.7682933894
 20
900.4729925702
 30
0.0
 10
634.6535220835
 20
900.3247143574
 30
0.0
 10
634.2148151251
 20
899.6028618372
 30
0.0
 10
634.0829051588
 20
898.731625716
 30
0.0
 10
634.0829051588
 20
898.0805869956
 30
0.0
  0
SPLINE
  5
33D
100
AcDbEntity
  8
0
100
AcDbSpline
 62
7
  6
CONTINUOUS
 70
0
 71
3
 72
8
 73
4
 74
0
 42
0.0000001
 43
0.0000001
 44
0.0000000001
 40
0.0
 40
0.0
 40
0.0
 40
0.0
 40
1.0
 40
1.0
 40
1.0
 40
1.0
 10
634.3685272186
 20
471.7799737985
 30
0.0
 10
634.5579512493
 20
471.8891928255
 30
0.0
 10
634.7663912161
 20
471.9695645238
 30
0.0
 10
634.9793714017
 20
472.0190589659
 30
0.0
  0
SPLINE
  5
33E
100
AcDbEntity
  8
0
100
AcDbSpline
 62
7
  6
CONTINUOUS
 70
0
 71
3
 72
11
 73
7
 74
0
 42
0.0000001
 43
0.0000001
 44
0.0000000001
 40
0.0
 40
0.0
 40
0.0
 40
0.0
 40
0.1980795881
 40
0.4559222641
 40
0.7401060645
 40
1.0
 40
1.0
 40
1.0
 40
1.0
 10
635.2073145907
 20
472.060692739
 30
0.0
 10
635.9921907983
 20
472.1664822192
 30
0.0
 10
637.8648721864
 20
471.5579994482
 30
0.0
 10
640.0453925079
 20
469.505213118
 30
0.0
 10
641.6959530131
 20
466.7101161098
 30
0.0
 10
642.2146758299
 20
464.5364452772
 30
0.0
 10
642.2146758299
 20
463.497321963
 30
0.0
  0
SPLINE
  5
33F
100
AcDbEntity
  8
0
100
AcDbSpline
 62
7
  6
CONTINUOUS
 70
0
 71
3
 72
9
 73
5
 74
0
 42
0.0000001
 43
0.0000001
 44
0.0000000001
 40
0.0
 40
0.0
 40
0.0
 40
0.0
 40
0.2236097662
 40
1.0
 40
1.0
 40
1.0
 40
1.0
 10
634.7682933894
 20
471.8092235772
 30
0.0
 10
634.6535220835
 20
471.6609453643
 30
0.0
 10
634.2148151251
 20
470.9390928442
 30
0.0
 10
634.0829051588
 20
470.0678567229
 30
0.0
 10
634.0829051588
 20
469.4168180026
 30
0.0
  0
SPLINE
  5
340
100
AcDbEntity
  8
0
100
AcDbSpline
 62
7
  6
CONTINUOUS
 70
0
 71
3
 72
8
 73
4
 74
0
 42
0.0000001
 43
0.0000001
 44
0.0000000001
 40
0.0
 40
0.0
 40
0.0
 40
0.0
 40
1.0
 40
1.0
 40
1.0
 40
1.0
 10
594.8563030309
 20
1269.6392838552
 30
0.0
 10
595.010506163
 20
1269.6477178131
 30
0.0
 10
595.1654201865
 20
1269.6535442396
 30
0.0
 10
595.3195767107
 20
1269.6442974219
 30
0.0
  0
SPLINE
  5
341
100
AcDbEntity
  8
0
100
AcDbSpline
 62
7
  6
CONTINUOUS
 70
0
 71
3
 72
9
 73
5
 74
0
 42
0.0000001
 43
0.0000001
 44
0.0000000001
 40
0.0
 40
0.0
 40
0.0
 40
0.0
 40
0.2293766236
 40
1.0
 40
1.0
 40
1.0
 40
1.0
 10
452.5677651144
 20
1353.7268584624
 30
0.0
 10
452.3034939358
 20
1353.8794320468
 30
0.0
 10
451.0733807556
 20
1354.4042515498
 30
0.0
 10
449.6748042581
 20
1354.4812654042
 30
0.0
 10
448.6626820973
 20
1354.3180193135
 30
0.0
  0
SPLINE
  5
342
100
AcDbEntity
  8
0
100
AcDbSpline
 62
7
  6
CONTINUOUS
 70
0
 71
3
 72
9
 73
5
 74
0
 42
0.0000001
 43
0.0000001
 44
0.0000000001
 40
0.0
 40
0.0
 40
0.0
 40
0.0
 40
0.2293766236
 40
1.0
 40
1.0
 40
1.0
 40
1.0
 10
599.2223221099
 20
1269.0577259748
 30
0.0
 10
598.9580509313
 20
1269.2102995593
 30
0.0
 10
597.727937751
 20
1269.7351190622
 30
0.0
 10
596.3293612536
 20
1269.8121329166
 30
0.0
 10
595.3172390928
 20
1269.648886826
 30
0.0
  0
SPLINE
  5
343
100
AcDbEntity
  8
0
100
AcDbSpline
 62
7
  6
CONTINUOUS
 70
0
 71
3
 72
9
 73
5
 74
0
 42
0.0000001
 43
0.0000001
 44
0.0000000001
 40
0.0
 40
0.0
 40
0.0
 40
0.0
 40
0.2208390513
 40
1.0
 40
1.0
 40
1.0
 40
1.0
 10
655.6545563097
 20
1203.7774016926
 30
0.0
 10
655.6545922014
 20
1203.8725726952
 30
0.0
 10
655.5776593251
 20
1204.3065157698
 30
0.0
 10
655.2129914363
 20
1204.6301268178
 30
0.0
 10
654.9221950081
 20
1204.7980144158
 30
0.0
  0
SPLINE
  5
344
100
AcDbEntity
  8
0
100
AcDbSpline
 62
7
  6
CONTINUOUS
 70
0
 71
3
 72
8
 73
4
 74
0
 42
0.0000001
 43
0.0000001
 44
0.0000000001
 40
0.0
 40
0.0
 40
0.0
 40
0.0
 40
1.0
 40
1.0
 40
1.0
 40
1.0
 10
655.6545562848
 20
163.7435913283
 30
0.0
 10
655.6544485646
 20
163.4589086266
 30
0.0
 10
655.4836561188
 20
163.1719301558
 30
0.0
 10
655.2745611711
 20
162.9787371042
 30
0.0
  0
SPLINE
  5
345
100
AcDbEntity
  8
0
100
AcDbSpline
 62
7
  6
CONTINUOUS
 70
0
 71
3
 72
8
 73
4
 74
0
 42
0.0000001
 43
0.0000001
 44
0.0000000001
 40
0.0
 40
0.0
 40
0.0
 40
0.0
 40
1.0
 40
1.0
 40
1.0
 40
1.0
 10
448.2017460354
 20
1354.3084163427
 30
0.0
 10
448.3559491675
 20
1354.3168503006
 30
0.0
 10
448.5108631911
 20
1354.3226767271
 30
0.0
 10
448.6650197153
 20
1354.3134299094
 30
0.0
  0
SPLINE
  5
346
100
AcDbEntity
  8
0
100
AcDbSpline
 62
7
  6
CONTINUOUS
 70
0
 71
3
 72
8
 73
4
 74
0
 42
0.0000001
 43
0.0000001
 44
0.0000000001
 40
0.0
 40
0.0
 40
0.0
 40
0.0
 40
1.0
 40
1.0
 40
1.0
 40
1.0
 10
634.3685272186
 20
1186.2195887869
 30
0.0
 10
634.5579512493
 20
1186.3288078139
 30
0.0
 10
634.7663912161
 20
1186.4091795121
 30
0.0
 10
634.9793714017
 20
1186.4586739542
 30
0.0
  0
SPLINE
  5
347
100
AcDbEntity
  8
0
100
AcDbSpline
 62
7
  6
CONTINUOUS
 70
0
 71
3
 72
11
 73
7
 74
0
 42
0.0000001
 43
0.0000001
 44
0.0000000001
 40
0.0
 40
0.0
 40
0.0
 40
0.0
 40
0.1980795881
 40
0.4559222641
 40
0.7401060645
 40
1.0
 40
1.0
 40
1.0
 40
1.0
 10
635.2073145907
 20
1186.5003077274
 30
0.0
 10
635.9921907983
 20
1186.6060972076
 30
0.0
 10
637.8648721864
 20
1185.9976144366
 30
0.0
 10
640.0453925079
 20
1183.9448281064
 30
0.0
 10
641.6959530131
 20
1181.1497310982
 30
0.0
 10
642.2146758299
 20
1178.9760602656
 30
0.0
 10
642.2146758299
 20
1177.9369369514
 30
0.0
  0
SPLINE
  5
348
100
AcDbEntity
  8
0
100
AcDbSpline
 62
7
  6
CONTINUOUS
 70
0
 71
3
 72
9
 73
5
 74
0
 42
0.0000001
 43
0.0000001
 44
0.0000000001
 40
0.0
 40
0.0
 40
0.0
 40
0.0
 40
0.2236097662
 40
1.0
 40
1.0
 40
1.0
 40
1.0
 10
634.7682933894
 20
1186.2488385656
 30
0.0
 10
634.6535220835
 20
1186.1005603527
 30
0.0
 10
634.2148151251
 20
1185.3787078325
 30
0.0
 10
634.0829051588
 20
1184.5074717113
 30
0.0
 10
634.0829051588
 20
1183.856432991
 30
0.0
  0
SPLINE
  5
349
100
AcDbEntity
  8
0
100
AcDbSpline
 62
7
  6
CONTINUOUS
 70
0
 71
3
 72
8
 73
4
 74
0
 42
0.0000001
 43
0.0000001
 44
0.0000000001
 40
0.0
 40
0.0
 40
0.0
 40
0.0
 40
1.0
 40
1.0
 40
1.0
 40
1.0
 10
454.7858596066
 20
1352.2445393514
 30
0.0
 10
454.5684633094
 20
1352.5162018145
 30
0.0
 10
454.2833104015
 20
1352.736410336
 30
0.0
 10
453.9819845647
 20
1352.9103769533
 30
0.0
  0
SPLINE
  5
34A
100
AcDbEntity
  8
0
100
AcDbSpline
 62
7
  6
CONTINUOUS
 70
0
 71
3
 72
8
 73
4
 74
0
 42
0.0000001
 43
0.0000001
 44
0.0000000001
 40
0.0
 40
0.0
 40
0.0
 40
0.0
 40
1.0
 40
1.0
 40
1.0
 40
1.0
 10
601.4404166021
 20
1267.5754068639
 30
0.0
 10
601.2230203048
 20
1267.847069327
 30
0.0
 10
600.937867397
 20
1268.0672778484
 30
0.0
 10
600.6365415602
 20
1268.2412444658
 30
0.0
  0
SPLINE
  5
34B
100
AcDbEntity
  8
0
100
AcDbSpline
 62
7
  6
CONTINUOUS
 70
0
 71
3
 72
11
 73
7
 74
0
 42
0.0000001
 43
0.0000001
 44
0.0000000001
 40
0.0
 40
0.0
 40
0.0
 40
0.0
 40
0.2599631815
 40
0.5441993056
 40
0.8020240112
 40
1.0
 40
1.0
 40
1.0
 40
1.0
 10
634.0829051588
 20
1183.856432991
 30
0.0
 10
634.0829051588
 20
1182.8165080624
 30
0.0
 10
634.6023498865
 20
1180.6412536293
 30
0.0
 10
636.2548477988
 20
1177.8448955569
 30
0.0
 10
638.4373501811
 20
1175.7921982622
 30
0.0
 10
640.3119836453
 20
1175.1862578126
 30
0.0
 10
641.0965845914
 20
1175.2939625929
 30
0.0
  0
SPLINE
  5
34C
100
AcDbEntity
  8
0
100
AcDbSpline
 62
7
  6
CONTINUOUS
 70
0
 71
3
 72
11
 73
7
 74
0
 42
0.0000001
 43
0.0000001
 44
0.0000000001
 40
0.0
 40
0.0
 40
0.0
 40
0.0
 40
0.2599631815
 40
0.5441993056
 40
0.8020240112
 40
1.0
 40
1.0
 40
1.0
 40
1.0
 10
634.0829051588
 20
469.4168180026
 30
0.0
 10
634.0829051588
 20
468.3768930741
 30
0.0
 10
634.6023498865
 20
466.2016386409
 30
0.0
 10
636.2548477988
 20
463.4052805686
 30
0.0
 10
638.4373501811
 20
461.3525832739
 30
0.0
 10
640.3119836453
 20
460.7466428242
 30
0.0
 10
641.0965845914
 20
460.8543476045
 30
0.0
  0
SPLINE
  5
34D
100
AcDbEntity
  8
0
100
AcDbSpline
 62
7
  6
CONTINUOUS
 70
0
 71
3
 72
11
 73
7
 74
0
 42
0.0000001
 43
0.0000001
 44
0.0000000001
 40
0.0
 40
0.0
 40
0.0
 40
0.0
 40
0.2599631815
 40
0.5441993056
 40
0.8020240112
 40
1.0
 40
1.0
 40
1.0
 40
1.0
 10
634.0829051588
 20
898.0805869956
 30
0.0
 10
634.0829051588
 20
897.0406620671
 30
0.0
 10
634.6023498865
 20
894.8654076339
 30
0.0
 10
636.2548477988
 20
892.0690495616
 30
0.0
 10
638.4373501811
 20
890.0163522669
 30
0.0
 10
640.3119836453
 20
889.4104118172
 30
0.0
 10
641.0965845914
 20
889.5181165976
 30
0.0
  0
SPLINE
  5
34E
100
AcDbEntity
  8
0
100
AcDbSpline
 62
7
  6
CONTINUOUS
 70
0
 71
3
 72
11
 73
7
 74
0
 42
0.0000001
 43
0.0000001
 44
0.0000000001
 40
0.0
 40
0.0
 40
0.0
 40
0.0
 40
0.2599631815
 40
0.5441993056
 40
0.8020240112
 40
1.0
 40
1.0
 40
1.0
 40
1.0
 10
634.0829051588
 20
183.6409720073
 30
0.0
 10
634.0829051588
 20
182.6010470787
 30
0.0
 10
634.6023498865
 20
180.4257926455
 30
0.0
 10
636.2548477988
 20
177.6294345732
 30
0.0
 10
638.4373501811
 20
175.5767372785
 30
0.0
 10
640.3119836453
 20
174.9707968288
 30
0.0
 10
641.0965845914
 20
175.0785016092
 30
0.0
  0
SPLINE
  5
34F
100
AcDbEntity
  8
0
100
AcDbSpline
 62
7
  6
CONTINUOUS
 70
0
 71
3
 72
11
 73
7
 74
0
 42
0.0000001
 43
0.0000001
 44
0.0000000001
 40
0.0
 40
0.0
 40
0.0
 40
0.0
 40
0.2599631815
 40
0.5441993056
 40
0.8020240112
 40
1.0
 40
1.0
 40
1.0
 40
1.0
 10
392.2513791585
 20
1323.4747710369
 30
0.0
 10
392.2513791585
 20
1322.4348461084
 30
0.0
 10
392.7708238863
 20
1320.2595916752
 30
0.0
 10
394.4233217985
 20
1317.4632336029
 30
0.0
 10
396.6058241809
 20
1315.4105363082
 30
0.0
 10
398.480457645
 20
1314.8045958585
 30
0.0
 10
399.2650585911
 20
1314.9123006389
 30
0.0
  0
SPLINE
  5
350
100
AcDbEntity
  8
0
100
AcDbSpline
 62
7
  6
CONTINUOUS
 70
0
 71
3
 72
11
 73
7
 74
0
 42
0.0000001
 43
0.0000001
 44
0.0000000001
 40
0.0
 40
0.0
 40
0.0
 40
0.0
 40
0.2599631815
 40
0.5441993056
 40
0.8020240112
 40
1.0
 40
1.0
 40
1.0
 40
1.0
 10
392.2513791585
 20
609.0351560486
 30
0.0
 10
392.2513791585
 20
607.99523112
 30
0.0
 10
392.7708238863
 20
605.8199766868
 30
0.0
 10
394.4233217985
 20
603.0236186145
 30
0.0
 10
396.6058241809
 20
600.9709213198
 30
0.0
 10
398.480457645
 20
600.3649808701
 30
0.0
 10
399.2650585911
 20
600.4726856505
 30
0.0
  0
SPLINE
  5
351
100
AcDbEntity
  8
0
100
AcDbSpline
 62
7
  6
CONTINUOUS
 70
0
 71
3
 72
11
 73
7
 74
0
 42
0.0000001
 43
0.0000001
 44
0.0000000001
 40
0.0
 40
0.0
 40
0.0
 40
0.0
 40
0.2599631815
 40
0.5441993056
 40
0.8020240112
 40
1.0
 40
1.0
 40
1.0
 40
1.0
 10
392.2513791585
 20
1037.6989250416
 30
0.0
 10
392.2513791585
 20
1036.659000113
 30
0.0
 10
392.7708238863
 20
1034.4837456799
 30
0.0
 10
394.4233217985
 20
1031.6873876075
 30
0.0
 10
396.6058241809
 20
1029.6346903128
 30
0.0
 10
398.480457645
 20
1029.0287498631
 30
0.0
 10
399.2650585911
 20
1029.1364546435
 30
0.0
  0
SPLINE
  5
352
100
AcDbEntity
  8
0
100
AcDbSpline
 62
7
  6
CONTINUOUS
 70
0
 71
3
 72
11
 73
7
 74
0
 42
0.0000001
 43
0.0000001
 44
0.0000000001
 40
0.0
 40
0.0
 40
0.0
 40
0.0
 40
0.2599631815
 40
0.5441993056
 40
0.8020240112
 40
1.0
 40
1.0
 40
1.0
 40
1.0
 10
392.2513791585
 20
323.2593100532
 30
0.0
 10
392.2513791585
 20
322.2193851246
 30
0.0
 10
392.7708238863
 20
320.0441306915
 30
0.0
 10
394.4233217985
 20
317.2477726191
 30
0.0
 10
396.6058241809
 20
315.1950753244
 30
0.0
 10
398.480457645
 20
314.5891348748
 30
0.0
 10
399.2650585911
 20
314.6968396551
 30
0.0
  0
SPLINE
  5
353
100
AcDbEntity
  8
0
100
AcDbSpline
 62
7
  6
CONTINUOUS
 70
0
 71
3
 72
9
 73
5
 74
0
 42
0.0000001
 43
0.0000001
 44
0.0000000001
 40
0.0
 40
0.0
 40
0.0
 40
0.0
 40
0.2807306068
 40
1.0
 40
1.0
 40
1.0
 40
1.0
 10
642.2146758299
 20
1177.9369369514
 30
0.0
 10
642.2146758299
 20
1177.7019296462
 30
0.0
 10
642.1672705621
 20
1176.8695744054
 30
0.0
 10
641.897869272
 20
1176.0207479698
 30
0.0
 10
641.5293479957
 20
1175.5445749206
 30
0.0
  0
SPLINE
  5
354
100
AcDbEntity
  8
0
100
AcDbSpline
 62
7
  6
CONTINUOUS
 70
0
 71
3
 72
8
 73
4
 74
0
 42
0.0000001
 43
0.0000001
 44
0.0000000001
 40
0.0
 40
0.0
 40
0.0
 40
0.0
 40
1.0
 40
1.0
 40
1.0
 40
1.0
 10
641.3813734235
 20
1175.3706268602
 30
0.0
 10
641.231937668
 20
1175.2108983498
 30
0.0
 10
641.0578893528
 20
1175.0706727605
 30
0.0
 10
640.8683980143
 20
1174.9614149247
 30
0.0
  0
SPLINE
  5
355
100
AcDbEntity
  8
0
100
AcDbSpline
 62
7
  6
CONTINUOUS
 70
0
 71
3
 72
9
 73
5
 74
0
 42
0.0000001
 43
0.0000001
 44
0.0000000001
 40
0.0
 40
0.0
 40
0.0
 40
0.0
 40
0.2807306068
 40
1.0
 40
1.0
 40
1.0
 40
1.0
 10
642.2146758299
 20
463.497321963
 30
0.0
 10
642.2146758299
 20
463.2623146578
 30
0.0
 10
642.1672705621
 20
462.429959417
 30
0.0
 10
641.897869272
 20
461.5811329814
 30
0.0
 10
641.5293479957
 20
461.1049599323
 30
0.0
  0
SPLINE
  5
356
100
AcDbEntity
  8
0
100
AcDbSpline
 62
7
  6
CONTINUOUS
 70
0
 71
3
 72
8
 73
4
 74
0
 42
0.0000001
 43
0.0000001
 44
0.0000000001
 40
0.0
 40
0.0
 40
0.0
 40
0.0
 40
1.0
 40
1.0
 40
1.0
 40
1.0
 10
641.3813734235
 20
460.9310118719
 30
0.0
 10
641.231937668
 20
460.7712833614
 30
0.0
 10
641.0578893528
 20
460.6310577721
 30
0.0
 10
640.8683980143
 20
460.5217999364
 30
0.0
  0
SPLINE
  5
357
100
AcDbEntity
  8
0
100
AcDbSpline
 62
7
  6
CONTINUOUS
 70
0
 71
3
 72
9
 73
5
 74
0
 42
0.0000001
 43
0.0000001
 44
0.0000000001
 40
0.0
 40
0.0
 40
0.0
 40
0.0
 40
0.2807306068
 40
1.0
 40
1.0
 40
1.0
 40
1.0
 10
642.2146758299
 20
892.1610909561
 30
0.0
 10
642.2146758299
 20
891.9260836509
 30
0.0
 10
642.1672705621
 20
891.0937284101
 30
0.0
 10
641.897869272
 20
890.2449019744
 30
0.0
 10
641.5293479957
 20
889.7687289253
 30
0.0
  0
SPLINE
  5
358
100
AcDbEntity
  8
0
100
AcDbSpline
 62
7
  6
CONTINUOUS
 70
0
 71
3
 72
8
 73
4
 74
0
 42
0.0000001
 43
0.0000001
 44
0.0000000001
 40
0.0
 40
0.0
 40
0.0
 40
0.0
 40
1.0
 40
1.0
 40
1.0
 40
1.0
 10
641.3813734235
 20
889.5947808649
 30
0.0
 10
641.231937668
 20
889.4350523545
 30
0.0
 10
641.0578893528
 20
889.2948267651
 30
0.0
 10
640.8683980143
 20
889.1855689294
 30
0.0
  0
SPLINE
  5
359
100
AcDbEntity
  8
0
100
AcDbSpline
 62
7
  6
CONTINUOUS
 70
0
 71
3
 72
9
 73
5
 74
0
 42
0.0000001
 43
0.0000001
 44
0.0000000001
 40
0.0
 40
0.0
 40
0.0
 40
0.0
 40
0.2807306068
 40
1.0
 40
1.0
 40
1.0
 40
1.0
 10
642.2146758299
 20
177.7214759677
 30
0.0
 10
642.2146758299
 20
177.4864686625
 30
0.0
 10
642.1672705621
 20
176.6541134217
 30
0.0
 10
641.897869272
 20
175.805286986
 30
0.0
 10
641.5293479957
 20
175.3291139369
 30
0.0
  0
SPLINE
  5
35A
100
AcDbEntity
  8
0
100
AcDbSpline
 62
7
  6
CONTINUOUS
 70
0
 71
3
 72
8
 73
4
 74
0
 42
0.0000001
 43
0.0000001
 44
0.0000000001
 40
0.0
 40
0.0
 40
0.0
 40
0.0
 40
1.0
 40
1.0
 40
1.0
 40
1.0
 10
641.3813734235
 20
175.1551658765
 30
0.0
 10
641.231937668
 20
174.9954373661
 30
0.0
 10
641.0578893528
 20
174.8552117768
 30
0.0
 10
640.8683980143
 20
174.745953941
 30
0.0
  0
SPLINE
  5
35B
100
AcDbEntity
  8
0
100
AcDbSpline
 62
7
  6
CONTINUOUS
 70
0
 71
3
 72
9
 73
5
 74
0
 42
0.0000001
 43
0.0000001
 44
0.0000000001
 40
0.0
 40
0.0
 40
0.0
 40
0.0
 40
0.2807306068
 40
1.0
 40
1.0
 40
1.0
 40
1.0
 10
400.3831498296
 20
1317.5552749974
 30
0.0
 10
400.3831498296
 20
1317.3202676922
 30
0.0
 10
400.3357445618
 20
1316.4879124514
 30
0.0
 10
400.0663432718
 20
1315.6390860157
 30
0.0
 10
399.6978219954
 20
1315.1629129666
 30
0.0
  0
SPLINE
  5
35C
100
AcDbEntity
  8
0
100
AcDbSpline
 62
7
  6
CONTINUOUS
 70
0
 71
3
 72
8
 73
4
 74
0
 42
0.0000001
 43
0.0000001
 44
0.0000000001
 40
0.0
 40
0.0
 40
0.0
 40
0.0
 40
1.0
 40
1.0
 40
1.0
 40
1.0
 10
399.5498474232
 20
1314.9889649062
 30
0.0
 10
399.4004116677
 20
1314.8292363958
 30
0.0
 10
399.2263633526
 20
1314.6890108064
 30
0.0
 10
399.036872014
 20
1314.5797529707
 30
0.0
  0
SPLINE
  5
35D
100
AcDbEntity
  8
0
100
AcDbSpline
 62
7
  6
CONTINUOUS
 70
0
 71
3
 72
9
 73
5
 74
0
 42
0.0000001
 43
0.0000001
 44
0.0000000001
 40
0.0
 40
0.0
 40
0.0
 40
0.0
 40
0.2807306068
 40
1.0
 40
1.0
 40
1.0
 40
1.0
 10
400.3831498296
 20
603.115660009
 30
0.0
 10
400.3831498296
 20
602.8806527038
 30
0.0
 10
400.3357445618
 20
602.048297463
 30
0.0
 10
400.0663432718
 20
601.1994710273
 30
0.0
 10
399.6978219954
 20
600.7232979782
 30
0.0
  0
SPLINE
  5
35E
100
AcDbEntity
  8
0
100
AcDbSpline
 62
7
  6
CONTINUOUS
 70
0
 71
3
 72
8
 73
4
 74
0
 42
0.0000001
 43
0.0000001
 44
0.0000000001
 40
0.0
 40
0.0
 40
0.0
 40
0.0
 40
1.0
 40
1.0
 40
1.0
 40
1.0
 10
399.5498474232
 20
600.5493499178
 30
0.0
 10
399.4004116677
 20
600.3896214074
 30
0.0
 10
399.2263633526
 20
600.2493958181
 30
0.0
 10
399.036872014
 20
600.1401379823
 30
0.0
  0
SPLINE
  5
35F
100
AcDbEntity
  8
0
100
AcDbSpline
 62
7
  6
CONTINUOUS
 70
0
 71
3
 72
9
 73
5
 74
0
 42
0.0000001
 43
0.0000001
 44
0.0000000001
 40
0.0
 40
0.0
 40
0.0
 40
0.0
 40
0.2807306068
 40
1.0
 40
1.0
 40
1.0
 40
1.0
 10
400.3831498296
 20
1031.779429002
 30
0.0
 10
400.3831498296
 20
1031.5444216968
 30
0.0
 10
400.3357445618
 20
1030.712066456
 30
0.0
 10
400.0663432718
 20
1029.8632400203
 30
0.0
 10
399.6978219954
 20
1029.3870669712
 30
0.0
  0
SPLINE
  5
360
100
AcDbEntity
  8
0
100
AcDbSpline
 62
7
  6
CONTINUOUS
 70
0
 71
3
 72
8
 73
4
 74
0
 42
0.0000001
 43
0.0000001
 44
0.0000000001
 40
0.0
 40
0.0
 40
0.0
 40
0.0
 40
1.0
 40
1.0
 40
1.0
 40
1.0
 10
399.5498474232
 20
1029.2131189108
 30
0.0
 10
399.4004116677
 20
1029.0533904004
 30
0.0
 10
399.2263633526
 20
1028.9131648111
 30
0.0
 10
399.036872014
 20
1028.8039069753
 30
0.0
  0
SPLINE
  5
361
100
AcDbEntity
  8
0
100
AcDbSpline
 62
7
  6
CONTINUOUS
 70
0
 71
3
 72
9
 73
5
 74
0
 42
0.0000001
 43
0.0000001
 44
0.0000000001
 40
0.0
 40
0.0
 40
0.0
 40
0.0
 40
0.2807306068
 40
1.0
 40
1.0
 40
1.0
 40
1.0
 10
400.3831498296
 20
317.3398140136
 30
0.0
 10
400.3831498296
 20
317.1048067084
 30
0.0
 10
400.3357445618
 20
316.2724514676
 30
0.0
 10
400.0663432718
 20
315.423625032
 30
0.0
 10
399.6978219954
 20
314.9474519829
 30
0.0
  0
SPLINE
  5
362
100
AcDbEntity
  8
0
100
AcDbSpline
 62
7
  6
CONTINUOUS
 70
0
 71
3
 72
8
 73
4
 74
0
 42
0.0000001
 43
0.0000001
 44
0.0000000001
 40
0.0
 40
0.0
 40
0.0
 40
0.0
 40
1.0
 40
1.0
 40
1.0
 40
1.0
 10
399.5498474232
 20
314.7735039225
 30
0.0
 10
399.4004116677
 20
314.613775412
 30
0.0
 10
399.2263633526
 20
314.4735498227
 30
0.0
 10
399.036872014
 20
314.3642919869
 30
0.0
  0
SPLINE
  5
363
100
AcDbEntity
  8
0
100
AcDbSpline
 62
7
  6
CONTINUOUS
 70
0
 71
3
 72
9
 73
5
 74
0
 42
0.0000001
 43
0.0000001
 44
0.0000000001
 40
0.0
 40
0.0
 40
0.0
 40
0.0
 40
0.4766252995
 40
1.0
 40
1.0
 40
1.0
 40
1.0
 10
648.3775433629
 20
118.8643661611
 30
0.0
 10
648.0685972614
 20
118.7081808491
 30
0.0
 10
647.297949896
 20
118.594744635
 30
0.0
 10
646.6112362965
 20
118.8955091128
 30
0.0
 10
646.2817279592
 20
119.0850555618
 30
0.0
  0
SPLINE
  5
364
100
AcDbEntity
  8
0
100
AcDbSpline
 62
7
  6
CONTINUOUS
 70
0
 71
3
 72
8
 73
4
 74
0
 42
0.0000001
 43
0.0000001
 44
0.0000000001
 40
0.0
 40
0.0
 40
0.0
 40
0.0
 40
1.0
 40
1.0
 40
1.0
 40
1.0
 10
648.3775433629
 20
118.8643661611
 30
0.0
 10
648.5348095848
 20
118.9522238318
 30
0.0
 10
648.7088464311
 20
119.0794116066
 30
0.0
 10
648.7516244736
 20
119.2544021032
 30
0.0
  0
SPLINE
  5
365
100
AcDbEntity
  8
0
100
AcDbSpline
 62
7
  6
CONTINUOUS
 70
0
 71
3
 72
10
 73
6
 74
0
 42
0.0000001
 43
0.0000001
 44
0.0000000001
 40
0.0
 40
0.0
 40
0.0
 40
0.0
 40
0.7188687303
 40
0.9241689552
 40
1.0
 40
1.0
 40
1.0
 40
1.0
 10
389.2613776305
 20
268.4620097236
 30
0.0
 10
389.0304009141
 20
268.3959957651
 30
0.0
 10
388.732218359
 20
268.2344571132
 30
0.0
 10
388.5103264504
 20
268.0295467431
 30
0.0
 10
388.3834803912
 20
268.0048254445
 30
0.0
 10
388.3832459014
 20
267.9794859943
 30
0.0
  0
SPLINE
  5
366
100
AcDbEntity
  8
0
100
AcDbSpline
 62
7
  6
CONTINUOUS
 70
0
 71
3
 72
8
 73
4
 74
0
 42
0.0000001
 43
0.0000001
 44
0.0000000001
 40
0.0
 40
0.0
 40
0.0
 40
0.0
 40
1.0
 40
1.0
 40
1.0
 40
1.0
 10
646.2817279592
 20
119.0850555618
 30
0.0
 10
645.3904643635
 20
119.5977462304
 30
0.0
 10
644.724683077
 20
120.4602502215
 30
0.0
 10
644.1440216022
 20
121.3087988474
 30
0.0
  0
SPLINE
  5
367
100
AcDbEntity
  8
0
100
AcDbSpline
 62
7
  6
CONTINUOUS
 70
0
 71
3
 72
8
 73
4
 74
0
 42
0.0000001
 43
0.0000001
 44
0.0000000001
 40
0.0
 40
0.0
 40
0.0
 40
0.0
 40
1.0
 40
1.0
 40
1.0
 40
1.0
 10
388.38324601
 20
1382.2032985288
 30
0.0
 10
388.3830910589
 20
1381.18428117
 30
0.0
 10
388.6850427385
 20
1380.1154595163
 30
0.0
 10
389.2613776305
 20
1379.2750819263
 30
0.0
  0
SPLINE
  5
368
100
AcDbEntity
  8
0
100
AcDbSpline
 62
7
  6
CONTINUOUS
 70
0
 71
3
 72
11
 73
7
 74
0
 42
0.0000001
 43
0.0000001
 44
0.0000000001
 40
0.0
 40
0.0
 40
0.0
 40
0.0
 40
0.1835917426
 40
0.4352068886
 40
0.7283955701
 40
1.0
 40
1.0
 40
1.0
 40
1.0
 10
399.036872014
 20
600.1401379823
 30
0.0
 10
398.3568174619
 20
599.7480288278
 30
0.0
 10
396.237691769
 20
599.8725510054
 30
0.0
 10
393.7707971382
 20
601.9016749992
 30
0.0
 10
391.8257284685
 20
604.8464745036
 30
0.0
 10
391.1907234027
 20
607.2614670701
 30
0.0
 10
391.1907234027
 20
608.4227898177
 30
0.0
  0
SPLINE
  5
369
100
AcDbEntity
  8
0
100
AcDbSpline
 62
7
  6
CONTINUOUS
 70
0
 71
3
 72
11
 73
7
 74
0
 42
0.0000001
 43
0.0000001
 44
0.0000000001
 40
0.0
 40
0.0
 40
0.0
 40
0.0
 40
0.1835917426
 40
0.4352068886
 40
0.7283955701
 40
1.0
 40
1.0
 40
1.0
 40
1.0
 10
640.8683980143
 20
174.745953941
 30
0.0
 10
640.1883434622
 20
174.3538447865
 30
0.0
 10
638.0692177693
 20
174.4783669641
 30
0.0
 10
635.6023231384
 20
176.5074909579
 30
0.0
 10
633.6572544688
 20
179.4522904623
 30
0.0
 10
633.022249403
 20
181.8672830288
 30
0.0
 10
633.022249403
 20
183.0286057765
 30
0.0
  0
SPLINE
  5
36A
100
AcDbEntity
  8
0
100
AcDbSpline
 62
7
  6
CONTINUOUS
 70
0
 71
3
 72
11
 73
7
 74
0
 42
0.0000001
 43
0.0000001
 44
0.0000000001
 40
0.0
 40
0.0
 40
0.0
 40
0.0
 40
0.1835917426
 40
0.4352068886
 40
0.7283955701
 40
1.0
 40
1.0
 40
1.0
 40
1.0
 10
640.8683980143
 20
1174.9614149247
 30
0.0
 10
640.1883434622
 20
1174.5693057703
 30
0.0
 10
638.0692177693
 20
1174.6938279479
 30
0.0
 10
635.6023231384
 20
1176.7229519416
 30
0.0
 10
633.6572544688
 20
1179.6677514461
 30
0.0
 10
633.022249403
 20
1182.0827440125
 30
0.0
 10
633.022249403
 20
1183.2440667602
 30
0.0
  0
SPLINE
  5
36B
100
AcDbEntity
  8
0
100
AcDbSpline
 62
7
  6
CONTINUOUS
 70
0
 71
3
 72
8
 73
4
 74
0
 42
0.0000001
 43
0.0000001
 44
0.0000000001
 40
0.0
 40
0.0
 40
0.0
 40
0.0
 40
1.0
 40
1.0
 40
1.0
 40
1.0
 10
633.022249403
 20
1183.2440667602
 30
0.0
 10
633.022249403
 20
1183.6295950419
 30
0.0
 10
633.0592058772
 20
1184.0184225268
 30
0.0
 10
633.146336694
 20
1184.393975821
 30
0.0
  0
SPLINE
  5
36C
100
AcDbEntity
  8
0
100
AcDbSpline
 62
7
  6
CONTINUOUS
 70
0
 71
3
 72
9
 73
5
 74
0
 42
0.0000001
 43
0.0000001
 44
0.0000000001
 40
0.0
 40
0.0
 40
0.0
 40
0.0
 40
0.2787808137
 40
1.0
 40
1.0
 40
1.0
 40
1.0
 10
633.146336694
 20
1184.393975821
 30
0.0
 10
633.1931899431
 20
1184.5959237966
 30
0.0
 10
633.4077448395
 20
1185.3056736122
 30
0.0
 10
633.9039016717
 20
1185.9516927338
 30
0.0
 10
634.3685272186
 20
1186.2195887869
 30
0.0
  0
SPLINE
  5
36D
100
AcDbEntity
  8
0
100
AcDbSpline
 62
7
  6
CONTINUOUS
 70
0
 71
3
 72
8
 73
4
 74
0
 42
0.0000001
 43
0.0000001
 44
0.0000000001
 40
0.0
 40
0.0
 40
0.0
 40
0.0
 40
1.0
 40
1.0
 40
1.0
 40
1.0
 10
633.022249403
 20
468.8044517718
 30
0.0
 10
633.022249403
 20
469.1899800535
 30
0.0
 10
633.0592058772
 20
469.5788075384
 30
0.0
 10
633.146336694
 20
469.9543608326
 30
0.0
  0
SPLINE
  5
36E
100
AcDbEntity
  8
0
100
AcDbSpline
 62
7
  6
CONTINUOUS
 70
0
 71
3
 72
9
 73
5
 74
0
 42
0.0000001
 43
0.0000001
 44
0.0000000001
 40
0.0
 40
0.0
 40
0.0
 40
0.0
 40
0.2787808137
 40
1.0
 40
1.0
 40
1.0
 40
1.0
 10
633.146336694
 20
469.9543608326
 30
0.0
 10
633.1931899431
 20
470.1563088082
 30
0.0
 10
633.4077448395
 20
470.8660586238
 30
0.0
 10
633.9039016717
 20
471.5120777454
 30
0.0
 10
634.3685272186
 20
471.7799737985
 30
0.0
  0
SPLINE
  5
36F
100
AcDbEntity
  8
0
100
AcDbSpline
 62
7
  6
CONTINUOUS
 70
0
 71
3
 72
8
 73
4
 74
0
 42
0.0000001
 43
0.0000001
 44
0.0000000001
 40
0.0
 40
0.0
 40
0.0
 40
0.0
 40
1.0
 40
1.0
 40
1.0
 40
1.0
 10
633.022249403
 20
897.4682207648
 30
0.0
 10
633.022249403
 20
897.8537490465
 30
0.0
 10
633.0592058772
 20
898.2425765315
 30
0.0
 10
633.146336694
 20
898.6181298256
 30
0.0
  0
SPLINE
  5
370
100
AcDbEntity
  8
0
100
AcDbSpline
 62
7
  6
CONTINUOUS
 70
0
 71
3
 72
9
 73
5
 74
0
 42
0.0000001
 43
0.0000001
 44
0.0000000001
 40
0.0
 40
0.0
 40
0.0
 40
0.0
 40
0.2787808137
 40
1.0
 40
1.0
 40
1.0
 40
1.0
 10
633.146336694
 20
898.6181298256
 30
0.0
 10
633.1931899431
 20
898.8200778012
 30
0.0
 10
633.4077448395
 20
899.5298276168
 30
0.0
 10
633.9039016717
 20
900.1758467385
 30
0.0
 10
634.3685272186
 20
900.4437427915
 30
0.0
  0
SPLINE
  5
371
100
AcDbEntity
  8
0
100
AcDbSpline
 62
7
  6
CONTINUOUS
 70
0
 71
3
 72
8
 73
4
 74
0
 42
0.0000001
 43
0.0000001
 44
0.0000000001
 40
0.0
 40
0.0
 40
0.0
 40
0.0
 40
1.0
 40
1.0
 40
1.0
 40
1.0
 10
633.022249403
 20
183.0286057765
 30
0.0
 10
633.022249403
 20
183.4141340581
 30
0.0
 10
633.0592058772
 20
183.8029615431
 30
0.0
 10
633.146336694
 20
184.1785148372
 30
0.0
  0
SPLINE
  5
372
100
AcDbEntity
  8
0
100
AcDbSpline
 62
7
  6
CONTINUOUS
 70
0
 71
3
 72
9
 73
5
 74
0
 42
0.0000001
 43
0.0000001
 44
0.0000000001
 40
0.0
 40
0.0
 40
0.0
 40
0.0
 40
0.2787808137
 40
1.0
 40
1.0
 40
1.0
 40
1.0
 10
633.146336694
 20
184.1785148372
 30
0.0
 10
633.1931899431
 20
184.3804628128
 30
0.0
 10
633.4077448395
 20
185.0902126284
 30
0.0
 10
633.9039016717
 20
185.7362317501
 30
0.0
 10
634.3685272186
 20
186.0041278031
 30
0.0
  0
SPLINE
  5
373
100
AcDbEntity
  8
0
100
AcDbSpline
 62
7
  6
CONTINUOUS
 70
0
 71
3
 72
8
 73
4
 74
0
 42
0.0000001
 43
0.0000001
 44
0.0000000001
 40
0.0
 40
0.0
 40
0.0
 40
0.0
 40
1.0
 40
1.0
 40
1.0
 40
1.0
 10
391.1907234027
 20
1322.8624048061
 30
0.0
 10
391.1907234027
 20
1323.2479330878
 30
0.0
 10
391.227679877
 20
1323.6367605728
 30
0.0
 10
391.3148106937
 20
1324.0123138669
 30
0.0
  0
SPLINE
  5
374
100
AcDbEntity
  8
0
100
AcDbSpline
 62
7
  6
CONTINUOUS
 70
0
 71
3
 72
9
 73
5
 74
0
 42
0.0000001
 43
0.0000001
 44
0.0000000001
 40
0.0
 40
0.0
 40
0.0
 40
0.0
 40
0.2787808137
 40
1.0
 40
1.0
 40
1.0
 40
1.0
 10
391.3148106937
 20
1324.0123138669
 30
0.0
 10
391.3616639428
 20
1324.2142618425
 30
0.0
 10
391.5762188392
 20
1324.9240116581
 30
0.0
 10
392.0723756714
 20
1325.5700307798
 30
0.0
 10
392.5370012184
 20
1325.8379268328
 30
0.0
  0
SPLINE
  5
375
100
AcDbEntity
  8
0
100
AcDbSpline
 62
7
  6
CONTINUOUS
 70
0
 71
3
 72
8
 73
4
 74
0
 42
0.0000001
 43
0.0000001
 44
0.0000000001
 40
0.0
 40
0.0
 40
0.0
 40
0.0
 40
1.0
 40
1.0
 40
1.0
 40
1.0
 10
391.1907234027
 20
608.4227898177
 30
0.0
 10
391.1907234027
 20
608.8083180994
 30
0.0
 10
391.227679877
 20
609.1971455844
 30
0.0
 10
391.3148106937
 20
609.5726988785
 30
0.0
  0
SPLINE
  5
376
100
AcDbEntity
  8
0
100
AcDbSpline
 62
7
  6
CONTINUOUS
 70
0
 71
3
 72
9
 73
5
 74
0
 42
0.0000001
 43
0.0000001
 44
0.0000000001
 40
0.0
 40
0.0
 40
0.0
 40
0.0
 40
0.2787808137
 40
1.0
 40
1.0
 40
1.0
 40
1.0
 10
391.3148106937
 20
609.5726988785
 30
0.0
 10
391.3616639428
 20
609.7746468541
 30
0.0
 10
391.5762188392
 20
610.4843966697
 30
0.0
 10
392.0723756714
 20
611.1304157914
 30
0.0
 10
392.5370012184
 20
611.3983118444
 30
0.0
  0
SPLINE
  5
377
100
AcDbEntity
  8
0
100
AcDbSpline
 62
7
  6
CONTINUOUS
 70
0
 71
3
 72
8
 73
4
 74
0
 42
0.0000001
 43
0.0000001
 44
0.0000000001
 40
0.0
 40
0.0
 40
0.0
 40
0.0
 40
1.0
 40
1.0
 40
1.0
 40
1.0
 10
391.1907234027
 20
1037.0865588108
 30
0.0
 10
391.1907234027
 20
1037.4720870925
 30
0.0
 10
391.227679877
 20
1037.8609145774
 30
0.0
 10
391.3148106937
 20
1038.2364678716
 30
0.0
  0
SPLINE
  5
378
100
AcDbEntity
  8
0
100
AcDbSpline
 62
7
  6
CONTINUOUS
 70
0
 71
3
 72
9
 73
5
 74
0
 42
0.0000001
 43
0.0000001
 44
0.0000000001
 40
0.0
 40
0.0
 40
0.0
 40
0.0
 40
0.2787808137
 40
1.0
 40
1.0
 40
1.0
 40
1.0
 10
391.3148106937
 20
1038.2364678716
 30
0.0
 10
391.3616639428
 20
1038.4384158472
 30
0.0
 10
391.5762188392
 20
1039.1481656628
 30
0.0
 10
392.0723756714
 20
1039.7941847844
 30
0.0
 10
392.5370012184
 20
1040.0620808375
 30
0.0
  0
SPLINE
  5
379
100
AcDbEntity
  8
0
100
AcDbSpline
 62
7
  6
CONTINUOUS
 70
0
 71
3
 72
11
 73
7
 74
0
 42
0.0000001
 43
0.0000001
 44
0.0000000001
 40
0.0
 40
0.0
 40
0.0
 40
0.0
 40
0.1835917426
 40
0.4352068886
 40
0.7283955701
 40
1.0
 40
1.0
 40
1.0
 40
1.0
 10
399.036872014
 20
314.3642919869
 30
0.0
 10
398.3568174619
 20
313.9721828325
 30
0.0
 10
396.237691769
 20
314.0967050101
 30
0.0
 10
393.7707971382
 20
316.1258290038
 30
0.0
 10
391.8257284685
 20
319.0706285083
 30
0.0
 10
391.1907234027
 20
321.4856210747
 30
0.0
 10
391.1907234027
 20
322.6469438224
 30
0.0
  0
SPLINE
  5
37A
100
AcDbEntity
  8
0
100
AcDbSpline
 62
7
  6
CONTINUOUS
 70
0
 71
3
 72
8
 73
4
 74
0
 42
0.0000001
 43
0.0000001
 44
0.0000000001
 40
0.0
 40
0.0
 40
0.0
 40
0.0
 40
1.0
 40
1.0
 40
1.0
 40
1.0
 10
391.1907234027
 20
322.6469438224
 30
0.0
 10
391.1907234027
 20
323.0324721041
 30
0.0
 10
391.227679877
 20
323.421299589
 30
0.0
 10
391.3148106937
 20
323.7968528832
 30
0.0
  0
SPLINE
  5
37B
100
AcDbEntity
  8
0
100
AcDbSpline
 62
7
  6
CONTINUOUS
 70
0
 71
3
 72
9
 73
5
 74
0
 42
0.0000001
 43
0.0000001
 44
0.0000000001
 40
0.0
 40
0.0
 40
0.0
 40
0.0
 40
0.2787808137
 40
1.0
 40
1.0
 40
1.0
 40
1.0
 10
391.3148106937
 20
323.7968528832
 30
0.0
 10
391.3616639428
 20
323.9988008588
 30
0.0
 10
391.5762188392
 20
324.7085506744
 30
0.0
 10
392.0723756714
 20
325.354569796
 30
0.0
 10
392.5370012184
 20
325.6224658491
 30
0.0
  0
SPLINE
  5
37C
100
AcDbEntity
  8
0
100
AcDbSpline
 62
7
  6
CONTINUOUS
 70
0
 71
3
 72
10
 73
6
 74
0
 42
0.0000001
 43
0.0000001
 44
0.0000000001
 40
0.0
 40
0.0
 40
0.0
 40
0.0
 40
0.1961317019
 40
0.4409721289
 40
1.0
 40
1.0
 40
1.0
 40
1.0
 10
644.1440216022
 20
1232.1218710501
 30
0.0
 10
644.4513326261
 20
1232.2095604558
 30
0.0
 10
645.0507533966
 20
1232.6370278119
 30
0.0
 10
646.4652258895
 20
1233.4271538323
 30
0.0
 10
647.6104162676
 20
1234.0732365939
 30
0.0
 10
648.3775433629
 20
1234.5643768536
 30
0.0
  0
SPLINE
  5
37D
100
AcDbEntity
  8
0
100
AcDbSpline
 62
7
  6
CONTINUOUS
 70
0
 71
3
 72
9
 73
5
 74
0
 42
0.0000001
 43
0.0000001
 44
0.0000000001
 40
0.0
 40
0.0
 40
0.0
 40
0.0
 40
0.692015218
 40
1.0
 40
1.0
 40
1.0
 40
1.0
 10
648.8043970056
 20
1234.8219301564
 30
0.0
 10
648.7034512459
 20
1234.7608775617
 30
0.0
 10
648.5584384082
 20
1234.6712195248
 30
0.0
 10
648.4111847117
 20
1234.5853039972
 30
0.0
 10
648.3657060184
 20
1234.5590670958
 30
0.0
  0
SPLINE
  5
37E
100
AcDbEntity
  8
0
100
AcDbSpline
 62
7
  6
CONTINUOUS
 70
0
 71
3
 72
8
 73
4
 74
0
 42
0.0000001
 43
0.0000001
 44
0.0000000001
 40
0.0
 40
0.0
 40
0.0
 40
0.0
 40
1.0
 40
1.0
 40
1.0
 40
1.0
 10
655.2745611711
 20
1203.0125474871
 30
0.0
 10
655.4836561174
 20
1203.2057405374
 30
0.0
 10
655.6544489476
 20
1203.4927189926
 30
0.0
 10
655.6545563097
 20
1203.7774016926
 30
0.0
  0
SPLINE
  5
37F
100
AcDbEntity
  8
0
100
AcDbSpline
 62
7
  6
CONTINUOUS
 70
0
 71
3
 72
11
 73
7
 74
0
 42
0.0000001
 43
0.0000001
 44
0.0000000001
 40
0.0
 40
0.0
 40
0.0
 40
0.0
 40
0.1835917426
 40
0.4352068886
 40
0.7283955701
 40
1.0
 40
1.0
 40
1.0
 40
1.0
 10
640.8683980143
 20
889.1855689294
 30
0.0
 10
640.1883434622
 20
888.7934597749
 30
0.0
 10
638.0692177693
 20
888.9179819525
 30
0.0
 10
635.6023231384
 20
890.9471059462
 30
0.0
 10
633.6572544688
 20
893.8919054507
 30
0.0
 10
633.022249403
 20
896.3068980172
 30
0.0
 10
633.022249403
 20
897.4682207648
 30
0.0
  0
SPLINE
  5
380
100
AcDbEntity
  8
0
100
AcDbSpline
 62
7
  6
CONTINUOUS
 70
0
 71
3
 72
11
 73
7
 74
0
 42
0.0000001
 43
0.0000001
 44
0.0000000001
 40
0.0
 40
0.0
 40
0.0
 40
0.0
 40
0.1835917426
 40
0.4352068886
 40
0.7283955701
 40
1.0
 40
1.0
 40
1.0
 40
1.0
 10
399.036872014
 20
1028.8039069753
 30
0.0
 10
398.3568174619
 20
1028.4117978209
 30
0.0
 10
396.237691769
 20
1028.5363199985
 30
0.0
 10
393.7707971382
 20
1030.5654439922
 30
0.0
 10
391.8257284685
 20
1033.5102434967
 30
0.0
 10
391.1907234027
 20
1035.9252360631
 30
0.0
 10
391.1907234027
 20
1037.0865588108
 30
0.0
  0
SPLINE
  5
381
100
AcDbEntity
  8
0
100
AcDbSpline
 62
7
  6
CONTINUOUS
 70
0
 71
3
 72
11
 73
7
 74
0
 42
0.0000001
 43
0.0000001
 44
0.0000000001
 40
0.0
 40
0.0
 40
0.0
 40
0.0
 40
0.1835917426
 40
0.4352068886
 40
0.7283955701
 40
1.0
 40
1.0
 40
1.0
 40
1.0
 10
640.8683980143
 20
460.5217999364
 30
0.0
 10
640.1883434622
 20
460.1296907819
 30
0.0
 10
638.0692177693
 20
460.2542129595
 30
0.0
 10
635.6023231384
 20
462.2833369532
 30
0.0
 10
633.6572544688
 20
465.2281364577
 30
0.0
 10
633.022249403
 20
467.6431290241
 30
0.0
 10
633.022249403
 20
468.8044517718
 30
0.0
  0
SPLINE
  5
382
100
AcDbEntity
  8
0
100
AcDbSpline
 62
7
  6
CONTINUOUS
 70
0
 71
3
 72
11
 73
7
 74
0
 42
0.0000001
 43
0.0000001
 44
0.0000000001
 40
0.0
 40
0.0
 40
0.0
 40
0.0
 40
0.1835917426
 40
0.4352068886
 40
0.7283955701
 40
1.0
 40
1.0
 40
1.0
 40
1.0
 10
399.036872014
 20
1314.5797529707
 30
0.0
 10
398.3568174619
 20
1314.1876438162
 30
0.0
 10
396.237691769
 20
1314.3121659938
 30
0.0
 10
393.7707971382
 20
1316.3412899875
 30
0.0
 10
391.8257284685
 20
1319.286089492
 30
0.0
 10
391.1907234027
 20
1321.7010820585
 30
0.0
 10
391.1907234027
 20
1322.8624048061
 30
0.0
  0
ELLIPSE
  5
383
100
AcDbEntity
  8
0
100
AcDbEllipse
 62
7
  6
CONTINUOUS
 10
654.3764331884
 20
187.6879482521
 30
0.0
 11
3.9897363519
 21
-0.659194334
 31
0.0
 40
0.4344138212
 41
0.6352989396
 42
0.857054404
  0
ELLIPSE
  5
384
100
AcDbEntity
  8
0
100
AcDbEllipse
 62
7
  6
CONTINUOUS
 10
506.3076567427
 20
1386.3798802186
 30
0.0
 11
3.9374589769
 21
1.02581769
 31
0.0
 40
0.6868360053
 41
0.6083364066
 42
3.7499290601
  0
ELLIPSE
  5
385
100
AcDbEntity
  8
0
100
AcDbEllipse
 62
7
  6
CONTINUOUS
 10
652.9622137382
 20
1301.7107477311
 30
0.0
 11
3.9374589769
 21
1.02581769
 31
0.0
 40
0.6868360053
 41
6.8915217137
 42
10.0331143673
  0
ELLIPSE
  5
386
100
AcDbEntity
  8
0
100
AcDbEllipse
 62
7
  6
CONTINUOUS
 10
654.3764331884
 20
1300.894266222
 30
0.0
 11
3.9374589769
 21
1.02581769
 31
0.0
 40
0.6868360053
 41
3.7499290601
 42
6.8915217137
  0
ELLIPSE
  5
387
100
AcDbEntity
  8
0
100
AcDbEllipse
 62
7
  6
CONTINUOUS
 10
507.721876193
 20
1385.5633987096
 30
0.0
 11
3.9374589769
 21
1.02581769
 31
0.0
 40
0.6868360053
 41
3.7499290601
 42
6.8915217137
  0
ELLIPSE
  5
388
100
AcDbEntity
  8
0
100
AcDbEllipse
 62
7
  6
CONTINUOUS
 10
597.8081262113
 20
1268.2347339123
 30
0.0
 11
3.9897363519
 21
-0.659194334
 31
0.0
 40
0.4344138212
 41
3.9986470576
 42
7.1402397112
  0
ELLIPSE
  5
389
100
AcDbEntity
  8
0
100
AcDbEllipse
 62
7
  6
CONTINUOUS
 10
596.393906761
 20
1269.0512154214
 30
0.0
 11
3.9897363519
 21
-0.659194334
 31
0.0
 40
0.4344138212
 41
7.1402397112
 42
10.2818323648
  0
ELLIPSE
  5
38A
100
AcDbEntity
  8
0
100
AcDbEllipse
 62
7
  6
CONTINUOUS
 10
449.7393497656
 20
1353.7203479089
 30
0.0
 11
3.9897363519
 21
-0.659194334
 31
0.0
 40
0.4344138212
 41
7.1402397112
 42
10.2818323648
  0
ELLIPSE
  5
38B
100
AcDbEntity
  8
0
100
AcDbEllipse
 62
7
  6
CONTINUOUS
 10
451.1535692159
 20
1352.9038663998
 30
0.0
 11
3.9897363519
 21
-0.659194334
 31
0.0
 40
0.4344138212
 41
3.9986470576
 42
7.1402397112
  0
ENDSEC
  0
SECTION
  2
OBJECTS
  0
DICTIONARY
  5
C
100
AcDbDictionary
280
0
281
1
  3
ACAD_GROUP
350
D
  3
ACAD_MLINESTYLE
350
17
  3
ACAD_LAYOUT
350
1A
  3
ACAD_PLOTSETTINGS
350
19
  3
ACAD_PLOTSTYLENAME
350
E
  0
DICTIONARY
  5
D
102
{ACAD_REACTORS
330
C
102
}
100
AcDbDictionary
280
0
281
1
  0
ACDBDICTIONARYWDFLT
  5
E
102
{ACAD_REACTORS
330
C
102
}
100
AcDbDictionary
281
1
  3
Normal
350
F
100
AcDbDictionaryWithDefault
340
F
  0
DICTIONARY
  5
17
102
{ACAD_REACTORS
330
C
102
}
100
AcDbDictionary
280
0
281
1
  3
Standard
350
18
  0
DICTIONARY
  5
19
102
{ACAD_REACTORS
330
C
102
}
100
AcDbDictionary
281
1
  0
DICTIONARY
  5
1A
102
{ACAD_REACTORS
330
C
102
}
100
AcDbDictionary
281
1
  3
Model
350
38C
  3
Layout1
350
38D
  0
ACDBPLACEHOLDER
  5
F
102
{ACAD_REACTORS
330
E
102
}
  0
MLINESTYLE
  5
18
102
{ACAD_REACTORS
330
17
102
}
100
AcDbMlineStyle
  2
STANDARD
 70
0
  3

 62
256
 51
90.0
 52
90.0
 71
2
 49
0.5
 62
256
  6
BYLAYER
 49
-0.5
 62
256
  6
BYLAYER
  0
LAYOUT
  5
38C
102
{ACAD_REACTORS
330
1A
102
}
100
AcDbPlotSettings
  1

  2
none_device
  4

  6

 40
0.0
 41
0.0
 42
0.0
 43
0.0
 44
210.0
 45
297.0
 46
0.0
 47
0.0
 48
0.0
 49
0.0
140
0.0
141
0.0
142
1.0
143
1.0
 70
1024
 72
1
 73
0
 74
0
  7

 75
0
147
1.0
148
0.0
149
0.0
100
AcDbLayout
  1
Model
 70
0
 71
0
 10
0.0
 20
0.0
 11
210.0
 21
297.0
 12
0.0
 22
0.0
 32
0.0
 14
0.0
 24
0.0
 34
0.0
 15
0.0
 25
0.0
 35
0.0
146
0.0
 13
0.0
 23
0.0
 33
0.0
 16
1.0
 26
0.0
 36
0.0
 17
0.0
 27
1.0
 37
0.0
 76
0
330
210
345
0
346
0
  0
LAYOUT
  5
38D
102
{ACAD_REACTORS
330
1A
102
}
100
AcDbPlotSettings
  1

  2
none_device
  4

  6

 40
0.0
 41
0.0
 42
0.0
 43
0.0
 44
210.0
 45
297.0
 46
0.0
 47
0.0
 48
0.0
 49
0.0
140
0.0
141
0.0
142
1.0
143
1.0
 70
0
 72
1
 73
0
 74
0
  7

 75
0
147
1.0
148
0.0
149
0.0
100
AcDbLayout
  1
Layout1
 70
0
 71
1
 10
0.0
 20
0.0
 11
210.0
 21
297.0
 12
0.0
 22
0.0
 32
0.0
 14
0.0
 24
0.0
 34
0.0
 15
0.0
 25
0.0
 35
0.0
146
0.0
 13
0.0
 23
0.0
 33
0.0
 16
1.0
 26
0.0
 36
0.0
 17
0.0
 27
1.0
 37
0.0
 76
0
330
211
345
0
346
0
  0
ENDSEC
  0
EOF
