999
DXF file: C:\Users\sesa63760\Dev\_Creo\CAD\MCADID0003987_3D-CAD\drw0001_6.dxf
999
Pro/ENGINEER 2019471 by Parametric Technology Corporation
  0
SECTION
  2
HEADER
  9
$ACADVER
  1
AC1024
  9
$DWGCODEPAGE
  3
ANSI_1252
  9
$EXTMAX
 10
61.9390844993
 20
87.5995623632
 30
0.0
  9
$EXTMIN
 10
0.0
 20
0.0
 30
0.0
  9
$LIMMIN
 10
0.0
 20
0.0
  9
$LIMMAX
 10
61.9390844993
 20
87.5995623632
  9
$VIEWCTR
 10
30.9695422496
 20
43.7997811816
  9
$VIEWSIZE
 40
87.5995623632
  9
$CLAYER
  8
0
  9
$LTSCALE
 40
5.7101936948
  9
$CELTYPE
  6
BYLAYER
  9
$DIMSCALE
 40
1.0
  9
$DIMASZ
 40
0.7373700536
  9
$DIMEXO
 40
1.0
  9
$DIMDLI
 40
3.9452247346
  9
$DIMEXE
 40
1.0
  9
$DIMCEN
 40
0.9343953319
  9
$DIMLFAC
 40
1.0
  9
$DIMBLK
  1
_FILLED
  9
$DIMALT
 70
0
  9
$DIMALTF
 40
0.0393700787
  9
$DIMTXT
 40
1.032318075
  9
$DIMTOL
 70
1
  9
$DIMLIM
 70
0
  9
$DIMTFAC
 40
1.0
  9
$DIMTP
 40
0.01
  9
$DIMTM
 40
0.01
  9
$DIMGAP
 40
0.625
  9
$DIMDSEP
 70
46
  9
$AUNITS
 70
0
  9
$PDMODE
 70
3
  9
$PDSIZE
 40
0.3125
  9
$HANDSEED
  5
32E
  9
$TILEMODE
 70
1
  9
$MEASUREMENT
 70
1
  9
$INSUNITS
 70
4
  0
ENDSEC
  0
SECTION
  2
CLASSES
  0
CLASS
  1
ACDBDICTIONARYWDFLT
  2
AcDbDictionaryWithDefault
  3
AutoCAD 2000
 90
0
 91
1
280
0
281
0
  0
CLASS
  1
ACDBPLACEHOLDER
  2
AcDbPlaceHolder
  3
AutoCAD 2000
 90
0
 91
1
280
0
281
0
  0
CLASS
  1
LAYOUT
  2
AcDbLayout
  3
AutoCAD 2000
 90
0
 91
0
280
0
281
0
  0
ENDSEC
  0
SECTION
  2
TABLES
  0
TABLE
  2
VPORT
  5
8
100
AcDbSymbolTable
 70
2
  0
VPORT
  5
1F4
100
AcDbSymbolTableRecord
100
AcDbViewportTableRecord
  2
*ACTIVE
 70
0
 10
0.0
 20
0.0
 11
1.0
 21
1.0
 12
30.9695422496
 22
43.7997811816
 13
0.0
 23
0.0
 14
1.0
 24
1.0
 15
0.0
 25
0.0
 16
0.0
 26
0.0
 36
1.0
 17
0.0
 27
0.0
 37
0.0
 40
87.5995623632
 41
0.7070707071
 42
50.0
 43
0.0
 44
0.0
 50
0.0
 51
0.0
 71
0
 72
100
 73
1
 74
1
 75
0
 76
0
 77
0
 78
0
  0
ENDTAB
  0
TABLE
  2
LTYPE
  5
5
100
AcDbSymbolTable
 70
6
  0
LTYPE
  5
14
100
AcDbSymbolTableRecord
100
AcDbLinetypeTableRecord
  2
BYBLOCK
 70
0
  3

 72
65
 73
0
 40
0.0
  0
LTYPE
  5
15
100
AcDbSymbolTableRecord
100
AcDbLinetypeTableRecord
  2
BYLAYER
 70
0
  3

 72
65
 73
0
 40
0.0
  0
LTYPE
  5
16
100
AcDbSymbolTableRecord
100
AcDbLinetypeTableRecord
  2
CONTINUOUS
 70
64
  3
Solid line
 72
65
 73
0
 40
0.0
  0
LTYPE
  5
1F5
100
AcDbSymbolTableRecord
100
AcDbLinetypeTableRecord
  2
CENTER
 70
64
  3
____ _ ____ _ ____ _ ____ _ ____ _ ____ _ ____
 72
65
 73
4
 40
0.6
 49
0.375
 74
0
 49
-0.075
 74
0
 49
0.075
 74
0
 49
-0.075
 74
0
  0
LTYPE
  5
1F6
100
AcDbSymbolTableRecord
100
AcDbLinetypeTableRecord
  2
HIDDEN
 70
64
  3
- - - - - - - - - - - - - - - - - - - -
 72
65
 73
2
 40
0.2
 49
0.1
 74
0
 49
-0.1
 74
0
  0
LTYPE
  5
1F7
100
AcDbSymbolTableRecord
100
AcDbLinetypeTableRecord
  2
PHANTOM
 70
64
  3
_____ _ _ _____ _ _ _____ _ _ _____
 72
65
 73
6
 40
0.8
 49
0.45
 74
0
 49
-0.05
 74
0
 49
0.1
 74
0
 49
-0.05
 74
0
 49
0.1
 74
0
 49
-0.05
 74
0
  0
LTYPE
  5
1F8
100
AcDbSymbolTableRecord
100
AcDbLinetypeTableRecord
  2
DOT
 70
64
  3
. . . . . . . . . . . . . . . . . . . .
 72
65
 73
2
 40
0.2
 49
0.1
 74
0
 49
-0.1
 74
0
  0
LTYPE
  5
1F9
100
AcDbSymbolTableRecord
100
AcDbLinetypeTableRecord
  2
DASHED
 70
64
  3
- - - - - - - - - - - - - - - - - - - -
 72
65
 73
2
 40
0.2
 49
0.1
 74
0
 49
-0.1
 74
0
  0
ENDTAB
  0
TABLE
  2
LAYER
  5
2
100
AcDbSymbolTable
 70
36
  0
LAYER
  5
10
100
AcDbSymbolTableRecord
100
AcDbLayerTableRecord
  2
0
 70
0
 62
7
  6
CONTINUOUS
370
-3
390
F
  0
LAYER
  5
1FA
100
AcDbSymbolTableRecord
100
AcDbLayerTableRecord
  2
DEFAULT_1
 70
0
 62
7
  6
CENTER
370
-3
390
F
  0
LAYER
  5
1FB
100
AcDbSymbolTableRecord
100
AcDbLayerTableRecord
  2
DEFAULT_2
 70
0
 62
7
  6
HIDDEN
370
-3
390
F
  0
LAYER
  5
1FC
100
AcDbSymbolTableRecord
100
AcDbLayerTableRecord
  2
DEFAULT_3
 70
0
 62
7
  6
PHANTOM
370
-3
390
F
  0
LAYER
  5
1FD
100
AcDbSymbolTableRecord
100
AcDbLayerTableRecord
  2
00_COMPONENTS
 70
0
 62
7
  6
CONTINUOUS
370
-3
390
F
  0
LAYER
  5
1FE
100
AcDbSymbolTableRecord
100
AcDbLayerTableRecord
  2
01_1_DEFAULT_DATUMS
 70
0
 62
7
  6
CONTINUOUS
370
-3
390
F
  0
LAYER
  5
1FF
100
AcDbSymbolTableRecord
100
AcDbLayerTableRecord
  2
01_PLANES
 70
0
 62
7
  6
CONTINUOUS
370
-3
390
F
  0
LAYER
  5
200
100
AcDbSymbolTableRecord
100
AcDbLayerTableRecord
  2
02_COORD_SYS
 70
0
 62
7
  6
CONTINUOUS
370
-3
390
F
  0
LAYER
  5
201
100
AcDbSymbolTableRecord
100
AcDbLayerTableRecord
  2
03_AXES
 70
0
 62
7
  6
CONTINUOUS
370
-3
390
F
  0
LAYER
  5
202
100
AcDbSymbolTableRecord
100
AcDbLayerTableRecord
  2
04_POINTS
 70
0
 62
7
  6
CONTINUOUS
370
-3
390
F
  0
LAYER
  5
203
100
AcDbSymbolTableRecord
100
AcDbLayerTableRecord
  2
05_CURVES
 70
0
 62
7
  6
CONTINUOUS
370
-3
390
F
  0
LAYER
  5
204
100
AcDbSymbolTableRecord
100
AcDbLayerTableRecord
  2
06_SURFS
 70
0
 62
7
  6
CONTINUOUS
370
-3
390
F
  0
LAYER
  5
205
100
AcDbSymbolTableRecord
100
AcDbLayerTableRecord
  2
07_COSMETICS
 70
0
 62
7
  6
CONTINUOUS
370
-3
390
F
  0
LAYER
  5
206
100
AcDbSymbolTableRecord
100
AcDbLayerTableRecord
  2
10_NOTES
 70
0
 62
7
  6
CONTINUOUS
370
-3
390
F
  0
LAYER
  5
207
100
AcDbSymbolTableRecord
100
AcDbLayerTableRecord
  2
11_NOTES_PUB
 70
0
 62
7
  6
CONTINUOUS
370
-3
390
F
  0
LAYER
  5
208
100
AcDbSymbolTableRecord
100
AcDbLayerTableRecord
  2
13_REF_GTOL
 70
0
 62
7
  6
CONTINUOUS
370
-3
390
F
  0
LAYER
  5
209
100
AcDbSymbolTableRecord
100
AcDbLayerTableRecord
  2
16_MISC
 70
0
 62
7
  6
CONTINUOUS
370
-3
390
F
  0
LAYER
  5
20A
100
AcDbSymbolTableRecord
100
AcDbLayerTableRecord
  2
17_NO_PRINT
 70
0
 62
7
  6
CONTINUOUS
370
-3
390
F
  0
LAYER
  5
20B
100
AcDbSymbolTableRecord
100
AcDbLayerTableRecord
  2
18_DATUM_CAMS_JOINTS
 70
0
 62
7
  6
CONTINUOUS
370
-3
390
F
  0
LAYER
  5
20C
100
AcDbSymbolTableRecord
100
AcDbLayerTableRecord
  2
19_DATUM_FUNCTIONAL
 70
0
 62
7
  6
CONTINUOUS
370
-3
390
F
  0
LAYER
  5
20D
100
AcDbSymbolTableRecord
100
AcDbLayerTableRecord
  2
20_DATUM_KINEMATIC_SCHEME
 70
0
 62
7
  6
CONTINUOUS
370
-3
390
F
  0
ENDTAB
  0
TABLE
  2
STYLE
  5
3
100
AcDbSymbolTable
 70
1
  0
STYLE
  5
11
100
AcDbSymbolTableRecord
100
AcDbTextStyleTableRecord
  2
STANDARD
 70
0
 40
0.0
 41
1.0
 50
0.0
 71
0
 42
0.2
  3
ARIAL.TTF
  4

  0
STYLE
  5
20E
100
AcDbSymbolTableRecord
100
AcDbTextStyleTableRecord
  2
TEXTSTYLE_1
 70
0
 40
0.0
 41
0.8
 50
0.0
 71
0
 42
0.2
  3
gdt
  4

  0
ENDTAB
  0
TABLE
  2
VIEW
  5
6
100
AcDbSymbolTable
 70
0
  0
ENDTAB
  0
TABLE
  2
UCS
  5
7
100
AcDbSymbolTable
 70
0
  0
ENDTAB
  0
TABLE
  2
APPID
  5
9
100
AcDbSymbolTable
 70
1
  0
APPID
  5
20F
100
AcDbSymbolTableRecord
100
AcDbRegAppTableRecord
  2
ACAD
 70
0
  0
ENDTAB
  0
TABLE
  2
BLOCK_RECORD
  5
1
100
AcDbSymbolTable
 70
0
  0
BLOCK_RECORD
  5
210
100
AcDbSymbolTableRecord
100
AcDbBlockTableRecord
  2
*Model_Space
  0
BLOCK_RECORD
  5
211
100
AcDbSymbolTableRecord
100
AcDbBlockTableRecord
  2
*Paper_Space
  0
BLOCK_RECORD
  5
212
100
AcDbSymbolTableRecord
100
AcDbBlockTableRecord
  2
_FILLED
  0
ENDTAB
  0
TABLE
  2
DIMSTYLE
  5
A
100
AcDbSymbolTable
 70
1
100
AcDbDimStyleTable
 71
0
  0
DIMSTYLE
105
213
100
AcDbSymbolTableRecord
100
AcDbDimStyleTableRecord
  2
STANDARD
 70
0
  3

  4

 40
1.0
 41
0.7373700536
 42
1.0
 43
0.38
 44
1.0
 45
0.0
 46
0.0
 47
0.01
 48
0.01
140
1.032318075
141
0.09
142
0.0
143
25.4
144
1.0
145
0.0
146
1.0
147
0.625
 71
1
 72
0
 73
0
 74
0
 75
0
 76
0
 77
1
 78
8
 79
2
170
0
171
1
172
0
173
0
174
0
175
0
176
0
177
0
178
0
270
2
179
2
271
2
272
2
273
2
274
2
275
0
280
0
281
0
282
0
283
1
284
8
285
0
286
0
287
3
288
0
340
11
278
46
341
212
342
212
343
212
344
212
  0
ENDTAB
  0
ENDSEC
  0
SECTION
  2
BLOCKS
  0
BLOCK
  5
20
100
AcDbEntity
  8
0
100
AcDbBlockBegin
  2
*Model_Space
 70
0
 10
0.0
 20
0.0
 30
0.0
  3
*Model_Space
  1

  0
ENDBLK
  5
21
100
AcDbEntity
  8
0
100
AcDbBlockEnd
  0
BLOCK
  5
1C
100
AcDbEntity
  8
0
100
AcDbBlockBegin
  2
*Paper_Space
 70
0
 10
0.0
 20
0.0
 30
0.0
  3
*Paper_Space
  1

  0
ENDBLK
  5
1D
100
AcDbEntity
  8
0
100
AcDbBlockEnd
  0
BLOCK
  5
214
100
AcDbEntity
  8
0
100
AcDbBlockBegin
  2
_FILLED
 70
64
 10
0.0
 20
0.0
  3
_FILLED
  1

  0
SOLID
  5
215
100
AcDbEntity
  8
0
  6
BYBLOCK
 62
0
100
AcDbTrace
 10
0.0
 20
0.0
 11
-1.0
 21
0.25
 12
-1.0
 22
-0.25
 13
-1.0
 23
-0.25
  0
ENDBLK
  5
216
100
AcDbEntity
  8
0
  6
BYBLOCK
 62
0
100
AcDbBlockEnd
  0
ENDSEC
  0
SECTION
  2
ENTITIES
  0
LINE
  5
217
100
AcDbEntity
  8
0
100
AcDbLine
 62
7
  6
BYLAYER
 10
7.0056472825
 20
38.6289579076
 11
7.0056472825
 21
48.9706044556
  0
LINE
  5
218
100
AcDbEntity
  8
0
100
AcDbLine
 62
7
  6
BYLAYER
 10
8.3056472825
 20
38.3997811816
 11
8.3056472825
 21
49.1997811816
  0
LINE
  5
219
100
AcDbEntity
  8
0
100
AcDbLine
 62
7
  6
BYLAYER
 10
8.5056472825
 20
49.1997527786
 11
8.5056472825
 21
38.3997723268
  0
LINE
  5
21A
100
AcDbEntity
  8
0
100
AcDbLine
 62
7
  6
BYLAYER
 10
8.9556472825
 20
49.1497811816
 11
8.9556472825
 21
38.4497811816
  0
LINE
  5
21B
100
AcDbEntity
  8
0
100
AcDbLine
 62
7
  6
BYLAYER
 10
9.6056472825
 20
37.7997811816
 11
9.6056472825
 21
49.7997811816
  0
LINE
  5
21C
100
AcDbEntity
  8
0
100
AcDbLine
 62
7
  6
BYLAYER
 10
8.9556472825
 20
49.1497811816
 11
9.6056472825
 21
49.7997811816
  0
LINE
  5
21D
100
AcDbEntity
  8
0
100
AcDbLine
 62
7
  6
BYLAYER
 10
8.9556472825
 20
38.4497811816
 11
9.6056472825
 21
37.7997811816
  0
LINE
  5
21E
100
AcDbEntity
  8
0
100
AcDbLine
 62
7
  6
BYLAYER
 10
15.1056472825
 20
49.7997811816
 11
15.1056472825
 21
37.7997811816
  0
LINE
  5
21F
100
AcDbEntity
  8
0
100
AcDbLine
 62
7
  6
BYLAYER
 10
15.7556472825
 20
38.4497811816
 11
15.7556472825
 21
49.1497811816
  0
LINE
  5
220
100
AcDbEntity
  8
0
100
AcDbLine
 62
7
  6
BYLAYER
 10
46.2056472825
 20
36.0483710201
 11
46.0056472825
 21
35.9947811816
  0
LINE
  5
221
100
AcDbEntity
  8
0
100
AcDbLine
 62
7
  6
BYLAYER
 10
45.3310448287
 20
34.1348266054
 11
43.6802497054
 21
34.1348266054
  0
LINE
  5
222
100
AcDbEntity
  8
0
100
AcDbLine
 62
7
  6
BYLAYER
 10
50.6802497362
 20
34.1348266054
 11
52.3310448287
 21
34.1348266054
  0
LINE
  5
223
100
AcDbEntity
  8
0
100
AcDbLine
 62
7
  6
BYLAYER
 10
7.0056472825
 20
38.6290062565
 11
8.3056472825
 21
38.3997811816
  0
LINE
  5
224
100
AcDbEntity
  8
0
100
AcDbLine
 62
7
  6
BYLAYER
 10
26.4056472825
 20
49.5997811816
 11
26.6056472825
 21
49.7997811816
  0
LINE
  5
225
100
AcDbEntity
  8
0
100
AcDbLine
 62
7
  6
BYLAYER
 10
15.7556472825
 20
38.4497811816
 11
15.1056472825
 21
37.7997811816
  0
LINE
  5
226
100
AcDbEntity
  8
0
100
AcDbLine
 62
7
  6
BYLAYER
 10
26.4056472825
 20
37.9997811816
 11
26.6056472825
 21
37.7997811816
  0
LINE
  5
227
100
AcDbEntity
  8
0
100
AcDbLine
 62
7
  6
BYLAYER
 10
15.7556472825
 20
49.1497811816
 11
15.1056472825
 21
49.7997811816
  0
LINE
  5
228
100
AcDbEntity
  8
0
100
AcDbLine
 62
7
  6
BYLAYER
 10
24.8386599844
 20
49.1497811816
 11
24.8386599844
 21
38.4497811816
  0
LINE
  5
229
100
AcDbEntity
  8
0
100
AcDbLine
 62
7
  6
BYLAYER
 10
25.3386599844
 20
38.5837557778
 11
25.3386599844
 21
49.0158065854
  0
LINE
  5
22A
100
AcDbEntity
  8
0
100
AcDbLine
 62
7
  6
BYLAYER
 10
26.4056472825
 20
37.9997742784
 11
26.4056472825
 21
49.5997880848
  0
LINE
  5
22B
100
AcDbEntity
  8
0
100
AcDbLine
 62
7
  6
BYLAYER
 10
55.4056472824
 20
37.7997811816
 11
53.0056472825
 21
37.7997811816
  0
LINE
  5
22C
100
AcDbEntity
  8
0
100
AcDbLine
 62
7
  6
BYLAYER
 10
49.3056472825
 20
37.7997811816
 11
46.7056472825
 21
37.7997811816
  0
LINE
  5
22D
100
AcDbEntity
  8
0
100
AcDbLine
 62
7
  6
BYLAYER
 10
43.0056472825
 20
37.7997811816
 11
26.6056472825
 21
37.7997811816
  0
LINE
  5
22E
100
AcDbEntity
  8
0
100
AcDbLine
 62
7
  6
BYLAYER
 10
15.1056472825
 20
37.7997811816
 11
9.6056472825
 21
37.7997811816
  0
LINE
  5
22F
100
AcDbEntity
  8
0
100
AcDbLine
 62
7
  6
BYLAYER
 10
8.5056472825
 20
38.3997811816
 11
8.3056472825
 21
38.3997811816
  0
LINE
  5
230
100
AcDbEntity
  8
0
100
AcDbLine
 62
7
  6
BYLAYER
 10
24.8386599844
 20
38.4497811816
 11
15.7556472825
 21
38.4497811816
  0
LINE
  5
231
100
AcDbEntity
  8
0
100
AcDbLine
 62
7
  6
BYLAYER
 10
8.9556472825
 20
38.4497811816
 11
8.5056472825
 21
38.4497811816
  0
LINE
  5
232
100
AcDbEntity
  8
0
100
AcDbLine
 62
7
  6
BYLAYER
 10
55.6056472825
 20
38.5997811816
 11
55.9379348587
 21
38.5997811816
  0
LINE
  5
233
100
AcDbEntity
  8
0
100
AcDbLine
 62
7
  6
BYLAYER
 10
45.3310448299
 20
38.7423038935
 11
43.6802497351
 21
38.7423038935
  0
LINE
  5
234
100
AcDbEntity
  8
0
100
AcDbLine
 62
7
  6
BYLAYER
 10
50.6802497351
 20
38.7423038935
 11
52.3310448607
 21
38.7423038935
  0
LINE
  5
235
100
AcDbEntity
  8
0
100
AcDbLine
 62
7
  6
BYLAYER
 10
26.6056472825
 20
37.7997811816
 11
26.6056472825
 21
49.7997811816
  0
LINE
  5
236
100
AcDbEntity
  8
0
100
AcDbLine
 62
7
  6
BYLAYER
 10
45.3851396462
 20
39.3923038935
 11
43.6261549355
 21
39.3923038935
  0
LINE
  5
237
100
AcDbEntity
  8
0
100
AcDbLine
 62
7
  6
BYLAYER
 10
50.6261549188
 20
39.3923038935
 11
52.3851395624
 21
39.3923038935
  0
LINE
  5
238
100
AcDbEntity
  8
0
100
AcDbLine
 62
7
  6
BYLAYER
 10
49.8056472825
 20
36.0483710201
 11
50.0056472825
 21
35.9947811816
  0
LINE
  5
239
100
AcDbEntity
  8
0
100
AcDbLine
 62
7
  6
BYLAYER
 10
46.6920351176
 20
36.4033997431
 11
46.7056472825
 21
36.3969725952
  0
LINE
  5
23A
100
AcDbEntity
  8
0
100
AcDbLine
 62
7
  6
BYLAYER
 10
26.4056472825
 20
39.1997811816
 11
25.3386599844
 21
38.5837557778
  0
LINE
  5
23B
100
AcDbEntity
  8
0
100
AcDbLine
 62
7
  6
BYLAYER
 10
26.4056472825
 20
48.3997811816
 11
25.3386599844
 21
49.0158065854
  0
LINE
  5
23C
100
AcDbEntity
  8
0
100
AcDbLine
 62
7
  6
BYLAYER
 10
49.3056472825
 20
51.4172167469
 11
50.0056472825
 21
51.6047811816
  0
LINE
  5
23D
100
AcDbEntity
  8
0
100
AcDbLine
 62
7
  6
BYLAYER
 10
45.3851396462
 20
48.2072584697
 11
43.6261550024
 21
48.2072584697
  0
LINE
  5
23E
100
AcDbEntity
  8
0
100
AcDbLine
 62
7
  6
BYLAYER
 10
50.6261549188
 20
48.2072584697
 11
52.3851396293
 21
48.2072584697
  0
LINE
  5
23F
100
AcDbEntity
  8
0
100
AcDbLine
 62
7
  6
BYLAYER
 10
45.3310448287
 20
48.8572584697
 11
43.6802497054
 21
48.8572584697
  0
LINE
  5
240
100
AcDbEntity
  8
0
100
AcDbLine
 62
7
  6
BYLAYER
 10
50.6802497362
 20
48.8572584697
 11
52.331044723
 21
48.8572584697
  0
LINE
  5
241
100
AcDbEntity
  8
0
100
AcDbLine
 62
7
  6
BYLAYER
 10
55.9379348587
 20
48.9997811816
 11
55.6056472825
 21
48.9997811816
  0
LINE
  5
242
100
AcDbEntity
  8
0
100
AcDbLine
 62
7
  6
BYLAYER
 10
24.8386599844
 20
49.1497811816
 11
15.7556472825
 21
49.1497811816
  0
LINE
  5
243
100
AcDbEntity
  8
0
100
AcDbLine
 62
7
  6
BYLAYER
 10
8.9556472825
 20
49.1497811816
 11
8.5056472825
 21
49.1497811816
  0
LINE
  5
244
100
AcDbEntity
  8
0
100
AcDbLine
 62
7
  6
BYLAYER
 10
8.5056472825
 20
49.1997811816
 11
8.3056472825
 21
49.1997811816
  0
LINE
  5
245
100
AcDbEntity
  8
0
100
AcDbLine
 62
7
  6
BYLAYER
 10
43.0056472825
 20
52.2997811816
 11
43.6565834855
 21
53.4272357578
  0
LINE
  5
246
100
AcDbEntity
  8
0
100
AcDbLine
 62
7
  6
BYLAYER
 10
55.4056472824
 20
49.7997811816
 11
53.0056472825
 21
49.7997811816
  0
LINE
  5
247
100
AcDbEntity
  8
0
100
AcDbLine
 62
7
  6
BYLAYER
 10
49.4759749518
 20
49.7997811816
 11
46.5353160168
 21
49.7997811816
  0
LINE
  5
248
100
AcDbEntity
  8
0
100
AcDbLine
 62
7
  6
BYLAYER
 10
43.0056472825
 20
49.7997811816
 11
26.6056472825
 21
49.7997811816
  0
LINE
  5
249
100
AcDbEntity
  8
0
100
AcDbLine
 62
7
  6
BYLAYER
 10
15.1056472825
 20
49.7997811816
 11
9.6056472825
 21
49.7997811816
  0
LINE
  5
24A
100
AcDbEntity
  8
0
100
AcDbLine
 62
7
  6
BYLAYER
 10
43.0056472825
 20
35.2997811816
 11
43.6565834855
 21
34.1723266054
  0
LINE
  5
24B
100
AcDbEntity
  8
0
100
AcDbLine
 62
7
  6
BYLAYER
 10
46.4468255682
 20
49.8733325717
 11
46.4773233205
 21
49.9151801114
  0
LINE
  5
24C
100
AcDbEntity
  8
0
100
AcDbLine
 62
7
  6
BYLAYER
 10
46.4773233205
 20
37.3408266507
 11
46.4720699155
 21
37.347868988
  0
LINE
  5
24D
100
AcDbEntity
  8
0
100
AcDbLine
 62
7
  6
BYLAYER
 10
7.0056472825
 20
48.9705561067
 11
8.3056472825
 21
49.1997811816
  0
LINE
  5
24E
100
AcDbEntity
  8
0
100
AcDbLine
 62
7
  6
BYLAYER
 10
45.3310448299
 20
53.4647357578
 11
43.6802498411
 21
53.4647357578
  0
LINE
  5
24F
100
AcDbEntity
  8
0
100
AcDbLine
 62
7
  6
BYLAYER
 10
50.6802497351
 20
53.4647357578
 11
52.3310448607
 21
53.4647357578
  0
LINE
  5
250
100
AcDbEntity
  8
0
100
AcDbLine
 62
7
  6
BYLAYER
 10
43.0056472825
 20
35.2997840492
 11
43.0056472825
 21
52.2997783141
  0
LINE
  5
251
100
AcDbEntity
  8
0
100
AcDbLine
 62
7
  6
BYLAYER
 10
50.0056472825
 20
52.2997811816
 11
50.6565834855
 21
53.4272357578
  0
LINE
  5
252
100
AcDbEntity
  8
0
100
AcDbLine
 62
7
  6
BYLAYER
 10
46.7056472825
 20
51.4172167469
 11
46.0056472825
 21
51.6047811816
  0
LINE
  5
253
100
AcDbEntity
  8
0
100
AcDbLine
 62
7
  6
BYLAYER
 10
50.0056472825
 20
35.2997811816
 11
50.6565834855
 21
34.1723266054
  0
LINE
  5
254
100
AcDbEntity
  8
0
100
AcDbLine
 62
7
  6
BYLAYER
 10
46.0056472825
 20
52.2997783141
 11
46.0056472825
 21
35.2997840492
  0
LINE
  5
255
100
AcDbEntity
  8
0
100
AcDbLine
 62
7
  6
BYLAYER
 10
46.7056472825
 20
51.4150095419
 11
46.7056472825
 21
51.0979174302
  0
LINE
  5
256
100
AcDbEntity
  8
0
100
AcDbLine
 62
7
  6
BYLAYER
 10
46.7056472825
 20
50.9938522999
 11
46.7056472825
 21
50.7136077125
  0
LINE
  5
257
100
AcDbEntity
  8
0
100
AcDbLine
 62
7
  6
BYLAYER
 10
46.7056472825
 20
50.4311110018
 11
46.7056472825
 21
50.1070819214
  0
LINE
  5
258
100
AcDbEntity
  8
0
100
AcDbLine
 62
7
  6
BYLAYER
 10
46.7056472825
 20
49.655233307
 11
46.7056472825
 21
49.2978342949
  0
LINE
  5
259
100
AcDbEntity
  8
0
100
AcDbLine
 62
7
  6
BYLAYER
 10
46.7056472825
 20
48.691156563
 11
46.7056472825
 21
48.3118747174
  0
LINE
  5
25A
100
AcDbEntity
  8
0
100
AcDbLine
 62
7
  6
BYLAYER
 10
46.7056472825
 20
47.5698669895
 11
46.7056472825
 21
47.1808927412
  0
LINE
  5
25B
100
AcDbEntity
  8
0
100
AcDbLine
 62
7
  6
BYLAYER
 10
46.7056472825
 20
46.3274037562
 11
46.7056472825
 21
45.9412390575
  0
LINE
  5
25C
100
AcDbEntity
  8
0
100
AcDbLine
 62
7
  6
BYLAYER
 10
46.7056472825
 20
45.0037006536
 11
46.7056472825
 21
44.6327571556
  0
LINE
  5
25D
100
AcDbEntity
  8
0
100
AcDbLine
 62
7
  6
BYLAYER
 10
46.7056472825
 20
43.6413025886
 11
46.7056472825
 21
43.2749479177
  0
LINE
  5
25E
100
AcDbEntity
  8
0
100
AcDbLine
 62
7
  6
BYLAYER
 10
46.7056472825
 20
42.3065529588
 11
46.7056472825
 21
41.9264687532
  0
LINE
  5
25F
100
AcDbEntity
  8
0
100
AcDbLine
 62
7
  6
BYLAYER
 10
46.7056472825
 20
41.0273354123
 11
46.7056472825
 21
40.6381993916
  0
LINE
  5
260
100
AcDbEntity
  8
0
100
AcDbLine
 62
7
  6
BYLAYER
 10
46.7056472825
 20
39.8372265539
 11
46.7056472825
 21
39.45154587
  0
LINE
  5
261
100
AcDbEntity
  8
0
100
AcDbLine
 62
7
  6
BYLAYER
 10
46.7056472825
 20
38.7744774617
 11
46.7056472825
 21
38.4046482091
  0
LINE
  5
262
100
AcDbEntity
  8
0
100
AcDbLine
 62
7
  6
BYLAYER
 10
46.7056472825
 20
37.8732457659
 11
46.7056472825
 21
37.531154561
  0
LINE
  5
263
100
AcDbEntity
  8
0
100
AcDbLine
 62
7
  6
BYLAYER
 10
46.7056472825
 20
37.1624977947
 11
46.7056472825
 21
36.8591397304
  0
LINE
  5
264
100
AcDbEntity
  8
0
100
AcDbLine
 62
7
  6
BYLAYER
 10
46.7056472825
 20
36.6650775728
 11
46.7056472825
 21
36.4102028268
  0
LINE
  5
265
100
AcDbEntity
  8
0
100
AcDbLine
 62
7
  6
BYLAYER
 10
46.7056472825
 20
36.3969725952
 11
46.7056472825
 21
36.1987730517
  0
LINE
  5
266
100
AcDbEntity
  8
0
100
AcDbLine
 62
7
  6
BYLAYER
 10
49.3192505159
 20
36.4034495091
 11
49.3056472825
 21
36.3969725952
  0
LINE
  5
267
100
AcDbEntity
  8
0
100
AcDbLine
 62
7
  6
BYLAYER
 10
46.0056472825
 20
35.2997811816
 11
45.3547110794
 21
34.1723266054
  0
LINE
  5
268
100
AcDbEntity
  8
0
100
AcDbLine
 62
7
  6
BYLAYER
 10
46.0056472825
 20
52.2997811816
 11
45.3547110794
 21
53.4272357578
  0
LINE
  5
269
100
AcDbEntity
  8
0
100
AcDbLine
 62
7
  6
BYLAYER
 10
49.3056472825
 20
36.1987730517
 11
49.3056472825
 21
36.3969725952
  0
LINE
  5
26A
100
AcDbEntity
  8
0
100
AcDbLine
 62
7
  6
BYLAYER
 10
49.3056472825
 20
36.4102028268
 11
49.3056472825
 21
36.6650775728
  0
LINE
  5
26B
100
AcDbEntity
  8
0
100
AcDbLine
 62
7
  6
BYLAYER
 10
49.3056472825
 20
36.8591397304
 11
49.3056472825
 21
37.1624977947
  0
LINE
  5
26C
100
AcDbEntity
  8
0
100
AcDbLine
 62
7
  6
BYLAYER
 10
49.3056472825
 20
37.531154561
 11
49.3056472825
 21
37.8732457659
  0
LINE
  5
26D
100
AcDbEntity
  8
0
100
AcDbLine
 62
7
  6
BYLAYER
 10
49.3056472825
 20
38.4046482091
 11
49.3056472825
 21
38.7744774617
  0
LINE
  5
26E
100
AcDbEntity
  8
0
100
AcDbLine
 62
7
  6
BYLAYER
 10
49.3056472825
 20
39.45154587
 11
49.3056472825
 21
39.8372265539
  0
LINE
  5
26F
100
AcDbEntity
  8
0
100
AcDbLine
 62
7
  6
BYLAYER
 10
49.3056472825
 20
40.6381993916
 11
49.3056472825
 21
41.0273354123
  0
LINE
  5
270
100
AcDbEntity
  8
0
100
AcDbLine
 62
7
  6
BYLAYER
 10
49.3056472825
 20
41.9264687532
 11
49.3056472825
 21
42.3065529588
  0
LINE
  5
271
100
AcDbEntity
  8
0
100
AcDbLine
 62
7
  6
BYLAYER
 10
49.3056472825
 20
43.2749479177
 11
49.3056472825
 21
43.6413025886
  0
LINE
  5
272
100
AcDbEntity
  8
0
100
AcDbLine
 62
7
  6
BYLAYER
 10
49.3056472825
 20
44.6327571556
 11
49.3056472825
 21
45.0037006536
  0
LINE
  5
273
100
AcDbEntity
  8
0
100
AcDbLine
 62
7
  6
BYLAYER
 10
49.3056472825
 20
45.9412390575
 11
49.3056472825
 21
46.3274037562
  0
LINE
  5
274
100
AcDbEntity
  8
0
100
AcDbLine
 62
7
  6
BYLAYER
 10
49.3056472825
 20
47.1808927412
 11
49.3056472825
 21
47.5698669895
  0
LINE
  5
275
100
AcDbEntity
  8
0
100
AcDbLine
 62
7
  6
BYLAYER
 10
49.3056472825
 20
48.3118747174
 11
49.3056472825
 21
48.691156563
  0
LINE
  5
276
100
AcDbEntity
  8
0
100
AcDbLine
 62
7
  6
BYLAYER
 10
49.3056472825
 20
49.2978342949
 11
49.3056472825
 21
49.655233307
  0
LINE
  5
277
100
AcDbEntity
  8
0
100
AcDbLine
 62
7
  6
BYLAYER
 10
49.3056472825
 20
50.1070819214
 11
49.3056472825
 21
50.4311110018
  0
LINE
  5
278
100
AcDbEntity
  8
0
100
AcDbLine
 62
7
  6
BYLAYER
 10
49.3056472825
 20
50.7136077125
 11
49.3056472825
 21
50.9938522999
  0
LINE
  5
279
100
AcDbEntity
  8
0
100
AcDbLine
 62
7
  6
BYLAYER
 10
49.3056472825
 20
51.0979174302
 11
49.3056472825
 21
51.4150095419
  0
LINE
  5
27A
100
AcDbEntity
  8
0
100
AcDbLine
 62
7
  6
BYLAYER
 10
50.0056472825
 20
35.2997840492
 11
50.0056472825
 21
52.2997783141
  0
LINE
  5
27B
100
AcDbEntity
  8
0
100
AcDbLine
 62
7
  6
BYLAYER
 10
49.5339712444
 20
37.3408266507
 11
49.5392153989
 21
37.3478813953
  0
LINE
  5
27C
100
AcDbEntity
  8
0
100
AcDbLine
 62
7
  6
BYLAYER
 10
49.5645076181
 20
49.8733742576
 11
49.5339712444
 21
49.9151801114
  0
LINE
  5
27D
100
AcDbEntity
  8
0
100
AcDbLine
 62
7
  6
BYLAYER
 10
55.6056472825
 20
37.9997811816
 11
55.4056472825
 21
37.7997811816
  0
LINE
  5
27E
100
AcDbEntity
  8
0
100
AcDbLine
 62
7
  6
BYLAYER
 10
55.6056472825
 20
49.5997811816
 11
55.4056472825
 21
49.7997811816
  0
LINE
  5
27F
100
AcDbEntity
  8
0
100
AcDbLine
 62
7
  6
BYLAYER
 10
53.0056472825
 20
52.2997783141
 11
53.0056472825
 21
35.2997840492
  0
LINE
  5
280
100
AcDbEntity
  8
0
100
AcDbLine
 62
7
  6
BYLAYER
 10
53.0056472825
 20
35.2997811816
 11
52.3547110794
 21
34.1723266054
  0
LINE
  5
281
100
AcDbEntity
  8
0
100
AcDbLine
 62
7
  6
BYLAYER
 10
53.0056472825
 20
52.2997811816
 11
52.3547110794
 21
53.4272357578
  0
LINE
  5
282
100
AcDbEntity
  8
0
100
AcDbLine
 62
7
  6
BYLAYER
 10
55.4056472825
 20
49.7997811816
 11
55.4056472825
 21
37.7997811816
  0
LINE
  5
283
100
AcDbEntity
  8
0
100
AcDbLine
 62
7
  6
BYLAYER
 10
55.6056472825
 20
49.5997226992
 11
55.6056472825
 21
37.9997742407
  0
LINE
  5
284
100
AcDbEntity
  8
0
100
AcDbLine
 62
7
  6
BYLAYER
 10
55.8056472825
 20
48.9997811816
 11
55.8056472825
 21
38.5997811816
  0
LINE
  5
285
100
AcDbEntity
  8
0
100
AcDbLine
 62
7
  6
BYLAYER
 10
56.0056472825
 20
48.849785121
 11
56.0056472825
 21
38.7497815951
  0
ARC
  5
286
100
AcDbEntity
  8
0
100
AcDbCircle
 62
7
  6
BYLAYER
 10
-48.3773939504
 20
-36.6218898843
 40
127.9217928841
100
AcDbArc
 50
39.9135972089
 51
40.0573917344
  0
ARC
  5
287
100
AcDbEntity
  8
0
100
AcDbCircle
 62
7
  6
BYLAYER
 10
-25.6818248263
 20
-26.0846747802
 40
103.9752530048
100
AcDbArc
 50
43.6640128139
 51
43.8459429002
  0
ARC
  5
288
100
AcDbEntity
  8
0
100
AcDbCircle
 62
7
  6
BYLAYER
 10
-18.3924627359
 20
-5.3787128093
 40
85.741197754
100
AcDbArc
 50
37.4288711659
 51
37.6059455388
  0
ARC
  5
289
100
AcDbEntity
  8
0
100
AcDbCircle
 62
7
  6
BYLAYER
 10
-5.643576849
 20
7.6730631479
 40
68.3918613698
100
AcDbArc
 50
36.047952661
 51
36.2169752502
  0
ARC
  5
28A
100
AcDbEntity
  8
0
100
AcDbCircle
 62
7
  6
BYLAYER
 10
7.050322806
 20
6.411462483
 40
58.7167683902
100
AcDbArc
 50
43.6528706996
 51
43.9746867688
  0
ARC
  5
28B
100
AcDbEntity
  8
0
100
AcDbCircle
 62
7
  6
BYLAYER
 10
3.3182984219
 20
15.8062112459
 40
56.9496936179
100
AcDbArc
 50
35.6238883058
 51
35.7555389505
  0
ARC
  5
28C
100
AcDbEntity
  8
0
100
AcDbCircle
 62
7
  6
BYLAYER
 10
21.2313089043
 20
20.1945304054
 40
39.7335315135
100
AcDbArc
 50
44.5766797026
 51
45.0438509386
  0
ARC
  5
28D
100
AcDbEntity
  8
0
100
AcDbCircle
 62
7
  6
BYLAYER
 10
29.8331502611
 20
28.3237733866
 40
28.6197374417
100
AcDbArc
 50
46.4991892432
 51
47.1261087628
  0
ARC
  5
28E
100
AcDbEntity
  8
0
100
AcDbCircle
 62
7
  6
BYLAYER
 10
35.8242490195
 20
33.8351909364
 40
21.1310798435
100
AcDbArc
 50
49.5492480528
 51
50.3579665646
  0
ARC
  5
28F
100
AcDbEntity
  8
0
100
AcDbCircle
 62
7
  6
BYLAYER
 10
-30.1433923616
 20
105.0669397857
 40
102.0733830313
100
AcDbArc
 50
321.3145386134
 51
321.4794548404
  0
ARC
  5
290
100
AcDbEntity
  8
0
100
AcDbCircle
 62
7
  6
BYLAYER
 10
-11.5866352329
 20
85.7774342045
 40
76.3197728427
100
AcDbArc
 50
323.2112434021
 51
323.3871737542
  0
ARC
  5
291
100
AcDbEntity
  8
0
100
AcDbCircle
 62
7
  6
BYLAYER
 10
-5.0799910132
 20
93.1715305064
 40
75.344639722
100
AcDbArc
 50
316.205355204
 51
316.456812745
  0
ARC
  5
292
100
AcDbEntity
  8
0
100
AcDbCircle
 62
7
  6
BYLAYER
 10
-0.887499432
 20
75.4632572815
 40
62.2260359517
100
AcDbArc
 50
324.1248028171
 51
324.2787862363
  0
ARC
  5
293
100
AcDbEntity
  8
0
100
AcDbCircle
 62
7
  6
BYLAYER
 10
15.167093879
 20
73.2547335313
 40
47.7720692567
100
AcDbArc
 50
315.6115121003
 51
316.0043624624
  0
ARC
  5
294
100
AcDbEntity
  8
0
100
AcDbCircle
 62
7
  6
BYLAYER
 10
25.9436293449
 20
62.9252045835
 40
33.6012128148
100
AcDbArc
 50
314.048980282
 51
314.5931697624
  0
ARC
  5
295
100
AcDbEntity
  8
0
100
AcDbCircle
 62
7
  6
BYLAYER
 10
33.055050482
 20
56.297538671
 40
24.5669791677
100
AcDbArc
 50
311.4129416223
 51
312.126924586
  0
ARC
  5
296
100
AcDbEntity
  8
0
100
AcDbCircle
 62
7
  6
BYLAYER
 10
38.1734662972
 20
51.6509559795
 40
18.2713128719
100
AcDbArc
 50
307.5368098508
 51
308.4453075527
  0
ARC
  5
297
100
AcDbEntity
  8
0
100
AcDbCircle
 62
7
  6
BYLAYER
 10
40.2214036793
 20
37.7724777258
 40
15.8112721554
100
AcDbArc
 50
54.0564170448
 51
54.9324192402
  0
ARC
  5
298
100
AcDbEntity
  8
0
100
AcDbCircle
 62
7
  6
BYLAYER
 10
37.5882071718
 20
47.303068419
 40
14.8245327009
100
AcDbArc
 50
3.4968015304
 51
6.0178941128
  0
ARC
  5
299
100
AcDbEntity
  8
0
100
AcDbCircle
 62
7
  6
BYLAYER
 10
37.5882073006
 20
40.2964939067
 40
14.82453257
100
AcDbArc
 50
353.9821059797
 51
356.503198584
  0
ARC
  5
29A
100
AcDbEntity
  8
0
100
AcDbCircle
 62
7
  6
BYLAYER
 10
30.611752145
 20
47.3050268142
 40
14.8009121414
100
AcDbArc
 50
3.4947936857
 51
6.019910309
  0
ARC
  5
29B
100
AcDbEntity
  8
0
100
AcDbCircle
 62
7
  6
BYLAYER
 10
30.6117523177
 20
40.2945355075
 40
14.8009119666
100
AcDbArc
 50
353.9800897813
 51
356.5052064341
  0
ARC
  5
29C
100
AcDbEntity
  8
0
100
AcDbCircle
 62
7
  6
BYLAYER
 10
41.9861861806
 20
48.2845747122
 40
13.7327063827
100
AcDbArc
 50
302.2080256636
 51
302.9511971882
  0
ARC
  5
29D
100
AcDbEntity
  8
0
100
AcDbCircle
 62
7
  6
BYLAYER
 10
43.473463182
 20
40.5484832076
 40
12.0542496157
100
AcDbArc
 50
60.5657401623
 51
61.0642819867
  0
ARC
  5
29E
100
AcDbEntity
  8
0
100
AcDbCircle
 62
7
  6
BYLAYER
 10
24.8386599844
 20
39.4497811816
 40
1.0
100
AcDbArc
 50
270.0
 51
300.0
  0
ARC
  5
29F
100
AcDbEntity
  8
0
100
AcDbCircle
 62
7
  6
BYLAYER
 10
24.8386599844
 20
48.1497811816
 40
1.0
100
AcDbArc
 50
60.0
 51
90.0
  0
ARC
  5
2A0
100
AcDbEntity
  8
0
100
AcDbCircle
 62
7
  6
BYLAYER
 10
144.3001230084
 20
-36.5473917761
 40
127.8060612266
100
AcDbArc
 50
139.9426190813
 51
140.0865446445
  0
ARC
  5
2A1
100
AcDbEntity
  8
0
100
AcDbCircle
 62
7
  6
BYLAYER
 10
121.7667193708
 20
-26.1551436881
 40
104.0771490196
100
AcDbArc
 50
136.1541461586
 51
136.3358981273
  0
ARC
  5
2A2
100
AcDbEntity
  8
0
100
AcDbCircle
 62
7
  6
BYLAYER
 10
113.7403039292
 20
-4.8690868518
 40
84.9046048243
100
AcDbArc
 50
142.3932997968
 51
142.5721204721
  0
ARC
  5
2A3
100
AcDbEntity
  8
0
100
AcDbCircle
 62
7
  6
BYLAYER
 10
101.3437337737
 20
7.8999961184
 40
68.0067579527
100
AcDbArc
 50
143.782394686
 51
143.9523794238
  0
ARC
  5
2A4
100
AcDbEntity
  8
0
100
AcDbCircle
 62
7
  6
BYLAYER
 10
89.00246777
 20
6.3716500785
 40
58.7742742198
100
AcDbArc
 50
136.025470667
 51
136.3469718646
  0
ARC
  5
2A5
100
AcDbEntity
  8
0
100
AcDbCircle
 62
7
  6
BYLAYER
 10
92.7867647642
 20
15.7381406145
 40
57.0655640804
100
AcDbArc
 50
144.2440103724
 51
144.3753920388
  0
ARC
  5
2A6
100
AcDbEntity
  8
0
100
AcDbCircle
 62
7
  6
BYLAYER
 10
74.8075768663
 20
20.1671213334
 40
39.7724224731
100
AcDbArc
 50
134.9563774714
 51
135.4230918874
  0
ARC
  5
2A7
100
AcDbEntity
  8
0
100
AcDbCircle
 62
7
  6
BYLAYER
 10
66.1973061325
 20
28.3033590821
 40
28.6477355857
100
AcDbArc
 50
132.8741975923
 51
133.5005044018
  0
ARC
  5
2A8
100
AcDbEntity
  8
0
100
AcDbCircle
 62
7
  6
BYLAYER
 10
60.2003410663
 20
33.8193719819
 40
21.1517435545
100
AcDbArc
 50
129.6424284715
 51
130.4503569111
  0
ARC
  5
2A9
100
AcDbEntity
  8
0
100
AcDbCircle
 62
7
  6
BYLAYER
 10
125.6209185084
 20
104.6405097471
 40
101.3901914646
100
AcDbArc
 50
218.5198650701
 51
218.6858922526
  0
ARC
  5
2AA
100
AcDbEntity
  8
0
100
AcDbCircle
 62
7
  6
BYLAYER
 10
107.2474453952
 20
85.5161436126
 40
75.8826096248
100
AcDbArc
 50
216.6122984512
 51
216.7892391312
  0
ARC
  5
2AB
100
AcDbEntity
  8
0
100
AcDbCircle
 62
7
  6
BYLAYER
 10
101.0912855768
 20
93.1715305052
 40
75.3446397202
100
AcDbArc
 50
223.543187255
 51
223.794644796
  0
ARC
  5
2AC
100
AcDbEntity
  8
0
100
AcDbCircle
 62
7
  6
BYLAYER
 10
96.7253344
 20
75.3386794996
 40
62.012477166
100
AcDbArc
 50
215.7213342852
 51
215.8758497376
  0
ARC
  5
2AD
100
AcDbEntity
  8
0
100
AcDbCircle
 62
7
  6
BYLAYER
 10
80.8106969413
 20
73.2221615926
 40
47.7253423222
100
AcDbArc
 50
223.9954452208
 51
224.3886802164
  0
ARC
  5
2AE
100
AcDbEntity
  8
0
100
AcDbCircle
 62
7
  6
BYLAYER
 10
70.044715045
 20
62.9017039652
 40
33.5683652086
100
AcDbArc
 50
225.4065639831
 51
225.9512859725
  0
ARC
  5
2AF
100
AcDbEntity
  8
0
100
AcDbCircle
 62
7
  6
BYLAYER
 10
62.9402532864
 20
56.2796350389
 40
24.5429745176
100
AcDbArc
 50
227.8727262483
 51
228.5874075435
  0
ARC
  5
2B0
100
AcDbEntity
  8
0
100
AcDbCircle
 62
7
  6
BYLAYER
 10
57.8268422608
 20
51.636890008
 40
18.253465635
100
AcDbArc
 50
231.5542482984
 51
232.4636342981
  0
ARC
  5
2B1
100
AcDbEntity
  8
0
100
AcDbCircle
 62
7
  6
BYLAYER
 10
55.7984697119
 20
37.7604769477
 40
15.8260233901
100
AcDbArc
 50
125.0680390981
 51
125.9432304474
  0
ARC
  5
2B2
100
AcDbEntity
  8
0
100
AcDbCircle
 62
7
  6
BYLAYER
 10
65.4234594085
 20
40.2965259605
 40
14.8249059932
100
AcDbArc
 50
183.4968373395
 51
186.0178664452
  0
ARC
  5
2B3
100
AcDbEntity
  8
0
100
AcDbCircle
 62
7
  6
BYLAYER
 10
65.4234571622
 20
47.3030365636
 40
14.8249037413
100
AcDbArc
 50
173.9821332625
 51
176.5031627516
  0
ARC
  5
2B4
100
AcDbEntity
  8
0
100
AcDbCircle
 62
7
  6
BYLAYER
 10
58.399549316
 20
47.3050273207
 40
14.8009189771
100
AcDbArc
 50
173.9800944532
 51
176.5052098948
  0
ARC
  5
2B5
100
AcDbEntity
  8
0
100
AcDbCircle
 62
7
  6
BYLAYER
 10
58.3995491932
 20
40.2945350044
 40
14.8009188522
100
AcDbArc
 50
183.4947899869
 51
186.0199054495
  0
ARC
  5
2B6
100
AcDbEntity
  8
0
100
AcDbCircle
 62
7
  6
BYLAYER
 10
54.0376998131
 20
48.304355052
 40
13.756154061
100
AcDbArc
 50
237.0495573039
 51
237.791511915
  0
ARC
  5
2B7
100
AcDbEntity
  8
0
100
AcDbCircle
 62
7
  6
BYLAYER
 10
52.5207846292
 20
40.5789264147
 40
12.0193591486
100
AcDbArc
 50
118.9348150948
 51
119.4347615457
  0
ARC
  5
2B8
100
AcDbEntity
  8
0
100
AcDbCircle
 62
7
  6
BYLAYER
 10
55.8056472825
 20
38.7497811816
 40
0.2
100
AcDbArc
 50
311.4096221093
 51
360.0
  0
ARC
  5
2B9
100
AcDbEntity
  8
0
100
AcDbCircle
 62
7
  6
BYLAYER
 10
55.8056472825
 20
48.8497811816
 40
0.2
100
AcDbArc
 50
0.0
 51
48.5903778907
  0
SPLINE
  5
2BA
100
AcDbEntity
  8
0
100
AcDbSpline
 62
7
  6
BYLAYER
 70
0
 71
3
 72
9
 73
5
 74
0
 42
0.0000001
 43
0.0000001
 44
0.0000000001
 40
0.0
 40
0.0
 40
0.0
 40
0.0
 40
0.2456243926
 40
1.0
 40
1.0
 40
1.0
 40
1.0
 10
43.6565784524
 20
53.4272358171
 30
0.0
 10
43.6583933243
 20
53.4303811106
 30
0.0
 10
43.6659146954
 20
53.443109697
 30
0.0
 10
43.6739492883
 20
53.4555330829
 30
0.0
 10
43.6802497042
 20
53.4647357578
 30
0.0
  0
SPLINE
  5
2BB
100
AcDbEntity
  8
0
100
AcDbSpline
 62
7
  6
BYLAYER
 70
0
 71
3
 72
9
 73
5
 74
0
 42
0.0000001
 43
0.0000001
 44
0.0000000001
 40
0.0
 40
0.0
 40
0.0
 40
0.0
 40
0.2456244201
 40
1.0
 40
1.0
 40
1.0
 40
1.0
 10
45.3547161411
 20
34.1723265458
 30
0.0
 10
45.3529012639
 20
34.1691812519
 30
0.0
 10
45.3453798682
 20
34.1564526675
 30
0.0
 10
45.3373452479
 20
34.1440292873
 30
0.0
 10
45.3310448287
 20
34.1348266054
 30
0.0
  0
SPLINE
  5
2BC
100
AcDbEntity
  8
0
100
AcDbSpline
 62
7
  6
BYLAYER
 70
0
 71
3
 72
9
 73
5
 74
0
 42
0.0000001
 43
0.0000001
 44
0.0000000001
 40
0.0
 40
0.0
 40
0.0
 40
0.0
 40
0.254471482
 40
1.0
 40
1.0
 40
1.0
 40
1.0
 10
43.6802497054
 20
34.1348266054
 30
0.0
 10
43.6781244152
 20
34.1379309012
 30
0.0
 10
43.669881204
 20
34.1502036183
 30
0.0
 10
43.6620869889
 20
34.1627798858
 30
0.0
 10
43.6565784516
 20
34.1723265461
 30
0.0
  0
SPLINE
  5
2BD
100
AcDbEntity
  8
0
100
AcDbSpline
 62
7
  6
BYLAYER
 70
0
 71
3
 72
9
 73
5
 74
0
 42
0.0000001
 43
0.0000001
 44
0.0000000001
 40
0.0
 40
0.0
 40
0.0
 40
0.0
 40
0.2544713825
 40
1.0
 40
1.0
 40
1.0
 40
1.0
 10
45.3310448299
 20
53.4647357578
 30
0.0
 10
45.3331701203
 20
53.461631461
 30
0.0
 10
45.3414133427
 20
53.4493587396
 30
0.0
 10
45.3492075875
 20
53.4367824791
 30
0.0
 10
45.3547161402
 20
53.4272358174
 30
0.0
  0
LINE
  5
2BE
100
AcDbEntity
  8
0
100
AcDbLine
 62
7
  6
BYLAYER
 10
46.4773233205
 20
44.401463493
 11
46.7056472825
 21
44.6327571556
  0
LINE
  5
2BF
100
AcDbEntity
  8
0
100
AcDbLine
 62
7
  6
BYLAYER
 10
46.2203329653
 20
44.1334262167
 11
46.4773233205
 21
44.401463493
  0
LINE
  5
2C0
100
AcDbEntity
  8
0
100
AcDbLine
 62
7
  6
BYLAYER
 10
46.4773233205
 20
42.5423835965
 11
46.2493558812
 21
42.7982342918
  0
LINE
  5
2C1
100
AcDbEntity
  8
0
100
AcDbLine
 62
7
  6
BYLAYER
 10
46.4773233205
 20
42.5423835965
 11
46.7056472825
 21
42.3065529588
  0
LINE
  5
2C2
100
AcDbEntity
  8
0
100
AcDbLine
 62
7
  6
BYLAYER
 10
46.4773233205
 20
38.0771754493
 11
46.4232649832
 21
38.1521149516
  0
LINE
  5
2C3
100
AcDbEntity
  8
0
100
AcDbLine
 62
7
  6
BYLAYER
 10
46.5492819545
 20
43.7997812092
 11
46.2056472825
 21
44.1475468835
  0
LINE
  5
2C4
100
AcDbEntity
  8
0
100
AcDbLine
 62
7
  6
BYLAYER
 10
46.7056472825
 20
43.6413025886
 11
46.5492819545
 21
43.7997812092
  0
SPLINE
  5
2C5
100
AcDbEntity
  8
0
100
AcDbSpline
 62
7
  6
BYLAYER
 70
0
 71
3
 72
13
 73
9
 74
0
 42
0.0000001
 43
0.0000001
 44
0.0000000001
 40
0.0
 40
0.0
 40
0.0
 40
0.0
 40
0.1204074337
 40
0.2413786051
 40
0.3634045455
 40
0.4869076083
 40
0.7393475573
 40
1.0
 40
1.0
 40
1.0
 40
1.0
 10
43.0056502002
 20
51.1609970805
 30
0.0
 10
43.0056489434
 20
51.2583600841
 30
0.0
 10
43.0134482573
 20
51.4536284811
 30
0.0
 10
43.0481529777
 20
51.745701766
 30
0.0
 10
43.1051739429
 20
52.0367977454
 30
0.0
 10
43.2102787551
 20
52.4257970829
 30
0.0
 10
43.3926870639
 20
52.9085205523
 30
0.0
 10
43.5786390259
 20
53.280079484
 30
0.0
 10
43.6802498411
 20
53.4647357578
 30
0.0
  0
SPLINE
  5
2C6
100
AcDbEntity
  8
0
100
AcDbSpline
 62
7
  6
BYLAYER
 70
0
 71
3
 72
13
 73
9
 74
0
 42
0.0000001
 43
0.0000001
 44
0.0000000001
 40
0.0
 40
0.0
 40
0.0
 40
0.0
 40
0.1204073448
 40
0.2413781958
 40
0.3634046441
 40
0.4869092239
 40
0.7393494659
 40
1.0
 40
1.0
 40
1.0
 40
1.0
 10
46.0056443623
 20
36.4385652568
 30
0.0
 10
46.0056446769
 20
36.3412023332
 30
0.0
 10
45.9978549162
 20
36.1459342257
 30
0.0
 10
45.9631603609
 20
35.8538592566
 30
0.0
 10
45.9061305023
 20
35.5627630681
 30
0.0
 10
45.8009930637
 20
35.173770807
 30
0.0
 10
45.6185931588
 20
34.6910466309
 30
0.0
 10
45.4326548968
 20
34.3194815088
 30
0.0
 10
45.3310448287
 20
34.1348266054
 30
0.0
  0
SPLINE
  5
2C7
100
AcDbEntity
  8
0
100
AcDbSpline
 62
7
  6
BYLAYER
 70
0
 71
3
 72
13
 73
9
 74
0
 42
0.0000001
 43
0.0000001
 44
0.0000000001
 40
0.0
 40
0.0
 40
0.0
 40
0.0
 40
0.2606505638
 40
0.5130908164
 40
0.6365954003
 40
0.7586218401
 40
0.8795926661
 40
1.0
 40
1.0
 40
1.0
 40
1.0
 10
43.6802497363
 20
34.1348266054
 30
0.0
 10
43.5786396618
 20
34.3194815329
 30
0.0
 10
43.392701338
 20
34.6910466633
 30
0.0
 10
43.2103014942
 20
35.1737709009
 30
0.0
 10
43.1051640371
 20
35.562763163
 30
0.0
 10
43.048134226
 20
35.8538593352
 30
0.0
 10
43.0134395979
 20
36.1459342602
 30
0.0
 10
43.0056498879
 20
36.341202342
 30
0.0
 10
43.0056502027
 20
36.4385652568
 30
0.0
  0
SPLINE
  5
2C8
100
AcDbEntity
  8
0
100
AcDbSpline
 62
7
  6
BYLAYER
 70
0
 71
3
 72
13
 73
9
 74
0
 42
0.0000001
 43
0.0000001
 44
0.0000000001
 40
0.0
 40
0.0
 40
0.0
 40
0.0
 40
0.2606505647
 40
0.5130908169
 40
0.6365954003
 40
0.7586218399
 40
0.8795926661
 40
1.0
 40
1.0
 40
1.0
 40
1.0
 10
45.3310448299
 20
53.4647357578
 30
0.0
 10
45.4326549094
 20
53.2800808338
 30
0.0
 10
45.6185932324
 20
52.9085157052
 30
0.0
 10
45.8009930764
 20
52.4257914706
 30
0.0
 10
45.9061305217
 20
52.0367992087
 30
0.0
 10
45.9631603305
 20
51.7457030386
 30
0.0
 10
45.9978549627
 20
51.4536281161
 30
0.0
 10
46.0056446767
 20
51.2583600354
 30
0.0
 10
46.0056443623
 20
51.1609971212
 30
0.0
  0
SPLINE
  5
2C9
100
AcDbEntity
  8
0
100
AcDbSpline
 62
7
  6
BYLAYER
 70
0
 71
3
 72
13
 73
9
 74
0
 42
0.0000001
 43
0.0000001
 44
0.0000000001
 40
0.0
 40
0.0
 40
0.0
 40
0.0
 40
0.1204073448
 40
0.2413781958
 40
0.3634046441
 40
0.4869092239
 40
0.7393494659
 40
1.0
 40
1.0
 40
1.0
 40
1.0
 10
46.0056443623
 20
51.1609971212
 30
0.0
 10
46.0056446769
 20
51.0636341976
 30
0.0
 10
45.9978549162
 20
50.86836609
 30
0.0
 10
45.9631603609
 20
50.5762911209
 30
0.0
 10
45.9061305023
 20
50.2851949324
 30
0.0
 10
45.8009930637
 20
49.8962026713
 30
0.0
 10
45.6185931588
 20
49.4134784953
 30
0.0
 10
45.4326548968
 20
49.0419133731
 30
0.0
 10
45.3310448287
 20
48.8572584697
 30
0.0
  0
SPLINE
  5
2CA
100
AcDbEntity
  8
0
100
AcDbSpline
 62
7
  6
BYLAYER
 70
0
 71
3
 72
11
 73
7
 74
0
 42
0.0000001
 43
0.0000001
 44
0.0000000001
 40
0.0
 40
0.0
 40
0.0
 40
0.0
 40
0.2500022938
 40
0.5000026912
 40
0.7500024826
 40
1.0
 40
1.0
 40
1.0
 40
1.0
 10
45.3851396462
 20
48.2072584697
 30
0.0
 10
45.4806671661
 20
47.8478183635
 30
0.0
 10
45.6545795928
 20
47.1242003385
 30
0.0
 10
45.8527210525
 20
46.0254669795
 30
0.0
 10
45.977274687
 20
44.9158116734
 30
0.0
 10
46.0056472825
 20
44.1716916703
 30
0.0
 10
46.0056472825
 20
43.7997811816
 30
0.0
  0
SPLINE
  5
2CB
100
AcDbEntity
  8
0
100
AcDbSpline
 62
7
  6
BYLAYER
 70
0
 71
3
 72
13
 73
9
 74
0
 42
0.0000001
 43
0.0000001
 44
0.0000000001
 40
0.0
 40
0.0
 40
0.0
 40
0.0
 40
0.2606524703
 40
0.5130924323
 40
0.6365954993
 40
0.7586214316
 40
0.8795925774
 40
1.0
 40
1.0
 40
1.0
 40
1.0
 10
43.6802498419
 20
48.8572584697
 30
0.0
 10
43.5786390186
 20
49.0419147584
 30
0.0
 10
43.3926870342
 20
49.4134737047
 30
0.0
 10
43.2102787431
 20
49.8961972044
 30
0.0
 10
43.1051739213
 20
50.2851965371
 30
0.0
 10
43.0481529867
 20
50.5762924886
 30
0.0
 10
43.013448202
 20
50.868365723
 30
0.0
 10
43.0056489444
 20
51.0636340884
 30
0.0
 10
43.0056502002
 20
51.1609970805
 30
0.0
  0
SPLINE
  5
2CC
100
AcDbEntity
  8
0
100
AcDbSpline
 62
7
  6
BYLAYER
 70
0
 71
3
 72
11
 73
7
 74
0
 42
0.0000001
 43
0.0000001
 44
0.0000000001
 40
0.0
 40
0.0
 40
0.0
 40
0.0
 40
0.2499942108
 40
0.4999900508
 40
0.7499919184
 40
1.0
 40
1.0
 40
1.0
 40
1.0
 10
43.0056472825
 20
43.7997811816
 30
0.0
 10
43.0056472825
 20
44.1716865428
 30
0.0
 10
43.0340513967
 20
44.9157929745
 30
0.0
 10
43.1585452116
 20
46.0254464826
 30
0.0
 10
43.3567643955
 20
47.1241702622
 30
0.0
 10
43.5306253297
 20
47.8478102422
 30
0.0
 10
43.6261550024
 20
48.2072584697
 30
0.0
  0
SPLINE
  5
2CD
100
AcDbEntity
  8
0
100
AcDbSpline
 62
7
  6
BYLAYER
 70
0
 71
3
 72
11
 73
7
 74
0
 42
0.0000001
 43
0.0000001
 44
0.0000000001
 40
0.0
 40
0.0
 40
0.0
 40
0.0
 40
0.2500022721
 40
0.5000027068
 40
0.7500024686
 40
1.0
 40
1.0
 40
1.0
 40
1.0
 10
43.6261550004
 20
39.3923038935
 30
0.0
 10
43.5306275317
 20
39.7517438283
 30
0.0
 10
43.3567486399
 20
40.4753689618
 30
0.0
 10
43.1585600603
 20
41.5740933761
 30
0.0
 10
43.0340411214
 20
42.6837526045
 30
0.0
 10
43.0056472825
 20
43.4278708185
 30
0.0
 10
43.0056472825
 20
43.7997811816
 30
0.0
  0
SPLINE
  5
2CE
100
AcDbEntity
  8
0
100
AcDbSpline
 62
7
  6
BYLAYER
 70
0
 71
3
 72
13
 73
9
 74
0
 42
0.0000001
 43
0.0000001
 44
0.0000000001
 40
0.0
 40
0.0
 40
0.0
 40
0.0
 40
0.1204073448
 40
0.241378196
 40
0.3634046441
 40
0.4869092234
 40
0.7393494649
 40
1.0
 40
1.0
 40
1.0
 40
1.0
 10
43.0056502027
 20
36.4385652568
 30
0.0
 10
43.0056498884
 20
36.5359281799
 30
0.0
 10
43.013439653
 20
36.7311962863
 30
0.0
 10
43.0481342124
 20
37.0232712529
 30
0.0
 10
43.1051640685
 20
37.3143674394
 30
0.0
 10
43.210301497
 20
37.7033596995
 30
0.0
 10
43.3927013935
 20
38.1860838768
 30
0.0
 10
43.5786396725
 20
38.5576489876
 30
0.0
 10
43.6802497351
 20
38.7423038935
 30
0.0
  0
SPLINE
  5
2CF
100
AcDbEntity
  8
0
100
AcDbSpline
 62
7
  6
BYLAYER
 70
0
 71
3
 72
11
 73
7
 74
0
 42
0.0000001
 43
0.0000001
 44
0.0000000001
 40
0.0
 40
0.0
 40
0.0
 40
0.0
 40
0.2499941513
 40
0.4999900944
 40
0.7499919193
 40
1.0
 40
1.0
 40
1.0
 40
1.0
 10
46.0056472825
 20
43.7997811816
 30
0.0
 10
46.0056472825
 20
43.4278757887
 30
0.0
 10
45.9772569314
 20
42.6837680919
 30
0.0
 10
45.8527417769
 20
41.5741170081
 30
0.0
 10
45.6545571503
 20
40.4753864049
 30
0.0
 10
45.4806693546
 20
39.7517522347
 30
0.0
 10
45.3851396462
 20
39.3923038935
 30
0.0
  0
SPLINE
  5
2D0
100
AcDbEntity
  8
0
100
AcDbSpline
 62
7
  6
BYLAYER
 70
0
 71
3
 72
13
 73
9
 74
0
 42
0.0000001
 43
0.0000001
 44
0.0000000001
 40
0.0
 40
0.0
 40
0.0
 40
0.0
 40
0.2606505647
 40
0.5130908169
 40
0.6365954003
 40
0.7586218399
 40
0.8795926661
 40
1.0
 40
1.0
 40
1.0
 40
1.0
 10
45.3310448299
 20
38.7423038935
 30
0.0
 10
45.4326549094
 20
38.5576489695
 30
0.0
 10
45.6185932324
 20
38.1860838408
 30
0.0
 10
45.8009930764
 20
37.7033596063
 30
0.0
 10
45.9061305217
 20
37.3143673444
 30
0.0
 10
45.9631603305
 20
37.0232711743
 30
0.0
 10
45.9978549627
 20
36.7311962518
 30
0.0
 10
46.0056446767
 20
36.5359281711
 30
0.0
 10
46.0056443623
 20
36.4385652568
 30
0.0
  0
SPLINE
  5
2D1
100
AcDbEntity
  8
0
100
AcDbSpline
 62
7
  6
BYLAYER
 70
0
 71
3
 72
9
 73
5
 74
0
 42
0.0000001
 43
0.0000001
 44
0.0000000001
 40
0.0
 40
0.0
 40
0.0
 40
0.0
 40
0.2456458236
 40
1.0
 40
1.0
 40
1.0
 40
1.0
 10
52.3547124768
 20
53.4272357743
 30
0.0
 10
52.3528969223
 20
53.4303808539
 30
0.0
 10
52.3453751244
 20
53.4431083777
 30
0.0
 10
52.3373448184
 20
53.4555337521
 30
0.0
 10
52.3310448607
 20
53.4647357578
 30
0.0
  0
SPLINE
  5
2D2
100
AcDbEntity
  8
0
100
AcDbSpline
 62
7
  6
BYLAYER
 70
0
 71
3
 72
9
 73
5
 74
0
 42
0.0000001
 43
0.0000001
 44
0.0000000001
 40
0.0
 40
0.0
 40
0.0
 40
0.0
 40
0.2456456716
 40
1.0
 40
1.0
 40
1.0
 40
1.0
 10
50.6565822841
 20
34.1723265912
 30
0.0
 10
50.6583978205
 20
34.1691815119
 30
0.0
 10
50.6659195455
 20
34.156453978
 30
0.0
 10
50.6739497903
 20
34.144028596
 30
0.0
 10
50.6802497362
 20
34.1348266054
 30
0.0
  0
LINE
  5
2D3
100
AcDbEntity
  8
0
100
AcDbLine
 62
7
  6
BYLAYER
 10
49.5339712444
 20
42.5423835965
 11
49.7619381603
 21
42.7982334598
  0
LINE
  5
2D4
100
AcDbEntity
  8
0
100
AcDbLine
 62
7
  6
BYLAYER
 10
49.5339712444
 20
38.0771754493
 11
49.5880282618
 21
38.1521149369
  0
LINE
  5
2D5
100
AcDbEntity
  8
0
100
AcDbLine
 62
7
  6
BYLAYER
 10
49.5339712444
 20
42.5423835965
 11
49.3056472825
 21
42.3065529588
  0
LINE
  5
2D6
100
AcDbEntity
  8
0
100
AcDbLine
 62
7
  6
BYLAYER
 10
49.7909612981
 20
44.1334265439
 11
49.5339712444
 21
44.401463493
  0
SPLINE
  5
2D7
100
AcDbEntity
  8
0
100
AcDbSpline
 62
7
  6
BYLAYER
 70
0
 71
3
 72
9
 73
5
 74
0
 42
0.0000001
 43
0.0000001
 44
0.0000000001
 40
0.0
 40
0.0
 40
0.0
 40
0.0
 40
0.2544694054
 40
1.0
 40
1.0
 40
1.0
 40
1.0
 10
50.6802497351
 20
53.4647357578
 30
0.0
 10
50.6781245582
 20
53.4616316268
 30
0.0
 10
50.6698829451
 20
53.449358591
 30
0.0
 10
50.6620923833
 20
53.4367809939
 30
0.0
 10
50.6565822843
 20
53.427235772
 30
0.0
  0
LINE
  5
2D8
100
AcDbEntity
  8
0
100
AcDbLine
 62
7
  6
BYLAYER
 10
49.5339712444
 20
44.401463493
 11
49.3056472825
 21
44.6327571556
  0
LINE
  5
2D9
100
AcDbEntity
  8
0
100
AcDbLine
 62
7
  6
BYLAYER
 10
49.3056472825
 20
43.6413025886
 11
49.4620126104
 21
43.7997812092
  0
LINE
  5
2DA
100
AcDbEntity
  8
0
100
AcDbLine
 62
7
  6
BYLAYER
 10
49.4620126104
 20
43.7997812092
 11
49.8056472825
 21
44.1475468835
  0
SPLINE
  5
2DB
100
AcDbEntity
  8
0
100
AcDbSpline
 62
7
  6
BYLAYER
 70
0
 71
3
 72
9
 73
5
 74
0
 42
0.0000001
 43
0.0000001
 44
0.0000000001
 40
0.0
 40
0.0
 40
0.0
 40
0.0
 40
0.2544691143
 40
1.0
 40
1.0
 40
1.0
 40
1.0
 10
52.3310448595
 20
34.1348266054
 30
0.0
 10
52.3331700384
 20
34.1379307387
 30
0.0
 10
52.3414116839
 20
34.1502037873
 30
0.0
 10
52.3492023246
 20
34.1627813685
 30
0.0
 10
52.3547124776
 20
34.1723265889
 30
0.0
  0
SPLINE
  5
2DC
100
AcDbEntity
  8
0
100
AcDbSpline
 62
7
  6
BYLAYER
 70
0
 71
3
 72
11
 73
7
 74
0
 42
0.0000001
 43
0.0000001
 44
0.0000000001
 40
0.0
 40
0.0
 40
0.0
 40
0.0
 40
0.2499941513
 40
0.4999900944
 40
0.7499919193
 40
1.0
 40
1.0
 40
1.0
 40
1.0
 10
50.0056472825
 20
43.7997811816
 30
0.0
 10
50.0056472825
 20
44.1716865746
 30
0.0
 10
50.0340376335
 20
44.9157942713
 30
0.0
 10
50.158552788
 20
46.0254453552
 30
0.0
 10
50.3567374145
 20
47.1241759584
 30
0.0
 10
50.5306252103
 20
47.8478101286
 30
0.0
 10
50.6261549188
 20
48.2072584697
 30
0.0
  0
SPLINE
  5
2DD
100
AcDbEntity
  8
0
100
AcDbSpline
 62
7
  6
BYLAYER
 70
0
 71
3
 72
13
 73
9
 74
0
 42
0.0000001
 43
0.0000001
 44
0.0000000001
 40
0.0
 40
0.0
 40
0.0
 40
0.0
 40
0.2606505638
 40
0.5130908164
 40
0.6365954003
 40
0.7586218401
 40
0.8795926661
 40
1.0
 40
1.0
 40
1.0
 40
1.0
 10
50.6802497362
 20
48.8572584697
 30
0.0
 10
50.5786396565
 20
49.0419133942
 30
0.0
 10
50.3927013416
 20
49.4134785294
 30
0.0
 10
50.2103014935
 20
49.8962027649
 30
0.0
 10
50.1051640372
 20
50.2851950274
 30
0.0
 10
50.048134226
 20
50.5762911996
 30
0.0
 10
50.0134395979
 20
50.8683661245
 30
0.0
 10
50.0056498879
 20
51.0636342064
 30
0.0
 10
50.0056502027
 20
51.1609971212
 30
0.0
  0
SPLINE
  5
2DE
100
AcDbEntity
  8
0
100
AcDbSpline
 62
7
  6
BYLAYER
 70
0
 71
3
 72
11
 73
7
 74
0
 42
0.0000001
 43
0.0000001
 44
0.0000000001
 40
0.0
 40
0.0
 40
0.0
 40
0.0
 40
0.2500022721
 40
0.5000027068
 40
0.7500024686
 40
1.0
 40
1.0
 40
1.0
 40
1.0
 10
52.3851395644
 20
48.2072584697
 30
0.0
 10
52.4806670332
 20
47.8478185349
 30
0.0
 10
52.654545925
 20
47.1241934015
 30
0.0
 10
52.8527345046
 20
46.0254689871
 30
0.0
 10
52.9772534435
 20
44.9158097587
 30
0.0
 10
53.0056472825
 20
44.1716915447
 30
0.0
 10
53.0056472825
 20
43.7997811816
 30
0.0
  0
SPLINE
  5
2DF
100
AcDbEntity
  8
0
100
AcDbSpline
 62
7
  6
BYLAYER
 70
0
 71
3
 72
13
 73
9
 74
0
 42
0.0000001
 43
0.0000001
 44
0.0000000001
 40
0.0
 40
0.0
 40
0.0
 40
0.0
 40
0.1204074335
 40
0.2413786046
 40
0.3634045453
 40
0.4869076091
 40
0.7393475591
 40
1.0
 40
1.0
 40
1.0
 40
1.0
 10
53.0056443647
 20
51.1609970804
 30
0.0
 10
53.0056456198
 20
51.0636340796
 30
0.0
 10
52.997846312
 20
50.8683656883
 30
0.0
 10
52.9631415972
 20
50.5762924104
 30
0.0
 10
52.9061206225
 20
50.2851964399
 30
0.0
 10
52.8010157924
 20
49.8961971164
 30
0.0
 10
52.6186074764
 20
49.4134736659
 30
0.0
 10
52.4326555347
 20
49.0419147373
 30
0.0
 10
52.331044723
 20
48.8572584697
 30
0.0
  0
SPLINE
  5
2E0
100
AcDbEntity
  8
0
100
AcDbSpline
 62
7
  6
BYLAYER
 70
0
 71
3
 72
13
 73
9
 74
0
 42
0.0000001
 43
0.0000001
 44
0.0000000001
 40
0.0
 40
0.0
 40
0.0
 40
0.0
 40
0.1204073448
 40
0.241378196
 40
0.3634046441
 40
0.4869092234
 40
0.7393494649
 40
1.0
 40
1.0
 40
1.0
 40
1.0
 10
50.0056502027
 20
51.1609971212
 30
0.0
 10
50.0056498884
 20
51.2583600442
 30
0.0
 10
50.013439653
 20
51.4536281506
 30
0.0
 10
50.0481342124
 20
51.7457031172
 30
0.0
 10
50.1051640687
 20
52.0367993037
 30
0.0
 10
50.2103014963
 20
52.4257915642
 30
0.0
 10
50.392701397
 20
52.9085157393
 30
0.0
 10
50.5786396672
 20
53.2800808549
 30
0.0
 10
50.6802497351
 20
53.4647357578
 30
0.0
  0
SPLINE
  5
2E1
100
AcDbEntity
  8
0
100
AcDbSpline
 62
7
  6
BYLAYER
 70
0
 71
3
 72
13
 73
9
 74
0
 42
0.0000001
 43
0.0000001
 44
0.0000000001
 40
0.0
 40
0.0
 40
0.0
 40
0.0
 40
0.2606524721
 40
0.5130924331
 40
0.6365954991
 40
0.7586214311
 40
0.8795925772
 40
1.0
 40
1.0
 40
1.0
 40
1.0
 10
52.3310447237
 20
53.4647357578
 30
0.0
 10
52.4326555505
 20
53.2800794629
 30
0.0
 10
52.6186075553
 20
52.9085205135
 30
0.0
 10
52.8010158392
 20
52.4257969949
 30
0.0
 10
52.9061206431
 20
52.0367976482
 30
0.0
 10
52.9631415682
 20
51.7457016877
 30
0.0
 10
52.9978463585
 20
51.4536284463
 30
0.0
 10
53.0056456223
 20
51.2583600753
 30
0.0
 10
53.0056443647
 20
51.1609970804
 30
0.0
  0
SPLINE
  5
2E2
100
AcDbEntity
  8
0
100
AcDbSpline
 62
7
  6
BYLAYER
 70
0
 71
3
 72
13
 73
9
 74
0
 42
0.0000001
 43
0.0000001
 44
0.0000000001
 40
0.0
 40
0.0
 40
0.0
 40
0.0
 40
0.2606505638
 40
0.5130908164
 40
0.6365954003
 40
0.7586218401
 40
0.8795926661
 40
1.0
 40
1.0
 40
1.0
 40
1.0
 10
50.6802497362
 20
34.1348266054
 30
0.0
 10
50.5786396565
 20
34.3194815299
 30
0.0
 10
50.3927013416
 20
34.6910466651
 30
0.0
 10
50.2103014935
 20
35.1737709006
 30
0.0
 10
50.1051640372
 20
35.5627631631
 30
0.0
 10
50.048134226
 20
35.8538593352
 30
0.0
 10
50.0134395979
 20
36.1459342602
 30
0.0
 10
50.0056498879
 20
36.341202342
 30
0.0
 10
50.0056502027
 20
36.4385652568
 30
0.0
  0
SPLINE
  5
2E3
100
AcDbEntity
  8
0
100
AcDbSpline
 62
7
  6
BYLAYER
 70
0
 71
3
 72
13
 73
9
 74
0
 42
0.0000001
 43
0.0000001
 44
0.0000000001
 40
0.0
 40
0.0
 40
0.0
 40
0.0
 40
0.1204073448
 40
0.2413781958
 40
0.3634046441
 40
0.4869092239
 40
0.7393494659
 40
1.0
 40
1.0
 40
1.0
 40
1.0
 10
53.0056443623
 20
36.4385652568
 30
0.0
 10
53.0056446769
 20
36.3412023332
 30
0.0
 10
52.9978549162
 20
36.1459342257
 30
0.0
 10
52.9631603609
 20
35.8538592566
 30
0.0
 10
52.9061305024
 20
35.562763068
 30
0.0
 10
52.8009930629
 20
35.1737708073
 30
0.0
 10
52.6185931624
 20
34.6910466292
 30
0.0
 10
52.4326548915
 20
34.3194815117
 30
0.0
 10
52.3310448287
 20
34.1348266054
 30
0.0
  0
SPLINE
  5
2E4
100
AcDbEntity
  8
0
100
AcDbSpline
 62
7
  6
BYLAYER
 70
0
 71
3
 72
11
 73
7
 74
0
 42
0.0000001
 43
0.0000001
 44
0.0000000001
 40
0.0
 40
0.0
 40
0.0
 40
0.0
 40
0.2500022938
 40
0.5000026912
 40
0.7500024826
 40
1.0
 40
1.0
 40
1.0
 40
1.0
 10
50.6261549188
 20
39.3923038935
 30
0.0
 10
50.5306273989
 20
39.7517439998
 30
0.0
 10
50.3567149721
 20
40.4753620247
 30
0.0
 10
50.1585735124
 20
41.5740953837
 30
0.0
 10
50.0340198779
 20
42.6837506898
 30
0.0
 10
50.0056472825
 20
43.4278706929
 30
0.0
 10
50.0056472825
 20
43.7997811816
 30
0.0
  0
SPLINE
  5
2E5
100
AcDbEntity
  8
0
100
AcDbSpline
 62
7
  6
BYLAYER
 70
0
 71
3
 72
13
 73
9
 74
0
 42
0.0000001
 43
0.0000001
 44
0.0000000001
 40
0.0
 40
0.0
 40
0.0
 40
0.0
 40
0.1204073448
 40
0.241378196
 40
0.3634046441
 40
0.4869092234
 40
0.7393494649
 40
1.0
 40
1.0
 40
1.0
 40
1.0
 10
50.0056502027
 20
36.4385652568
 30
0.0
 10
50.0056498884
 20
36.5359281799
 30
0.0
 10
50.013439653
 20
36.7311962863
 30
0.0
 10
50.0481342124
 20
37.0232712529
 30
0.0
 10
50.1051640687
 20
37.3143674394
 30
0.0
 10
50.2103014963
 20
37.7033596999
 30
0.0
 10
50.392701397
 20
38.186083875
 30
0.0
 10
50.5786396672
 20
38.5576489906
 30
0.0
 10
50.6802497351
 20
38.7423038935
 30
0.0
  0
SPLINE
  5
2E6
100
AcDbEntity
  8
0
100
AcDbSpline
 62
7
  6
BYLAYER
 70
0
 71
3
 72
11
 73
7
 74
0
 42
0.0000001
 43
0.0000001
 44
0.0000000001
 40
0.0
 40
0.0
 40
0.0
 40
0.0
 40
0.2499942108
 40
0.4999900508
 40
0.7499919184
 40
1.0
 40
1.0
 40
1.0
 40
1.0
 10
53.0056472825
 20
43.7997811816
 30
0.0
 10
53.0056472825
 20
43.4278758204
 30
0.0
 10
52.9772431682
 20
42.6837693887
 30
0.0
 10
52.8527493533
 20
41.5741158806
 30
0.0
 10
52.6545301694
 20
40.475392101
 30
0.0
 10
52.4806692352
 20
39.7517521211
 30
0.0
 10
52.3851395624
 20
39.3923038935
 30
0.0
  0
SPLINE
  5
2E7
100
AcDbEntity
  8
0
100
AcDbSpline
 62
7
  6
BYLAYER
 70
0
 71
3
 72
13
 73
9
 74
0
 42
0.0000001
 43
0.0000001
 44
0.0000000001
 40
0.0
 40
0.0
 40
0.0
 40
0.0
 40
0.2606505648
 40
0.5130908169
 40
0.6365954003
 40
0.7586218399
 40
0.8795926661
 40
1.0
 40
1.0
 40
1.0
 40
1.0
 10
52.3310448298
 20
38.7423038935
 30
0.0
 10
52.432654904
 20
38.5576489665
 30
0.0
 10
52.618593236
 20
38.1860838426
 30
0.0
 10
52.8009930756
 20
37.7033596059
 30
0.0
 10
52.9061305218
 20
37.3143673445
 30
0.0
 10
52.9631603305
 20
37.0232711743
 30
0.0
 10
52.9978549627
 20
36.7311962518
 30
0.0
 10
53.0056446767
 20
36.5359281711
 30
0.0
 10
53.0056443623
 20
36.4385652568
 30
0.0
  0
ELLIPSE
  5
2E8
100
AcDbEntity
  8
0
100
AcDbEllipse
 62
7
  6
BYLAYER
 10
43.9680079108
 20
41.5823929793
 30
0.0
 11
8.333433108
 21
8.3279952762
 31
0.0
 40
0.0649774206
 41
-1.3643765566
 42
-1.3016426579
  0
ELLIPSE
  5
2E9
100
AcDbEntity
  8
0
100
AcDbEllipse
 62
7
  6
BYLAYER
 10
43.9680079108
 20
41.6716596761
 30
0.0
 11
8.2557716223
 21
8.2260681246
 31
0.0
 40
0.1528608948
 41
-1.450681815
 42
-1.3879479163
  0
ELLIPSE
  5
2EA
100
AcDbEntity
  8
0
100
AcDbEllipse
 62
7
  6
BYLAYER
 10
43.9680079108
 20
41.829325949
 30
0.0
 11
8.117466273
 21
8.0434984904
 31
0.0
 40
0.2438041777
 41
-1.536573414
 42
-1.4738395153
  0
ELLIPSE
  5
2EB
100
AcDbEntity
  8
0
100
AcDbEllipse
 62
7
  6
BYLAYER
 10
43.9680079108
 20
42.0503242744
 30
0.0
 11
7.9214559825
 21
7.7813255478
 31
0.0
 40
0.3397569986
 41
-1.6216551135
 42
-1.5589212148
  0
ELLIPSE
  5
2EC
100
AcDbEntity
  8
0
100
AcDbEllipse
 62
7
  6
BYLAYER
 10
43.9680079108
 20
42.3275515843
 30
0.0
 11
7.6732594207
 21
7.439498634
 31
0.0
 40
0.4429672902
 41
-1.7051854317
 42
-1.642451533
  0
ELLIPSE
  5
2ED
100
AcDbEntity
  8
0
100
AcDbEllipse
 62
7
  6
BYLAYER
 10
43.9680079108
 20
42.6520975648
 30
0.0
 11
7.3841983811
 21
7.0131458112
 31
0.0
 40
0.5561450433
 41
-1.7854840708
 42
-1.7227501721
  0
ELLIPSE
  5
2EE
100
AcDbEntity
  8
0
100
AcDbEllipse
 62
7
  6
BYLAYER
 10
43.9680079108
 20
43.013531041
 30
0.0
 11
7.084000063
 21
6.4779641088
 31
0.0
 40
0.6826531162
 41
-1.8575939396
 42
-1.7948600409
  0
ELLIPSE
  5
2EF
100
AcDbEntity
  8
0
100
AcDbEllipse
 62
7
  6
BYLAYER
 10
43.9680079108
 20
43.4002352437
 30
0.0
 11
6.9023799451
 21
5.6884471334
 31
0.0
 40
0.8263497679
 41
-1.8974052139
 42
-1.8346713152
  0
ELLIPSE
  5
2F0
100
AcDbEntity
  8
0
100
AcDbEllipse
 62
7
  6
BYLAYER
 10
43.9680079108
 20
45.9813182625
 30
0.0
 11
8.3023008481
 21
-8.2871775495
 31
0.0
 40
0.108650535
 41
1.344829064
 42
1.4075629627
  0
ELLIPSE
  5
2F1
100
AcDbEntity
  8
0
100
AcDbEllipse
 62
7
  6
BYLAYER
 10
43.9680079108
 20
45.8573527288
 30
0.0
 11
8.1940587861
 21
-8.1447938309
 31
0.0
 40
0.1978335621
 41
1.4309653653
 42
1.493699264
  0
ELLIPSE
  5
2F2
100
AcDbEntity
  8
0
100
AcDbEllipse
 62
7
  6
BYLAYER
 10
43.9680079108
 20
45.6672551527
 30
0.0
 11
8.0264104398
 21
-7.9223157113
 31
0.0
 40
0.2910225948
 41
1.5165160115
 42
1.5792499103
  0
ELLIPSE
  5
2F3
100
AcDbEntity
  8
0
100
AcDbEllipse
 62
7
  6
BYLAYER
 10
43.9680079108
 20
45.4171354266
 30
0.0
 11
7.8033763488
 21
-7.6204835111
 31
0.0
 40
0.3902986392
 41
1.6009510273
 42
1.663684926
  0
ELLIPSE
  5
2F4
100
AcDbEntity
  8
0
100
AcDbEllipse
 62
7
  6
BYLAYER
 10
43.9680079108
 20
45.1150326042
 30
0.0
 11
7.5327025616
 21
-7.2376102948
 31
0.0
 40
0.4981174544
 41
1.6831832728
 42
1.7459171715
  0
ELLIPSE
  5
2F5
100
AcDbEntity
  8
0
100
AcDbEllipse
 62
7
  6
BYLAYER
 10
43.9680079108
 20
43.7997811816
 30
0.0
 11
8.3509838241
 21
0.0
 31
0.0
 40
0.963433044
 41
-1.2995325731
 42
-1.2367986744
  0
ELLIPSE
  5
2F6
100
AcDbEntity
  8
0
100
AcDbEllipse
 62
7
  6
BYLAYER
 10
43.9680079108
 20
44.770656519
 30
0.0
 11
7.2319691818
 21
-6.7625506865
 31
0.0
 40
0.6174932746
 41
1.7604441387
 42
1.8231780374
  0
ELLIPSE
  5
2F7
100
AcDbEntity
  8
0
100
AcDbEllipse
 62
7
  6
BYLAYER
 10
43.9680079108
 20
44.3950757016
 30
0.0
 11
6.9578857343
 21
-6.1399374695
 31
0.0
 40
0.7521396115
 41
1.8227587284
 42
1.8854926271
  0
ELLIPSE
  5
2F8
100
AcDbEntity
  8
0
100
AcDbEllipse
 62
7
  6
BYLAYER
 10
43.9680079108
 20
44.0003616285
 30
0.0
 11
7.1167322142
 21
-4.8305503843
 31
0.0
 40
0.9045203251
 41
1.7874137859
 42
1.8501476846
  0
ELLIPSE
  5
2F9
100
AcDbEntity
  8
0
100
AcDbEllipse
 62
7
  6
BYLAYER
 10
43.9680079108
 20
41.9323072105
 30
0.0
 11
8.0264104398
 21
7.9223157113
 31
0.0
 40
0.2910225948
 41
0.9570813372
 42
1.0198152359
  0
ELLIPSE
  5
2FA
100
AcDbEntity
  8
0
100
AcDbEllipse
 62
7
  6
BYLAYER
 10
43.9680079108
 20
41.7422096344
 30
0.0
 11
8.1940587861
 21
8.1447938309
 31
0.0
 40
0.1978335621
 41
1.0426319834
 42
1.1053658821
  0
ELLIPSE
  5
2FB
100
AcDbEntity
  8
0
100
AcDbEllipse
 62
7
  6
BYLAYER
 10
43.9680079108
 20
41.6182441008
 30
0.0
 11
8.3023008481
 21
8.2871775495
 31
0.0
 40
0.108650535
 41
1.1287682847
 42
1.1915021834
  0
ELLIPSE
  5
2FC
100
AcDbEntity
  8
0
100
AcDbEllipse
 62
7
  6
BYLAYER
 10
43.9680079108
 20
41.5643949639
 30
0.0
 11
8.3490323781
 21
8.3484285061
 31
0.0
 40
0.0216237981
 41
1.2151798089
 42
1.2779137076
  0
ELLIPSE
  5
2FD
100
AcDbEntity
  8
0
100
AcDbEllipse
 62
7
  6
BYLAYER
 10
43.9680079108
 20
43.5992007348
 30
0.0
 11
7.1167322142
 21
4.8305503843
 31
0.0
 40
0.9045203251
 41
0.6861835629
 42
0.7489174616
  0
ELLIPSE
  5
2FE
100
AcDbEntity
  8
0
100
AcDbEllipse
 62
7
  6
BYLAYER
 10
43.9680079108
 20
43.2044866617
 30
0.0
 11
6.9578857343
 21
6.1399374695
 31
0.0
 40
0.7521396115
 41
0.6508386203
 42
0.713572519
  0
ELLIPSE
  5
2FF
100
AcDbEntity
  8
0
100
AcDbEllipse
 62
7
  6
BYLAYER
 10
43.9680079108
 20
46.0171693839
 30
0.0
 11
8.333433108
 21
-8.3279952762
 31
0.0
 40
0.0649774206
 41
-1.2346885895
 42
-1.1719546908
  0
ELLIPSE
  5
300
100
AcDbEntity
  8
0
100
AcDbEllipse
 62
7
  6
BYLAYER
 10
43.9680079108
 20
45.9279026872
 30
0.0
 11
8.2557716223
 21
-8.2260681246
 31
0.0
 40
0.1528608948
 41
-1.1483833311
 42
-1.0856494324
  0
ELLIPSE
  5
301
100
AcDbEntity
  8
0
100
AcDbEllipse
 62
7
  6
BYLAYER
 10
43.9680079108
 20
45.7702364142
 30
0.0
 11
8.117466273
 21
-8.0434984904
 31
0.0
 40
0.2438041777
 41
-1.0624917322
 42
-0.9997578335
  0
ELLIPSE
  5
302
100
AcDbEntity
  8
0
100
AcDbEllipse
 62
7
  6
BYLAYER
 10
43.9680079108
 20
45.5492380888
 30
0.0
 11
7.9214559825
 21
-7.7813255478
 31
0.0
 40
0.3397569986
 41
-0.9774100326
 42
-0.9146761339
  0
ELLIPSE
  5
303
100
AcDbEntity
  8
0
100
AcDbEllipse
 62
7
  6
BYLAYER
 10
43.9680079108
 20
45.2720107789
 30
0.0
 11
7.6732594207
 21
-7.439498634
 31
0.0
 40
0.4429672902
 41
-0.8938797144
 42
-0.8311458157
  0
ELLIPSE
  5
304
100
AcDbEntity
  8
0
100
AcDbEllipse
 62
7
  6
BYLAYER
 10
43.9680079108
 20
44.9474647984
 30
0.0
 11
7.3841983811
 21
-7.0131458112
 31
0.0
 40
0.5561450433
 41
-0.8135810753
 42
-0.7508471766
  0
ELLIPSE
  5
305
100
AcDbEntity
  8
0
100
AcDbEllipse
 62
7
  6
BYLAYER
 10
43.9680079108
 20
44.5860313222
 30
0.0
 11
7.084000063
 21
-6.4779641088
 31
0.0
 40
0.6826531162
 41
-0.7414712065
 42
-0.6787373078
  0
ELLIPSE
  5
306
100
AcDbEntity
  8
0
100
AcDbEllipse
 62
7
  6
BYLAYER
 10
43.9680079108
 20
44.1993271195
 30
0.0
 11
6.9023799451
 21
-5.6884471334
 31
0.0
 40
0.8263497679
 41
-0.7016599322
 42
-0.6389260335
  0
ELLIPSE
  5
307
100
AcDbEntity
  8
0
100
AcDbEllipse
 62
7
  6
BYLAYER
 10
43.9680079108
 20
42.8289058442
 30
0.0
 11
7.2319691818
 21
6.7625506865
 31
0.0
 40
0.6174932746
 41
0.71315321
 42
0.7758871087
  0
ELLIPSE
  5
308
100
AcDbEntity
  8
0
100
AcDbEllipse
 62
7
  6
BYLAYER
 10
43.9680079108
 20
42.484529759
 30
0.0
 11
7.5327025616
 21
7.2376102948
 31
0.0
 40
0.4981174544
 41
0.7904140759
 42
0.8531479746
  0
ELLIPSE
  5
309
100
AcDbEntity
  8
0
100
AcDbEllipse
 62
7
  6
BYLAYER
 10
43.9680079108
 20
42.1824269367
 30
0.0
 11
7.8033763488
 21
7.6204835111
 31
0.0
 40
0.3902986392
 41
0.8726463214
 42
0.9353802201
  0
ELLIPSE
  5
30A
100
AcDbEntity
  8
0
100
AcDbEllipse
 62
7
  6
BYLAYER
 10
52.0432866541
 20
43.4002352437
 30
0.0
 11
6.9023799451
 21
-5.6884471334
 31
0.0
 40
0.8263497679
 41
-1.3069213383
 42
-1.2441874396
  0
ELLIPSE
  5
30B
100
AcDbEntity
  8
0
100
AcDbEllipse
 62
7
  6
BYLAYER
 10
52.0432866541
 20
43.013531041
 30
0.0
 11
7.084000063
 21
-6.4779641088
 31
0.0
 40
0.6826531162
 41
-1.3467326127
 42
-1.283998714
  0
ELLIPSE
  5
30C
100
AcDbEntity
  8
0
100
AcDbEllipse
 62
7
  6
BYLAYER
 10
52.0432866541
 20
42.6520975648
 30
0.0
 11
7.3841983811
 21
-7.0131458112
 31
0.0
 40
0.5561450433
 41
-1.4188424815
 42
-1.3561085828
  0
ELLIPSE
  5
30D
100
AcDbEntity
  8
0
100
AcDbEllipse
 62
7
  6
BYLAYER
 10
52.0432866541
 20
42.3275515843
 30
0.0
 11
7.6732594207
 21
-7.439498634
 31
0.0
 40
0.4429672902
 41
-1.4991411205
 42
-1.4364072218
  0
ELLIPSE
  5
30E
100
AcDbEntity
  8
0
100
AcDbEllipse
 62
7
  6
BYLAYER
 10
52.0432866541
 20
42.0503242744
 30
0.0
 11
7.9214559825
 21
-7.7813255478
 31
0.0
 40
0.3397569986
 41
-1.5826714388
 42
-1.5199375401
  0
ELLIPSE
  5
30F
100
AcDbEntity
  8
0
100
AcDbEllipse
 62
7
  6
BYLAYER
 10
52.0432866541
 20
41.829325949
 30
0.0
 11
8.117466273
 21
-8.0434984904
 31
0.0
 40
0.2438041777
 41
-1.6677531383
 42
-1.6050192396
  0
ELLIPSE
  5
310
100
AcDbEntity
  8
0
100
AcDbEllipse
 62
7
  6
BYLAYER
 10
52.0432866541
 20
41.6716596761
 30
0.0
 11
8.2557716223
 21
-8.2260681246
 31
0.0
 40
0.1528608948
 41
-1.7536447373
 42
-1.6909108386
  0
ELLIPSE
  5
311
100
AcDbEntity
  8
0
100
AcDbEllipse
 62
7
  6
BYLAYER
 10
52.0432866541
 20
41.5823929793
 30
0.0
 11
8.333433108
 21
-8.3279952762
 31
0.0
 40
0.0649774206
 41
-1.8399499957
 42
-1.777216097
  0
ELLIPSE
  5
312
100
AcDbEntity
  8
0
100
AcDbEllipse
 62
7
  6
BYLAYER
 10
52.0432866541
 20
43.7997811816
 30
0.0
 11
8.3509838241
 21
-0.0
 31
0.0
 40
0.963433044
 41
4.378391328
 42
4.4411252267
  0
ELLIPSE
  5
313
100
AcDbEntity
  8
0
100
AcDbEllipse
 62
7
  6
BYLAYER
 10
52.0432866541
 20
44.0003616285
 30
0.0
 11
7.1167322142
 21
4.8305503843
 31
0.0
 40
0.9045203251
 41
1.291444969
 42
1.3541788677
  0
ELLIPSE
  5
314
100
AcDbEntity
  8
0
100
AcDbEllipse
 62
7
  6
BYLAYER
 10
52.0432866541
 20
44.3950757016
 30
0.0
 11
6.9578857343
 21
6.1399374695
 31
0.0
 40
0.7521396115
 41
1.2561000265
 42
1.3188339252
  0
ELLIPSE
  5
315
100
AcDbEntity
  8
0
100
AcDbEllipse
 62
7
  6
BYLAYER
 10
52.0432866541
 20
44.770656519
 30
0.0
 11
7.2319691818
 21
6.7625506865
 31
0.0
 40
0.6174932746
 41
1.3184146161
 42
1.3811485149
  0
ELLIPSE
  5
316
100
AcDbEntity
  8
0
100
AcDbEllipse
 62
7
  6
BYLAYER
 10
52.0432866541
 20
45.1150326042
 30
0.0
 11
7.5327025616
 21
7.2376102948
 31
0.0
 40
0.4981174544
 41
1.3956754821
 42
1.4584093808
  0
ELLIPSE
  5
317
100
AcDbEntity
  8
0
100
AcDbEllipse
 62
7
  6
BYLAYER
 10
52.0432866541
 20
45.4171354266
 30
0.0
 11
7.8033763488
 21
7.6204835111
 31
0.0
 40
0.3902986392
 41
1.4779077276
 42
1.5406416263
  0
ELLIPSE
  5
318
100
AcDbEntity
  8
0
100
AcDbEllipse
 62
7
  6
BYLAYER
 10
52.0432866541
 20
45.6672551527
 30
0.0
 11
8.0264104398
 21
7.9223157113
 31
0.0
 40
0.2910225948
 41
1.5623427433
 42
1.625076642
  0
ELLIPSE
  5
319
100
AcDbEntity
  8
0
100
AcDbEllipse
 62
7
  6
BYLAYER
 10
52.0432866541
 20
45.8573527288
 30
0.0
 11
8.1940587861
 21
8.1447938309
 31
0.0
 40
0.1978335621
 41
1.6478933896
 42
1.7106272883
  0
ELLIPSE
  5
31A
100
AcDbEntity
  8
0
100
AcDbEllipse
 62
7
  6
BYLAYER
 10
52.0432866541
 20
45.9813182625
 30
0.0
 11
8.3023008481
 21
8.2871775495
 31
0.0
 40
0.108650535
 41
1.7340296909
 42
1.7967635896
  0
ELLIPSE
  5
31B
100
AcDbEntity
  8
0
100
AcDbEllipse
 62
7
  6
BYLAYER
 10
52.0432866541
 20
44.1993271195
 30
0.0
 11
6.9023799451
 21
5.6884471334
 31
0.0
 40
0.8263497679
 41
-2.5026666201
 42
-2.4399327214
  0
ELLIPSE
  5
31C
100
AcDbEntity
  8
0
100
AcDbEllipse
 62
7
  6
BYLAYER
 10
52.0432866541
 20
44.5860313222
 30
0.0
 11
7.084000063
 21
6.4779641088
 31
0.0
 40
0.6826531162
 41
-2.4628553458
 42
-2.4001214471
  0
ELLIPSE
  5
31D
100
AcDbEntity
  8
0
100
AcDbEllipse
 62
7
  6
BYLAYER
 10
52.0432866541
 20
44.9474647984
 30
0.0
 11
7.3841983811
 21
7.0131458112
 31
0.0
 40
0.5561450433
 41
-2.390745477
 42
-2.3280115783
  0
ELLIPSE
  5
31E
100
AcDbEntity
  8
0
100
AcDbEllipse
 62
7
  6
BYLAYER
 10
52.0432866541
 20
45.2720107789
 30
0.0
 11
7.6732594207
 21
7.439498634
 31
0.0
 40
0.4429672902
 41
-2.3104468379
 42
-2.2477129392
  0
ELLIPSE
  5
31F
100
AcDbEntity
  8
0
100
AcDbEllipse
 62
7
  6
BYLAYER
 10
52.0432866541
 20
45.5492380888
 30
0.0
 11
7.9214559825
 21
7.7813255478
 31
0.0
 40
0.3397569986
 41
-2.2269165197
 42
-2.164182621
  0
ELLIPSE
  5
320
100
AcDbEntity
  8
0
100
AcDbEllipse
 62
7
  6
BYLAYER
 10
52.0432866541
 20
45.7702364142
 30
0.0
 11
8.117466273
 21
8.0434984904
 31
0.0
 40
0.2438041777
 41
-2.1418348201
 42
-2.0791009214
  0
ELLIPSE
  5
321
100
AcDbEntity
  8
0
100
AcDbEllipse
 62
7
  6
BYLAYER
 10
52.0432866541
 20
45.9279026872
 30
0.0
 11
8.2557716223
 21
8.2260681246
 31
0.0
 40
0.1528608948
 41
-2.0559432212
 42
-1.9932093225
  0
ELLIPSE
  5
322
100
AcDbEntity
  8
0
100
AcDbEllipse
 62
7
  6
BYLAYER
 10
52.0432866541
 20
46.0171693839
 30
0.0
 11
8.333433108
 21
8.3279952762
 31
0.0
 40
0.0649774206
 41
-1.9696379628
 42
-1.9069040641
  0
ELLIPSE
  5
323
100
AcDbEntity
  8
0
100
AcDbEllipse
 62
7
  6
BYLAYER
 10
52.0432866541
 20
41.5643949639
 30
0.0
 11
8.3490323781
 21
-8.3484285061
 31
0.0
 40
0.0216237981
 41
1.863678946
 42
1.9264128447
  0
ELLIPSE
  5
324
100
AcDbEntity
  8
0
100
AcDbEllipse
 62
7
  6
BYLAYER
 10
52.0432866541
 20
41.6182441008
 30
0.0
 11
8.3023008481
 21
-8.2871775495
 31
0.0
 40
0.108650535
 41
1.9500904702
 42
2.0128243689
  0
ELLIPSE
  5
325
100
AcDbEntity
  8
0
100
AcDbEllipse
 62
7
  6
BYLAYER
 10
52.0432866541
 20
41.7422096344
 30
0.0
 11
8.1940587861
 21
-8.1447938309
 31
0.0
 40
0.1978335621
 41
2.0362267715
 42
2.0989606702
  0
ELLIPSE
  5
326
100
AcDbEntity
  8
0
100
AcDbEllipse
 62
7
  6
BYLAYER
 10
52.0432866541
 20
41.9323072105
 30
0.0
 11
8.0264104398
 21
-7.9223157113
 31
0.0
 40
0.2910225948
 41
2.1217774177
 42
2.1845113164
  0
ELLIPSE
  5
327
100
AcDbEntity
  8
0
100
AcDbEllipse
 62
7
  6
BYLAYER
 10
52.0432866541
 20
42.1824269367
 30
0.0
 11
7.8033763488
 21
-7.6204835111
 31
0.0
 40
0.3902986392
 41
2.2062124334
 42
2.2689463321
  0
ELLIPSE
  5
328
100
AcDbEntity
  8
0
100
AcDbEllipse
 62
7
  6
BYLAYER
 10
52.0432866541
 20
42.484529759
 30
0.0
 11
7.5327025616
 21
-7.2376102948
 31
0.0
 40
0.4981174544
 41
2.288444679
 42
2.3511785777
  0
ELLIPSE
  5
329
100
AcDbEntity
  8
0
100
AcDbEllipse
 62
7
  6
BYLAYER
 10
52.0432866541
 20
42.8289058442
 30
0.0
 11
7.2319691818
 21
-6.7625506865
 31
0.0
 40
0.6174932746
 41
2.3657055449
 42
2.4284394436
  0
ELLIPSE
  5
32A
100
AcDbEntity
  8
0
100
AcDbEllipse
 62
7
  6
BYLAYER
 10
52.0432866541
 20
43.2044866617
 30
0.0
 11
6.9578857343
 21
-6.1399374695
 31
0.0
 40
0.7521396115
 41
2.4280201346
 42
2.4907540333
  0
ELLIPSE
  5
32B
100
AcDbEntity
  8
0
100
AcDbEllipse
 62
7
  6
BYLAYER
 10
52.0432866541
 20
43.5992007348
 30
0.0
 11
7.1167322142
 21
-4.8305503843
 31
0.0
 40
0.9045203251
 41
2.392675192
 42
2.4554090907
  0
ENDSEC
  0
SECTION
  2
OBJECTS
  0
DICTIONARY
  5
C
100
AcDbDictionary
280
0
281
1
  3
ACAD_GROUP
350
D
  3
ACAD_MLINESTYLE
350
17
  3
ACAD_LAYOUT
350
1A
  3
ACAD_PLOTSETTINGS
350
19
  3
ACAD_PLOTSTYLENAME
350
E
  0
DICTIONARY
  5
D
102
{ACAD_REACTORS
330
C
102
}
100
AcDbDictionary
280
0
281
1
  0
ACDBDICTIONARYWDFLT
  5
E
102
{ACAD_REACTORS
330
C
102
}
100
AcDbDictionary
281
1
  3
Normal
350
F
100
AcDbDictionaryWithDefault
340
F
  0
DICTIONARY
  5
17
102
{ACAD_REACTORS
330
C
102
}
100
AcDbDictionary
280
0
281
1
  3
Standard
350
18
  0
DICTIONARY
  5
19
102
{ACAD_REACTORS
330
C
102
}
100
AcDbDictionary
281
1
  0
DICTIONARY
  5
1A
102
{ACAD_REACTORS
330
C
102
}
100
AcDbDictionary
281
1
  3
Model
350
32C
  3
Layout1
350
32D
  0
ACDBPLACEHOLDER
  5
F
102
{ACAD_REACTORS
330
E
102
}
  0
MLINESTYLE
  5
18
102
{ACAD_REACTORS
330
17
102
}
100
AcDbMlineStyle
  2
STANDARD
 70
0
  3

 62
256
 51
90.0
 52
90.0
 71
2
 49
0.5
 62
256
  6
BYLAYER
 49
-0.5
 62
256
  6
BYLAYER
  0
LAYOUT
  5
32C
102
{ACAD_REACTORS
330
1A
102
}
100
AcDbPlotSettings
  1

  2
none_device
  4

  6

 40
0.0
 41
0.0
 42
0.0
 43
0.0
 44
210.0
 45
297.0
 46
0.0
 47
0.0
 48
0.0
 49
0.0
140
0.0
141
0.0
142
1.0
143
1.0
 70
1024
 72
1
 73
0
 74
0
  7

 75
0
147
1.0
148
0.0
149
0.0
100
AcDbLayout
  1
Model
 70
0
 71
0
 10
0.0
 20
0.0
 11
210.0
 21
297.0
 12
0.0
 22
0.0
 32
0.0
 14
0.0
 24
0.0
 34
0.0
 15
0.0
 25
0.0
 35
0.0
146
0.0
 13
0.0
 23
0.0
 33
0.0
 16
1.0
 26
0.0
 36
0.0
 17
0.0
 27
1.0
 37
0.0
 76
0
330
210
345
0
346
0
  0
LAYOUT
  5
32D
102
{ACAD_REACTORS
330
1A
102
}
100
AcDbPlotSettings
  1

  2
none_device
  4

  6

 40
0.0
 41
0.0
 42
0.0
 43
0.0
 44
210.0
 45
297.0
 46
0.0
 47
0.0
 48
0.0
 49
0.0
140
0.0
141
0.0
142
1.0
143
1.0
 70
0
 72
1
 73
0
 74
0
  7

 75
0
147
1.0
148
0.0
149
0.0
100
AcDbLayout
  1
Layout1
 70
0
 71
1
 10
0.0
 20
0.0
 11
210.0
 21
297.0
 12
0.0
 22
0.0
 32
0.0
 14
0.0
 24
0.0
 34
0.0
 15
0.0
 25
0.0
 35
0.0
146
0.0
 13
0.0
 23
0.0
 33
0.0
 16
1.0
 26
0.0
 36
0.0
 17
0.0
 27
1.0
 37
0.0
 76
0
330
211
345
0
346
0
  0
ENDSEC
  0
EOF
