999
DXF file: C:\Users\sesa63760\Dev\_Creo\CAD\MCADID0002082_3D-CAD\drw0001_3.dxf
999
Pro/ENGINEER 2019471 by Parametric Technology Corporation
  0
SECTION
  2
HEADER
  9
$ACADVER
  1
AC1024
  9
$DWGCODEPAGE
  3
ANSI_1252
  9
$EXTMAX
 10
90.243159501
 20
127.6296112943
 30
0.0
  9
$EXTMIN
 10
0.0
 20
0.0
 30
0.0
  9
$LIMMIN
 10
0.0
 20
0.0
  9
$LIMMAX
 10
90.243159501
 20
127.6296112943
  9
$VIEWCTR
 10
45.1215797505
 20
63.8148056471
  9
$VIEWSIZE
 40
127.6296112943
  9
$CLAYER
  8
0
  9
$LTSCALE
 40
8.3195598473
  9
$CELTYPE
  6
BYLAYER
  9
$DIMSCALE
 40
1.0
  9
$DIMASZ
 40
1.0743233274
  9
$DIMEXO
 40
1.0
  9
$DIMDLI
 40
5.7480595309
  9
$DIMEXE
 40
1.0
  9
$DIMCEN
 40
1.3613825205
  9
$DIMLFAC
 40
1.0
  9
$DIMBLK
  1
_FILLED
  9
$DIMALT
 70
0
  9
$DIMALTF
 40
0.0393700787
  9
$DIMTXT
 40
1.5040526584
  9
$DIMTOL
 70
1
  9
$DIMLIM
 70
0
  9
$DIMTFAC
 40
1.0
  9
$DIMTP
 40
0.01
  9
$DIMTM
 40
0.01
  9
$DIMGAP
 40
0.625
  9
$DIMDSEP
 70
46
  9
$AUNITS
 70
0
  9
$PDMODE
 70
3
  9
$PDSIZE
 40
0.3125
  9
$HANDSEED
  5
3BE
  9
$TILEMODE
 70
1
  9
$MEASUREMENT
 70
1
  9
$INSUNITS
 70
4
  0
ENDSEC
  0
SECTION
  2
CLASSES
  0
CLASS
  1
ACDBDICTIONARYWDFLT
  2
AcDbDictionaryWithDefault
  3
AutoCAD 2000
 90
0
 91
1
280
0
281
0
  0
CLASS
  1
ACDBPLACEHOLDER
  2
AcDbPlaceHolder
  3
AutoCAD 2000
 90
0
 91
1
280
0
281
0
  0
CLASS
  1
LAYOUT
  2
AcDbLayout
  3
AutoCAD 2000
 90
0
 91
0
280
0
281
0
  0
ENDSEC
  0
SECTION
  2
TABLES
  0
TABLE
  2
VPORT
  5
8
100
AcDbSymbolTable
 70
2
  0
VPORT
  5
1F4
100
AcDbSymbolTableRecord
100
AcDbViewportTableRecord
  2
*ACTIVE
 70
0
 10
0.0
 20
0.0
 11
1.0
 21
1.0
 12
45.1215797505
 22
63.8148056471
 13
0.0
 23
0.0
 14
1.0
 24
1.0
 15
0.0
 25
0.0
 16
0.0
 26
0.0
 36
1.0
 17
0.0
 27
0.0
 37
0.0
 40
127.6296112943
 41
0.7070707071
 42
50.0
 43
0.0
 44
0.0
 50
0.0
 51
0.0
 71
0
 72
100
 73
1
 74
1
 75
0
 76
0
 77
0
 78
0
  0
ENDTAB
  0
TABLE
  2
LTYPE
  5
5
100
AcDbSymbolTable
 70
6
  0
LTYPE
  5
14
100
AcDbSymbolTableRecord
100
AcDbLinetypeTableRecord
  2
BYBLOCK
 70
0
  3

 72
65
 73
0
 40
0.0
  0
LTYPE
  5
15
100
AcDbSymbolTableRecord
100
AcDbLinetypeTableRecord
  2
BYLAYER
 70
0
  3

 72
65
 73
0
 40
0.0
  0
LTYPE
  5
16
100
AcDbSymbolTableRecord
100
AcDbLinetypeTableRecord
  2
CONTINUOUS
 70
64
  3
Solid line
 72
65
 73
0
 40
0.0
  0
LTYPE
  5
1F5
100
AcDbSymbolTableRecord
100
AcDbLinetypeTableRecord
  2
CENTER
 70
64
  3
____ _ ____ _ ____ _ ____ _ ____ _ ____ _ ____
 72
65
 73
4
 40
0.6
 49
0.375
 74
0
 49
-0.075
 74
0
 49
0.075
 74
0
 49
-0.075
 74
0
  0
LTYPE
  5
1F6
100
AcDbSymbolTableRecord
100
AcDbLinetypeTableRecord
  2
HIDDEN
 70
64
  3
- - - - - - - - - - - - - - - - - - - -
 72
65
 73
2
 40
0.2
 49
0.1
 74
0
 49
-0.1
 74
0
  0
LTYPE
  5
1F7
100
AcDbSymbolTableRecord
100
AcDbLinetypeTableRecord
  2
PHANTOM
 70
64
  3
_____ _ _ _____ _ _ _____ _ _ _____
 72
65
 73
6
 40
0.8
 49
0.45
 74
0
 49
-0.05
 74
0
 49
0.1
 74
0
 49
-0.05
 74
0
 49
0.1
 74
0
 49
-0.05
 74
0
  0
LTYPE
  5
1F8
100
AcDbSymbolTableRecord
100
AcDbLinetypeTableRecord
  2
DOT
 70
64
  3
. . . . . . . . . . . . . . . . . . . .
 72
65
 73
2
 40
0.2
 49
0.1
 74
0
 49
-0.1
 74
0
  0
LTYPE
  5
1F9
100
AcDbSymbolTableRecord
100
AcDbLinetypeTableRecord
  2
DASHED
 70
64
  3
- - - - - - - - - - - - - - - - - - - -
 72
65
 73
2
 40
0.2
 49
0.1
 74
0
 49
-0.1
 74
0
  0
ENDTAB
  0
TABLE
  2
LAYER
  5
2
100
AcDbSymbolTable
 70
36
  0
LAYER
  5
10
100
AcDbSymbolTableRecord
100
AcDbLayerTableRecord
  2
0
 70
0
 62
7
  6
CONTINUOUS
370
-3
390
F
  0
LAYER
  5
1FA
100
AcDbSymbolTableRecord
100
AcDbLayerTableRecord
  2
DEFAULT_1
 70
0
 62
7
  6
CENTER
370
-3
390
F
  0
LAYER
  5
1FB
100
AcDbSymbolTableRecord
100
AcDbLayerTableRecord
  2
DEFAULT_2
 70
0
 62
8
  6
HIDDEN
370
-3
390
F
  0
LAYER
  5
1FC
100
AcDbSymbolTableRecord
100
AcDbLayerTableRecord
  2
DEFAULT_3
 70
0
 62
7
  6
PHANTOM
370
-3
390
F
  0
LAYER
  5
1FD
100
AcDbSymbolTableRecord
100
AcDbLayerTableRecord
  2
00_COMPONENTS
 70
0
 62
7
  6
CONTINUOUS
370
-3
390
F
  0
LAYER
  5
1FE
100
AcDbSymbolTableRecord
100
AcDbLayerTableRecord
  2
01_1_DEFAULT_DATUMS
 70
0
 62
7
  6
CONTINUOUS
370
-3
390
F
  0
LAYER
  5
1FF
100
AcDbSymbolTableRecord
100
AcDbLayerTableRecord
  2
01_PLANES
 70
0
 62
7
  6
CONTINUOUS
370
-3
390
F
  0
LAYER
  5
200
100
AcDbSymbolTableRecord
100
AcDbLayerTableRecord
  2
02_COORD_SYS
 70
0
 62
7
  6
CONTINUOUS
370
-3
390
F
  0
LAYER
  5
201
100
AcDbSymbolTableRecord
100
AcDbLayerTableRecord
  2
03_AXES
 70
0
 62
7
  6
CONTINUOUS
370
-3
390
F
  0
LAYER
  5
202
100
AcDbSymbolTableRecord
100
AcDbLayerTableRecord
  2
04_POINTS
 70
0
 62
7
  6
CONTINUOUS
370
-3
390
F
  0
LAYER
  5
203
100
AcDbSymbolTableRecord
100
AcDbLayerTableRecord
  2
05_CURVES
 70
0
 62
7
  6
CONTINUOUS
370
-3
390
F
  0
LAYER
  5
204
100
AcDbSymbolTableRecord
100
AcDbLayerTableRecord
  2
06_SURFS
 70
0
 62
7
  6
CONTINUOUS
370
-3
390
F
  0
LAYER
  5
205
100
AcDbSymbolTableRecord
100
AcDbLayerTableRecord
  2
07_COSMETICS
 70
0
 62
7
  6
CONTINUOUS
370
-3
390
F
  0
LAYER
  5
206
100
AcDbSymbolTableRecord
100
AcDbLayerTableRecord
  2
10_NOTES
 70
0
 62
7
  6
CONTINUOUS
370
-3
390
F
  0
LAYER
  5
207
100
AcDbSymbolTableRecord
100
AcDbLayerTableRecord
  2
11_NOTES_PUB
 70
0
 62
7
  6
CONTINUOUS
370
-3
390
F
  0
LAYER
  5
208
100
AcDbSymbolTableRecord
100
AcDbLayerTableRecord
  2
13_REF_GTOL
 70
0
 62
7
  6
CONTINUOUS
370
-3
390
F
  0
LAYER
  5
209
100
AcDbSymbolTableRecord
100
AcDbLayerTableRecord
  2
16_MISC
 70
0
 62
7
  6
CONTINUOUS
370
-3
390
F
  0
LAYER
  5
20A
100
AcDbSymbolTableRecord
100
AcDbLayerTableRecord
  2
17_NO_PRINT
 70
0
 62
7
  6
CONTINUOUS
370
-3
390
F
  0
LAYER
  5
20B
100
AcDbSymbolTableRecord
100
AcDbLayerTableRecord
  2
18_DATUM_CAMS_JOINTS
 70
0
 62
7
  6
CONTINUOUS
370
-3
390
F
  0
LAYER
  5
20C
100
AcDbSymbolTableRecord
100
AcDbLayerTableRecord
  2
19_DATUM_FUNCTIONAL
 70
0
 62
7
  6
CONTINUOUS
370
-3
390
F
  0
LAYER
  5
20D
100
AcDbSymbolTableRecord
100
AcDbLayerTableRecord
  2
20_DATUM_KINEMATIC_SCHEME
 70
0
 62
7
  6
CONTINUOUS
370
-3
390
F
  0
ENDTAB
  0
TABLE
  2
STYLE
  5
3
100
AcDbSymbolTable
 70
1
  0
STYLE
  5
11
100
AcDbSymbolTableRecord
100
AcDbTextStyleTableRecord
  2
STANDARD
 70
0
 40
0.0
 41
0.8
 50
0.0
 71
0
 42
0.2
  3
txt
  4

  0
STYLE
  5
20E
100
AcDbSymbolTableRecord
100
AcDbTextStyleTableRecord
  2
TEXTSTYLE_1
 70
0
 40
0.0
 41
0.8
 50
0.0
 71
0
 42
0.2
  3
gdt
  4

  0
ENDTAB
  0
TABLE
  2
VIEW
  5
6
100
AcDbSymbolTable
 70
0
  0
ENDTAB
  0
TABLE
  2
UCS
  5
7
100
AcDbSymbolTable
 70
0
  0
ENDTAB
  0
TABLE
  2
APPID
  5
9
100
AcDbSymbolTable
 70
1
  0
APPID
  5
20F
100
AcDbSymbolTableRecord
100
AcDbRegAppTableRecord
  2
ACAD
 70
0
  0
ENDTAB
  0
TABLE
  2
BLOCK_RECORD
  5
1
100
AcDbSymbolTable
 70
0
  0
BLOCK_RECORD
  5
210
100
AcDbSymbolTableRecord
100
AcDbBlockTableRecord
  2
*Model_Space
  0
BLOCK_RECORD
  5
211
100
AcDbSymbolTableRecord
100
AcDbBlockTableRecord
  2
*Paper_Space
  0
BLOCK_RECORD
  5
212
100
AcDbSymbolTableRecord
100
AcDbBlockTableRecord
  2
_FILLED
  0
ENDTAB
  0
TABLE
  2
DIMSTYLE
  5
A
100
AcDbSymbolTable
 70
1
100
AcDbDimStyleTable
 71
0
  0
DIMSTYLE
105
213
100
AcDbSymbolTableRecord
100
AcDbDimStyleTableRecord
  2
STANDARD
 70
0
  3

  4

 40
1.0
 41
1.0743233274
 42
1.0
 43
0.38
 44
1.0
 45
0.0
 46
0.0
 47
0.01
 48
0.01
140
1.5040526584
141
0.09
142
0.0
143
25.4
144
1.0
145
0.0
146
1.0
147
0.625
 71
1
 72
0
 73
0
 74
0
 75
0
 76
0
 77
1
 78
8
 79
2
170
0
171
1
172
0
173
0
174
0
175
0
176
0
177
0
178
0
270
2
179
2
271
2
272
2
273
2
274
2
275
0
280
0
281
0
282
0
283
1
284
8
285
0
286
0
287
3
288
0
340
11
278
46
341
212
342
212
343
212
344
212
  0
ENDTAB
  0
ENDSEC
  0
SECTION
  2
BLOCKS
  0
BLOCK
  5
20
100
AcDbEntity
  8
0
100
AcDbBlockBegin
  2
*Model_Space
 70
0
 10
0.0
 20
0.0
 30
0.0
  3
*Model_Space
  1

  0
ENDBLK
  5
21
100
AcDbEntity
  8
0
100
AcDbBlockEnd
  0
BLOCK
  5
1C
100
AcDbEntity
  8
0
100
AcDbBlockBegin
  2
*Paper_Space
 70
0
 10
0.0
 20
0.0
 30
0.0
  3
*Paper_Space
  1

  0
ENDBLK
  5
1D
100
AcDbEntity
  8
0
100
AcDbBlockEnd
  0
BLOCK
  5
214
100
AcDbEntity
  8
0
100
AcDbBlockBegin
  2
_FILLED
 70
64
 10
0.0
 20
0.0
  3
_FILLED
  1

  0
SOLID
  5
215
100
AcDbEntity
  8
0
  6
BYBLOCK
 62
0
100
AcDbTrace
 10
0.0
 20
0.0
 11
-1.0
 21
0.25
 12
-1.0
 22
-0.25
 13
-1.0
 23
-0.25
  0
ENDBLK
  5
216
100
AcDbEntity
  8
0
  6
BYBLOCK
 62
0
100
AcDbBlockEnd
  0
ENDSEC
  0
SECTION
  2
ENTITIES
  0
LINE
  5
217
100
AcDbEntity
  8
0
100
AcDbLine
 62
7
  6
CONTINUOUS
 10
10.6758274812
 20
58.3368250235
 11
10.6829708786
 21
58.0140788498
  0
LINE
  5
218
100
AcDbEntity
  8
0
100
AcDbLine
 62
7
  6
CONTINUOUS
 10
10.6758274812
 20
58.3368250235
 11
10.6756442666
 21
58.3733973092
  0
LINE
  5
219
100
AcDbEntity
  8
0
100
AcDbLine
 62
7
  6
CONTINUOUS
 10
10.6899461471
 20
58.3736415619
 11
10.6856913423
 21
58.0113978204
  0
LINE
  5
21A
100
AcDbEntity
  8
0
100
AcDbLine
 62
7
  6
CONTINUOUS
 10
10.9986497472
 20
63.9427230162
 11
10.9682938071
 21
62.4602071637
  0
LINE
  5
21B
100
AcDbEntity
  8
0
100
AcDbLine
 62
7
  6
CONTINUOUS
 10
10.6899370417
 20
58.3736417727
 11
10.995921352
 21
71.5901002091
  0
LINE
  5
21C
100
AcDbEntity
  8
0
100
AcDbLine
 62
7
  6
CONTINUOUS
 10
10.9959155033
 20
71.5901003445
 11
11.0085942633
 21
71.9556961665
  0
LINE
  5
21D
100
AcDbEntity
  8
0
100
AcDbLine
 62
7
  6
CONTINUOUS
 10
10.9816482467
 20
71.5910068215
 11
10.9834820113
 21
71.6268680058
  0
LINE
  5
21E
100
AcDbEntity
  8
0
100
AcDbLine
 62
7
  6
CONTINUOUS
 10
11.0059063922
 20
71.9539297666
 11
10.9834820113
 21
71.6268680058
  0
LWPOLYLINE
  5
21F
100
AcDbEntity
  8
0
100
AcDbPolyline
 62
7
  6
CONTINUOUS
 90
3
 70
0
 10
13.0269932924
 20
76.5517469837
 10
11.0671561023
 20
67.2884193482
 10
11.0397010578
 20
65.9475767129
  0
LWPOLYLINE
  5
220
100
AcDbEntity
  8
0
100
AcDbPolyline
 62
7
  6
CONTINUOUS
 90
5
 70
0
 10
15.2139064203
 20
81.6652446743
 10
12.2181568316
 20
74.155421875
 10
10.8989590918
 20
64.9673207794
 10
11.7978263913
 20
55.7289681883
 10
14.4370320891
 20
48.1143065314
  0
LINE
  5
221
100
AcDbEntity
  8
0
100
AcDbLine
 62
7
  6
CONTINUOUS
 10
14.9008292482
 20
80.8802589853
 11
13.0269932924
 21
76.5517469837
  0
LINE
  5
222
100
AcDbEntity
  8
0
100
AcDbLine
 62
7
  6
CONTINUOUS
 10
15.2139064203
 20
81.6652446743
 11
15.2147828546
 21
81.666847813
  0
LWPOLYLINE
  5
223
100
AcDbEntity
  8
0
100
AcDbPolyline
 62
7
  6
CONTINUOUS
 90
3
 70
0
 10
15.6954759329
 20
82.4382442127
 10
15.4987166457
 20
82.1455690558
 10
15.2145548803
 20
81.6667463017
  0
LINE
  5
224
100
AcDbEntity
  8
0
100
AcDbLine
 62
7
  6
CONTINUOUS
 10
15.6955494852
 20
82.4383669518
 11
15.695470921
 21
82.4382538841
  0
LWPOLYLINE
  5
225
100
AcDbEntity
  8
0
100
AcDbPolyline
 62
7
  6
CONTINUOUS
 90
4
 70
0
 10
15.859652304
 20
82.7117842549
 10
13.9958487703
 20
80.552523576
 10
12.3230940526
 20
77.6146000301
 10
12.1001684188
 20
77.0778126863
  0
LINE
  5
226
100
AcDbEntity
  8
0
100
AcDbLine
 62
7
  6
CONTINUOUS
 10
13.5145997183
 20
48.920538787
 11
15.2269967351
 21
46.8369212871
  0
LWPOLYLINE
  5
227
100
AcDbEntity
  8
0
100
AcDbPolyline
 62
7
  6
CONTINUOUS
 90
4
 70
0
 10
14.8811593833
 20
47.3215352887
 10
15.125960094
 20
46.9734837517
 10
15.3234141728
 20
46.7366249938
 10
15.5273024513
 20
46.5241475059
  0
LINE
  5
228
100
AcDbEntity
  8
0
100
AcDbLine
 62
7
  6
CONTINUOUS
 10
14.8814586926
 20
47.3211292202
 11
14.8811868182
 21
47.3215704937
  0
LWPOLYLINE
  5
229
100
AcDbEntity
  8
0
100
AcDbPolyline
 62
7
  6
CONTINUOUS
 90
4
 70
0
 10
14.4373277978
 20
48.1137602239
 10
14.5521612105
 20
47.8875488259
 10
14.7090408355
 20
47.6045457573
 10
14.8814586926
 20
47.3211292202
  0
LINE
  5
22A
100
AcDbEntity
  8
0
100
AcDbLine
 62
7
  6
CONTINUOUS
 10
14.4372662673
 20
48.1138264301
 11
14.4370320891
 21
48.1143065314
  0
LWPOLYLINE
  5
22B
100
AcDbEntity
  8
0
100
AcDbPolyline
 62
7
  6
CONTINUOUS
 90
3
 70
0
 10
11.5173150261
 20
52.9049162377
 10
11.8625098818
 20
51.9770126986
 10
13.5145997183
 20
48.920538787
  0
LWPOLYLINE
  5
22C
100
AcDbEntity
  8
0
100
AcDbPolyline
 62
7
  6
CONTINUOUS
 90
3
 70
0
 10
10.9682938071
 20
62.4602071637
 10
12.517927284
 20
53.2284182644
 10
14.1607244404
 20
48.9127226351
  0
LWPOLYLINE
  5
22D
100
AcDbEntity
  8
0
100
AcDbPolyline
 62
7
  6
CONTINUOUS
 90
4
 70
0
 10
16.3766366436
 20
83.2031687509
 10
16.2704354706
 20
83.1058885304
 10
15.937733341
 20
82.7525853063
 10
15.6955494852
 20
82.4383669518
  0
LINE
  5
22E
100
AcDbEntity
  8
0
100
AcDbLine
 62
7
  6
CONTINUOUS
 10
16.4023428249
 20
83.1729095137
 11
15.859652304
 21
82.7117842549
  0
LINE
  5
22F
100
AcDbEntity
  8
0
100
AcDbLine
 62
7
  6
CONTINUOUS
 10
15.2269967351
 20
46.8369212871
 11
15.5460130733
 21
46.5444652581
  0
LINE
  5
230
100
AcDbEntity
  8
0
100
AcDbLine
 62
7
  6
CONTINUOUS
 10
15.5273012298
 20
46.5241486955
 11
15.5273463747
 21
46.5241048801
  0
LINE
  5
231
100
AcDbEntity
  8
0
100
AcDbLine
 62
7
  6
CONTINUOUS
 10
16.3037141871
 20
65.485613011
 11
16.2745507809
 21
64.2259505579
  0
LINE
  5
232
100
AcDbEntity
  8
0
100
AcDbLine
 62
7
  6
CONTINUOUS
 10
16.2813304988
 20
74.7756424821
 11
15.9527558382
 21
73.4976134761
  0
LWPOLYLINE
  5
233
100
AcDbEntity
  8
0
100
AcDbPolyline
 62
7
  6
CONTINUOUS
 90
4
 70
0
 10
16.6187867142
 20
74.8075943523
 10
16.4275193453
 20
74.4230560047
 10
16.1229651259
 20
73.8201196631
 10
15.9525316809
 20
73.4976711058
  0
LINE
  5
234
100
AcDbEntity
  8
0
100
AcDbLine
 62
7
  6
CONTINUOUS
 10
16.8770841618
 20
75.3201693929
 11
16.6174435885
 21
74.8048909591
  0
LWPOLYLINE
  5
235
100
AcDbEntity
  8
0
100
AcDbPolyline
 62
7
  6
CONTINUOUS
 90
9
 70
0
 10
15.944476031
 20
73.4828127006
 10
15.2520705295
 20
72.117773937
 10
14.4528704749
 20
70.1440308232
 10
13.8106068954
 20
67.7218564243
 10
13.5131764486
 20
64.9232795725
 10
13.6793895909
 20
62.1159653726
 10
14.206363719
 20
59.6710993411
 10
14.9097102713
 20
57.6675661289
 10
15.5459055338
 20
56.2533031419
  0
LINE
  5
236
100
AcDbEntity
  8
0
100
AcDbLine
 62
7
  6
CONTINUOUS
 10
15.9444762876
 20
73.482789486
 11
15.9525316809
 21
73.4976711058
  0
LINE
  5
237
100
AcDbEntity
  8
0
100
AcDbLine
 62
7
  6
CONTINUOUS
 10
15.5459055338
 20
56.2533031419
 11
15.5515862156
 21
56.2415291083
  0
LWPOLYLINE
  5
238
100
AcDbEntity
  8
0
100
AcDbPolyline
 62
7
  6
CONTINUOUS
 90
4
 70
0
 10
15.5516009703
 20
56.2415263773
 10
15.7080841575
 20
55.9091771618
 10
15.9590245787
 20
55.3504139556
 10
16.1587235872
 20
54.8974716445
  0
LINE
  5
239
100
AcDbEntity
  8
0
100
AcDbLine
 62
7
  6
CONTINUOUS
 10
16.1567367995
 20
54.9019631672
 11
16.392159507
 21
54.3754325228
  0
LINE
  5
23A
100
AcDbEntity
  8
0
100
AcDbLine
 62
7
  6
CONTINUOUS
 10
15.5499808104
 20
56.2541519635
 11
15.822260403
 21
54.9469106282
  0
LINE
  5
23B
100
AcDbEntity
  8
0
100
AcDbLine
 62
7
  6
CONTINUOUS
 10
81.0343136856
 20
42.9915088156
 11
81.1245830389
 21
43.0077407227
  0
LINE
  5
23C
100
AcDbEntity
  8
0
100
AcDbLine
 62
7
  6
CONTINUOUS
 10
81.1221596211
 20
43.0073427264
 11
81.1250966282
 21
43.0078549038
  0
LINE
  5
23D
100
AcDbEntity
  8
0
100
AcDbLine
 62
7
  6
CONTINUOUS
 10
22.1755392155
 20
42.6485025189
 11
26.120861607
 21
41.4928450514
  0
LINE
  5
23E
100
AcDbEntity
  8
0
100
AcDbLine
 62
7
  6
CONTINUOUS
 10
21.0838531213
 20
64.1132948593
 11
21.1130773893
 21
65.375586127
  0
LINE
  5
23F
100
AcDbEntity
  8
0
100
AcDbLine
 62
7
  6
CONTINUOUS
 10
45.9680943092
 20
38.1616943812
 11
48.4774211741
 21
38.1035990409
  0
LINE
  5
240
100
AcDbEntity
  8
0
100
AcDbLine
 62
7
  6
CONTINUOUS
 10
45.9680943305
 20
38.1616943807
 11
45.6263872738
 21
38.1737357782
  0
LWPOLYLINE
  5
241
100
AcDbEntity
  8
0
100
AcDbPolyline
 62
7
  6
CONTINUOUS
 90
6
 70
0
 10
41.7948674
 20
38.5598208016
 10
42.4579330359
 20
38.4759690557
 10
43.3025861277
 20
38.3768321412
 10
43.7621104075
 20
38.3272128977
 10
44.7648415822
 20
38.2323011267
 10
45.6263811978
 20
38.1737712968
  0
LINE
  5
242
100
AcDbEntity
  8
0
100
AcDbLine
 62
7
  6
CONTINUOUS
 10
41.8487200716
 20
38.5528673091
 11
41.8312641753
 21
38.5552180399
  0
LINE
  5
243
100
AcDbEntity
  8
0
100
AcDbLine
 62
7
  6
CONTINUOUS
 10
24.862354229
 20
46.1453985157
 11
22.6712541113
 21
46.8208592932
  0
LINE
  5
244
100
AcDbEntity
  8
0
100
AcDbLine
 62
7
  6
CONTINUOUS
 10
23.7627038273
 20
77.8279279665
 11
24.2058595647
 21
78.0739112901
  0
LINE
  5
245
100
AcDbEntity
  8
0
100
AcDbLine
 62
7
  6
CONTINUOUS
 10
48.5456310778
 20
41.3528907514
 11
45.9613014868
 21
41.412734171
  0
LINE
  5
246
100
AcDbEntity
  8
0
100
AcDbLine
 62
7
  6
CONTINUOUS
 10
23.5856592011
 20
51.2854386361
 11
23.154362069
 21
51.551667085
  0
LINE
  5
247
100
AcDbEntity
  8
0
100
AcDbLine
 62
7
  6
CONTINUOUS
 10
26.443103373
 20
73.7065994728
 11
26.000177073
 21
73.460739738
  0
LINE
  5
248
100
AcDbEntity
  8
0
100
AcDbLine
 62
7
  6
CONTINUOUS
 10
54.9865083489
 20
46.0942410468
 11
48.5886925718
 21
44.6027646919
  0
LINE
  5
249
100
AcDbEntity
  8
0
100
AcDbLine
 62
7
  6
CONTINUOUS
 10
55.0604309036
 20
46.0232375347
 11
55.0054786065
 21
46.0106624037
  0
LINE
  5
24A
100
AcDbEntity
  8
0
100
AcDbLine
 62
7
  6
CONTINUOUS
 10
64.1216396159
 20
46.5304782744
 11
63.1781093986
 21
46.5193832431
  0
LINE
  5
24B
100
AcDbEntity
  8
0
100
AcDbLine
 62
7
  6
CONTINUOUS
 10
45.9293885934
 20
44.6643322667
 11
48.5886925718
 21
44.6027646919
  0
LINE
  5
24C
100
AcDbEntity
  8
0
100
AcDbLine
 62
7
  6
CONTINUOUS
 10
65.3578433164
 20
45.7823486794
 11
65.3591463045
 21
45.7823185129
  0
LINE
  5
24D
100
AcDbEntity
  8
0
100
AcDbLine
 62
7
  6
CONTINUOUS
 10
80.2292136151
 20
44.3165087102
 11
71.0264486345
 21
44.609748579
  0
LINE
  5
24E
100
AcDbEntity
  8
0
100
AcDbLine
 62
7
  6
CONTINUOUS
 10
65.3578433164
 20
45.7823486794
 11
78.7030247592
 21
45.3570354009
  0
LINE
  5
24F
100
AcDbEntity
  8
0
100
AcDbLine
 62
7
  6
CONTINUOUS
 10
25.5915435092
 20
55.8106302303
 11
26.0226195797
 21
55.5445344344
  0
LINE
  5
250
100
AcDbEntity
  8
0
100
AcDbLine
 62
7
  6
CONTINUOUS
 10
48.7084291981
 20
49.4455457583
 11
55.0968319662
 21
50.9348131542
  0
LINE
  5
251
100
AcDbEntity
  8
0
100
AcDbLine
 62
7
  6
CONTINUOUS
 10
69.4343086981
 20
46.7073782092
 11
69.1752489169
 21
46.7133758998
  0
LINE
  5
252
100
AcDbEntity
  8
0
100
AcDbLine
 62
7
  6
CONTINUOUS
 10
64.4261789111
 20
46.8233252419
 11
64.4180317579
 21
46.8235138628
  0
LINE
  5
253
100
AcDbEntity
  8
0
100
AcDbLine
 62
7
  6
CONTINUOUS
 10
48.702620202
 20
49.6014668972
 11
46.0433207369
 21
49.663257239
  0
LINE
  5
254
100
AcDbEntity
  8
0
100
AcDbLine
 62
7
  6
CONTINUOUS
 10
61.5005812188
 20
50.4951116955
 11
64.2127261988
 21
50.5270039792
  0
LINE
  5
255
100
AcDbEntity
  8
0
100
AcDbLine
 62
7
  6
CONTINUOUS
 10
61.486179451
 20
49.8729040388
 11
61.4802889141
 21
49.8730404151
  0
LINE
  5
256
100
AcDbEntity
  8
0
100
AcDbLine
 62
7
  6
CONTINUOUS
 10
76.9692612821
 20
49.6876505252
 11
74.276615482
 21
49.7499900219
  0
LINE
  5
257
100
AcDbEntity
  8
0
100
AcDbLine
 62
7
  6
CONTINUOUS
 10
64.502286712
 20
50.5203001426
 11
64.2127261987
 21
50.5270039789
  0
LINE
  5
258
100
AcDbEntity
  8
0
100
AcDbLine
 62
7
  6
CONTINUOUS
 10
69.5095656863
 20
49.901987623
 11
74.276615482
 21
49.7499900219
  0
LINE
  5
259
100
AcDbEntity
  8
0
100
AcDbLine
 62
7
  6
CONTINUOUS
 10
47.2203348056
 20
55.1372582309
 11
47.5702410199
 21
55.1291572853
  0
LINE
  5
25A
100
AcDbEntity
  8
0
100
AcDbLine
 62
7
  6
CONTINUOUS
 10
46.7145316783
 20
78.6550427982
 11
46.0433207369
 21
49.663257239
  0
LINE
  5
25B
100
AcDbEntity
  8
0
100
AcDbLine
 62
7
  6
CONTINUOUS
 10
47.6507616507
 20
67.7265231651
 11
47.8646173688
 21
67.8434783899
  0
LINE
  5
25C
100
AcDbEntity
  8
0
100
AcDbLine
 62
7
  6
CONTINUOUS
 10
47.5339373127
 20
62.7320343229
 11
47.7461646736
 21
62.7271208854
  0
LINE
  5
25D
100
AcDbEntity
  8
0
100
AcDbLine
 62
7
  6
CONTINUOUS
 10
21.0838834772
 20
64.1146060283
 11
16.2745507809
 21
64.2259505579
  0
LINE
  5
25E
100
AcDbEntity
  8
0
100
AcDbLine
 62
7
  6
CONTINUOUS
 10
47.692519548
 20
60.4100132766
 11
47.4843055002
 21
60.5367401605
  0
LINE
  5
25F
100
AcDbEntity
  8
0
100
AcDbLine
 62
7
  6
CONTINUOUS
 10
47.2177588027
 20
38.1327624453
 11
47.3541786102
 21
44.6313458663
  0
LINE
  5
260
100
AcDbEntity
  8
0
100
AcDbLine
 62
7
  6
CONTINUOUS
 10
48.6138409816
 20
44.6021824619
 11
48.4774211741
 21
38.1035990409
  0
LWPOLYLINE
  5
261
100
AcDbEntity
  8
0
100
AcDbPolyline
 62
7
  6
CONTINUOUS
 90
3
 70
0
 10
48.8249288005
 20
45.2940491862
 10
48.8647886156
 20
47.0581617206
 10
48.7084291981
 20
49.4455457587
  0
LINE
  5
262
100
AcDbEntity
  8
0
100
AcDbLine
 62
7
  6
CONTINUOUS
 10
47.4429404369
 20
49.6306307043
 11
47.3290128068
 21
44.631928499
  0
LINE
  5
263
100
AcDbEntity
  8
0
100
AcDbLine
 62
7
  6
CONTINUOUS
 10
47.6369548953
 20
73.1324361323
 11
47.2203348056
 21
55.1372582309
  0
LINE
  5
264
100
AcDbEntity
  8
0
100
AcDbLine
 62
7
  6
CONTINUOUS
 10
49.3738414575
 20
78.5936979605
 11
48.702620202
 21
49.6014668972
  0
LWPOLYLINE
  5
265
100
AcDbEntity
  8
0
100
AcDbPolyline
 62
7
  6
CONTINUOUS
 90
3
 70
0
 10
49.6953764858
 20
82.890837943
 10
49.6535524773
 20
81.1267709141
 10
49.3868600604
 20
78.7491832073
  0
LINE
  5
266
100
AcDbEntity
  8
0
100
AcDbLine
 62
7
  6
CONTINUOUS
 10
48.2316896677
 20
83.6214806185
 11
47.4429404369
 21
49.6306307043
  0
LINE
  5
267
100
AcDbEntity
  8
0
100
AcDbLine
 62
7
  6
CONTINUOUS
 10
48.2568554711
 20
83.6208979858
 11
48.4213279506
 21
90.118831938
  0
LINE
  5
268
100
AcDbEntity
  8
0
100
AcDbLine
 62
7
  6
CONTINUOUS
 10
49.680990322
 20
90.0896685336
 11
49.5165178425
 21
83.5917345815
  0
LINE
  5
269
100
AcDbEntity
  8
0
100
AcDbLine
 62
7
  6
CONTINUOUS
 10
16.3037141871
 20
65.485613011
 11
21.1130468835
 21
65.3742684814
  0
LINE
  5
26A
100
AcDbEntity
  8
0
100
AcDbLine
 62
7
  6
CONTINUOUS
 10
47.5987448822
 20
65.5312842186
 11
47.8109722431
 21
65.5263707811
  0
LINE
  5
26B
100
AcDbEntity
  8
0
100
AcDbLine
 62
7
  6
CONTINUOUS
 10
55.6994966882
 20
76.9658643604
 11
55.0968319662
 21
50.9348131542
  0
LINE
  5
26C
100
AcDbEntity
  8
0
100
AcDbLine
 62
7
  6
CONTINUOUS
 10
48.5981055808
 20
44.6049736508
 11
48.8249288005
 21
45.2940491862
  0
LINE
  5
26D
100
AcDbEntity
  8
0
100
AcDbLine
 62
7
  6
CONTINUOUS
 10
47.6369548953
 20
73.1324361323
 11
47.9868611095
 21
73.1243351866
  0
LINE
  5
26E
100
AcDbEntity
  8
0
100
AcDbLine
 62
7
  6
CONTINUOUS
 10
49.5006701285
 20
83.5896745973
 11
49.6953764858
 21
82.890837943
  0
LINE
  5
26F
100
AcDbEntity
  8
0
100
AcDbLine
 62
7
  6
CONTINUOUS
 10
74.9135624308
 20
77.2618022031
 11
70.1445859585
 21
77.3305804199
  0
LINE
  5
270
100
AcDbEntity
  8
0
100
AcDbLine
 62
7
  6
CONTINUOUS
 10
64.8244967288
 20
76.9513646786
 11
65.1140572421
 21
76.9446608423
  0
LINE
  5
271
100
AcDbEntity
  8
0
100
AcDbLine
 62
7
  6
CONTINUOUS
 10
74.9135624308
 20
77.2618022031
 11
77.6062082309
 21
77.1994627064
  0
LINE
  5
272
100
AcDbEntity
  8
0
100
AcDbLine
 62
7
  6
CONTINUOUS
 10
62.1252617213
 20
77.7310810311
 11
62.1311422038
 21
77.7309448876
  0
LINE
  5
273
100
AcDbEntity
  8
0
100
AcDbLine
 62
7
  6
CONTINUOUS
 10
46.7145316783
 20
78.6550427982
 11
49.3738414575
 21
78.5936979605
  0
LINE
  5
274
100
AcDbEntity
  8
0
100
AcDbLine
 62
7
  6
CONTINUOUS
 10
64.8244967288
 20
76.9513646786
 11
62.1167335672
 21
77.1087373899
  0
LINE
  5
275
100
AcDbEntity
  8
0
100
AcDbLine
 62
7
  6
CONTINUOUS
 10
55.6994966882
 20
76.9658643604
 11
49.3868600604
 21
78.7491832073
  0
LINE
  5
276
100
AcDbEntity
  8
0
100
AcDbLine
 62
7
  6
CONTINUOUS
 10
62.0564253519
 20
77.7312079874
 11
62.0547672164
 21
77.9279376314
  0
LINE
  5
277
100
AcDbEntity
  8
0
100
AcDbLine
 62
7
  6
CONTINUOUS
 10
61.5775283674
 20
54.1749620141
 11
61.4802889141
 21
49.8730404151
  0
LINE
  5
278
100
AcDbEntity
  8
0
100
AcDbLine
 62
7
  6
CONTINUOUS
 10
61.555485095
 20
54.1754723548
 11
62.0012562373
 21
73.4297791128
  0
LINE
  5
279
100
AcDbEntity
  8
0
100
AcDbLine
 62
7
  6
CONTINUOUS
 10
62.1311422038
 20
77.7309448876
 11
61.486179451
 21
49.8729040388
  0
LINE
  5
27A
100
AcDbEntity
  8
0
100
AcDbLine
 62
7
  6
CONTINUOUS
 10
62.1252617213
 20
77.7310810311
 11
62.023320347
 21
73.4292682898
  0
LINE
  5
27B
100
AcDbEntity
  8
0
100
AcDbLine
 62
7
  6
CONTINUOUS
 10
79.5385294194
 20
81.4452015082
 11
66.1879497167
 21
81.6379421585
  0
LINE
  5
27C
100
AcDbEntity
  8
0
100
AcDbLine
 62
7
  6
CONTINUOUS
 10
65.2009750984
 20
80.6413854715
 11
65.2091222518
 21
80.6411968506
  0
LINE
  5
27D
100
AcDbEntity
  8
0
100
AcDbLine
 62
7
  6
CONTINUOUS
 10
69.9581922575
 20
80.5312475084
 11
70.2172520387
 21
80.5252498179
  0
LINE
  5
27E
100
AcDbEntity
  8
0
100
AcDbLine
 62
7
  6
CONTINUOUS
 10
66.1892664911
 20
81.6379116729
 11
66.1879497167
 21
81.6379421585
  0
LINE
  5
27F
100
AcDbEntity
  8
0
100
AcDbLine
 62
7
  6
CONTINUOUS
 10
63.9793394674
 20
81.0024046711
 11
64.9184618331
 21
80.9478237406
  0
LINE
  5
280
100
AcDbEntity
  8
0
100
AcDbLine
 62
7
  6
CONTINUOUS
 10
64.5022953847
 20
50.5206747445
 11
64.4180317579
 21
46.8235138628
  0
LINE
  5
281
100
AcDbEntity
  8
0
100
AcDbLine
 62
7
  6
CONTINUOUS
 10
64.8244967288
 20
76.9513646786
 11
64.2127261988
 21
50.5270039792
  0
LINE
  5
282
100
AcDbEntity
  8
0
100
AcDbLine
 62
7
  6
CONTINUOUS
 10
64.5022953847
 20
50.5206747445
 11
65.1140485639
 21
76.9442860042
  0
LINE
  5
283
100
AcDbEntity
  8
0
100
AcDbLine
 62
7
  6
CONTINUOUS
 10
65.2091222518
 20
80.6411968506
 11
64.9898390558
 21
71.1696417819
  0
LINE
  5
284
100
AcDbEntity
  8
0
100
AcDbLine
 62
7
  6
CONTINUOUS
 10
64.6454901192
 20
56.2960902445
 11
64.4261789111
 21
46.8233252419
  0
LINE
  5
285
100
AcDbEntity
  8
0
100
AcDbLine
 62
7
  6
CONTINUOUS
 10
64.8858402955
 20
66.7314862326
 11
64.7499137648
 21
60.856601998
  0
LINE
  5
286
100
AcDbEntity
  8
0
100
AcDbLine
 62
7
  6
CONTINUOUS
 10
65.2009750984
 20
80.6413854715
 11
65.1140485639
 21
76.9442860042
  0
LINE
  5
287
100
AcDbEntity
  8
0
100
AcDbLine
 62
7
  6
CONTINUOUS
 10
64.7469669323
 20
60.7330935988
 11
64.7540186108
 21
61.0330107299
  0
LINE
  5
288
100
AcDbEntity
  8
0
100
AcDbLine
 62
7
  6
CONTINUOUS
 10
71.9081822929
 20
82.5469003758
 11
81.1112373081
 21
82.4139832766
  0
LINE
  5
289
100
AcDbEntity
  8
0
100
AcDbLine
 62
7
  6
CONTINUOUS
 10
46.8320654544
 20
83.6538843863
 11
49.4913694327
 21
83.5923168115
  0
LINE
  5
28A
100
AcDbEntity
  8
0
100
AcDbLine
 62
7
  6
CONTINUOUS
 10
55.8360534275
 20
81.888924268
 11
55.8897164798
 21
81.874140718
  0
LINE
  5
28B
100
AcDbEntity
  8
0
100
AcDbLine
 62
7
  6
CONTINUOUS
 10
49.4913694327
 20
83.5923168115
 11
55.8133067563
 21
81.8063557504
  0
LINE
  5
28C
100
AcDbEntity
  8
0
100
AcDbLine
 62
7
  6
CONTINUOUS
 10
70.1329883584
 20
76.8280865924
 11
70.2172520387
 21
80.5252498179
  0
LINE
  5
28D
100
AcDbEntity
  8
0
100
AcDbLine
 62
7
  6
CONTINUOUS
 10
69.1508959874
 20
45.6614935973
 11
69.982545187
 21
81.5831298109
  0
LINE
  5
28E
100
AcDbEntity
  8
0
100
AcDbLine
 62
7
  6
CONTINUOUS
 10
69.4261615457
 20
46.7075668301
 11
70.2091048863
 21
80.5254384388
  0
LINE
  5
28F
100
AcDbEntity
  8
0
100
AcDbLine
 62
7
  6
CONTINUOUS
 10
69.820418105
 20
63.3782108958
 11
69.8940690868
 21
66.6155396137
  0
LINE
  5
290
100
AcDbEntity
  8
0
100
AcDbLine
 62
7
  6
CONTINUOUS
 10
70.1329883584
 20
76.8280865924
 11
70.0007035244
 21
71.1142739803
  0
LINE
  5
291
100
AcDbEntity
  8
0
100
AcDbLine
 62
7
  6
CONTINUOUS
 10
69.6535201163
 20
56.1182923958
 11
69.5212352878
 21
50.4044800217
  0
LINE
  5
292
100
AcDbEntity
  8
0
100
AcDbLine
 62
7
  6
CONTINUOUS
 10
69.4343086981
 20
46.7073782092
 11
69.5212352878
 21
50.4044800217
  0
LINE
  5
293
100
AcDbEntity
  8
0
100
AcDbLine
 62
7
  6
CONTINUOUS
 10
69.820418105
 20
63.3782108958
 11
69.7551955983
 21
60.6171415709
  0
LINE
  5
294
100
AcDbEntity
  8
0
100
AcDbLine
 62
7
  6
CONTINUOUS
 10
25.7178188958
 20
83.1493093767
 11
23.4989409626
 21
82.5759797242
  0
LINE
  5
295
100
AcDbEntity
  8
0
100
AcDbLine
 62
7
  6
CONTINUOUS
 10
49.5987540822
 20
86.8407015575
 11
47.014425219
 21
86.9005449588
  0
LINE
  5
296
100
AcDbEntity
  8
0
100
AcDbLine
 62
7
  6
CONTINUOUS
 10
43.0212971124
 20
89.9461284364
 11
43.0384792667
 21
89.9476395261
  0
LWPOLYLINE
  5
297
100
AcDbEntity
  8
0
100
AcDbPolyline
 62
7
  6
CONTINUOUS
 90
6
 70
0
 10
47.0856941475
 20
90.1494649743
 10
45.9664315044
 20
90.1329177434
 10
44.960384699
 20
90.084512901
 10
44.499057492
 20
90.0562130953
 10
43.6507204288
 20
89.996271814
 10
42.9844863441
 20
89.943195885
  0
LINE
  5
298
100
AcDbEntity
  8
0
100
AcDbLine
 62
7
  6
CONTINUOUS
 10
46.9665469766
 20
90.1509637197
 11
47.0856941475
 21
90.1494649743
  0
LINE
  5
299
100
AcDbEntity
  8
0
100
AcDbLine
 62
7
  6
CONTINUOUS
 10
47.1716634521
 20
90.147763874
 11
49.680990322
 21
90.0896685336
  0
LWPOLYLINE
  5
29A
100
AcDbEntity
  8
0
100
AcDbPolyline
 62
7
  6
CONTINUOUS
 90
3
 70
0
 10
82.0667232648
 20
83.6797746279
 10
82.0638131074
 20
83.6804221774
 10
81.9767940661
 20
83.7003045207
  0
LINE
  5
29B
100
AcDbEntity
  8
0
100
AcDbLine
 62
7
  6
CONTINUOUS
 10
74.9135624308
 20
77.2618022031
 11
74.276615482
 21
49.7499900219
  0
LINE
  5
29C
100
AcDbEntity
  8
0
100
AcDbLine
 62
7
  6
CONTINUOUS
 10
23.0057802374
 20
86.7174484531
 11
23.2039030057
 21
86.7690305257
  0
LINE
  5
29D
100
AcDbEntity
  8
0
100
AcDbLine
 62
7
  6
CONTINUOUS
 10
27.1915343648
 20
87.7386868354
 11
23.1969567773
 21
86.7668520486
  0
LINE
  5
29E
100
AcDbEntity
  8
0
100
AcDbLine
 62
7
  6
CONTINUOUS
 10
82.0667267586
 20
83.6797667728
 11
81.9767940661
 21
83.7003045207
  0
LINE
  5
29F
100
AcDbEntity
  8
0
100
AcDbLine
 62
7
  6
CONTINUOUS
 10
76.9692612821
 20
49.6876505252
 11
77.6062082309
 21
77.1994627064
  0
LINE
  5
2A0
100
AcDbEntity
  8
0
100
AcDbLine
 62
7
  6
CONTINUOUS
 10
80.8525559196
 20
81.939970719
 11
79.992746081
 21
44.8019848382
  0
LINE
  5
2A1
100
AcDbEntity
  8
0
100
AcDbLine
 62
7
  6
CONTINUOUS
 10
80.2292136151
 20
44.3165087102
 11
81.1112373081
 21
82.4139832766
  0
LINE
  5
2A2
100
AcDbEntity
  8
0
100
AcDbLine
 62
7
  6
CONTINUOUS
 10
81.9767938321
 20
83.7002944116
 11
81.0343139196
 21
42.9915189245
  0
LINE
  5
2A3
100
AcDbEntity
  8
0
100
AcDbLine
 62
7
  6
CONTINUOUS
 10
82.0667228332
 20
83.6797559829
 11
81.1250970691
 21
43.007873945
  0
LWPOLYLINE
  5
2A4
100
AcDbEntity
  8
0
100
AcDbPolyline
 62
7
  6
CONTINUOUS
 90
4
 70
0
 10
80.3313909522
 20
42.0524730409
 10
80.8827356518
 20
42.3780313318
 10
81.0516044876
 20
42.6540775625
 10
81.1250996794
 20
43.0078738821
  0
LWPOLYLINE
  5
2A5
100
AcDbEntity
  8
0
100
AcDbPolyline
 62
7
  6
CONTINUOUS
 90
3
 70
0
 10
82.0667256519
 20
83.6797559205
 10
81.939461059
 20
84.1915734202
 10
81.3180760674
 20
84.670866086
  0
ARC
  5
2A6
100
AcDbEntity
  8
0
100
AcDbCircle
 62
7
  6
CONTINUOUS
 10
33.3707024348
 20
-100.2108587792
 40
191.0000000004
100
AcDbArc
 50
82.0229052036
 51
85.0926714038
  0
ARC
  5
2A7
100
AcDbEntity
  8
0
100
AcDbCircle
 62
7
  6
CONTINUOUS
 10
33.3707024348
 20
-100.2108587792
 40
191.0000000004
100
AcDbArc
 50
79.6665540332
 51
80.1615524944
  0
ARC
  5
2A8
100
AcDbEntity
  8
0
100
AcDbCircle
 62
7
  6
CONTINUOUS
 10
33.3707024348
 20
-100.2108587792
 40
191.0000000004
100
AcDbArc
 50
77.1571163594
 51
77.974211901
  0
ARC
  5
2A9
100
AcDbEntity
  8
0
100
AcDbCircle
 62
7
  6
CONTINUOUS
 10
33.3516230667
 20
-100.2104170578
 40
191.0
100
AcDbArc
 50
75.480031887
 51
77.962883074
  0
ARC
  5
2AA
100
AcDbEntity
  8
0
100
AcDbCircle
 62
7
  6
CONTINUOUS
 10
33.3664108284
 20
-100.2107594205
 40
191.0
100
AcDbArc
 50
75.5096282887
 51
77.1558545591
  0
ARC
  5
2AB
100
AcDbEntity
  8
0
100
AcDbCircle
 62
7
  6
CONTINUOUS
 10
33.361663882
 20
-100.2106495203
 40
191.0
100
AcDbArc
 50
75.4585459058
 51
75.5107468942
  0
ARC
  5
2AC
100
AcDbEntity
  8
0
100
AcDbCircle
 62
7
  6
CONTINUOUS
 10
33.3420170108
 20
-100.2101946606
 40
191.0
100
AcDbArc
 50
77.9657065882
 51
85.0926714151
  0
ARC
  5
2AD
100
AcDbEntity
  8
0
100
AcDbCircle
 62
7
  6
CONTINUOUS
 10
34.2204476998
 20
-101.1437468606
 40
190.9135620897
100
AcDbArc
 50
75.5138226325
 51
77.9894885113
  0
ARC
  5
2AE
100
AcDbEntity
  8
0
100
AcDbCircle
 62
7
  6
CONTINUOUS
 10
2.6758323403
 20
53.4045132935
 40
58.8418497006
100
AcDbArc
 50
356.3682007312
 51
356.5635081827
  0
ARC
  5
2AF
100
AcDbEntity
  8
0
100
AcDbCircle
 62
7
  6
CONTINUOUS
 10
32.6881894089
 20
63.2888188428
 40
16.6274665758
100
AcDbArc
 50
175.8855300413
 51
176.7919524635
  0
ARC
  5
2B0
100
AcDbEntity
  8
0
100
AcDbCircle
 62
7
  6
CONTINUOUS
 10
26.6721331403
 20
58.0035418841
 40
15.9998838454
100
AcDbArc
 50
225.8467823267
 51
253.6777752547
  0
ARC
  5
2B1
100
AcDbEntity
  8
0
100
AcDbCircle
 62
7
  6
CONTINUOUS
 10
26.6841219738
 20
58.0032643215
 40
15.9998838454
100
AcDbArc
 50
179.9708711979
 51
223.4816102021
  0
ARC
  5
2B2
100
AcDbEntity
  8
0
100
AcDbCircle
 62
7
  6
CONTINUOUS
 10
26.6424200612
 20
57.871485391
 40
15.8529210309
100
AcDbArc
 50
234.8835130019
 51
253.6466835437
  0
ARC
  5
2B3
100
AcDbEntity
  8
0
100
AcDbCircle
 62
7
  6
CONTINUOUS
 10
26.1060832898
 20
56.6322153613
 40
14.5413229545
100
AcDbArc
 50
224.9381961519
 51
225.5236506327
  0
ARC
  5
2B4
100
AcDbEntity
  8
0
100
AcDbCircle
 62
7
  6
CONTINUOUS
 10
30.7723461845
 20
63.8912548371
 40
14.5017254293
100
AcDbArc
 50
178.6775060477
 51
238.3104227973
  0
ARC
  5
2B5
100
AcDbEntity
  8
0
100
AcDbCircle
 62
7
  6
CONTINUOUS
 10
30.7610873814
 20
63.8840278653
 40
14.4891358947
100
AcDbArc
 50
205.6340686359
 51
212.5366508867
  0
ARC
  5
2B6
100
AcDbEntity
  8
0
100
AcDbCircle
 62
7
  6
CONTINUOUS
 10
30.7383083401
 20
63.8724362517
 40
14.4635840968
100
AcDbArc
 50
201.4940484024
 51
205.6317076453
  0
ARC
  5
2B7
100
AcDbEntity
  8
0
100
AcDbCircle
 62
7
  6
CONTINUOUS
 10
30.7383522621
 20
63.8706268477
 40
14.4627615476
100
AcDbArc
 50
212.5403357297
 51
215.3904981496
  0
ARC
  5
2B8
100
AcDbEntity
  8
0
100
AcDbCircle
 62
7
  6
CONTINUOUS
 10
30.6955510675
 20
63.8543464127
 40
14.4171721989
100
AcDbArc
 50
195.1172301551
 51
201.4894172155
  0
ARC
  5
2B9
100
AcDbEntity
  8
0
100
AcDbCircle
 62
7
  6
CONTINUOUS
 10
25.9994447533
 20
56.5258993097
 40
14.390741163
100
AcDbArc
 50
223.6103615184
 51
224.9384573406
  0
ARC
  5
2BA
100
AcDbEntity
  8
0
100
AcDbCircle
 62
7
  6
CONTINUOUS
 10
25.8986463205
 20
56.4305812698
 40
14.2520126903
100
AcDbArc
 50
219.4552890496
 51
223.6124158944
  0
ARC
  5
2BB
100
AcDbEntity
  8
0
100
AcDbCircle
 62
7
  6
CONTINUOUS
 10
21.5618388602
 20
57.3386084896
 40
10.5609222913
100
AcDbArc
 50
203.9553328444
 51
204.6313671336
  0
ARC
  5
2BC
100
AcDbEntity
  8
0
100
AcDbCircle
 62
7
  6
CONTINUOUS
 10
30.5836887605
 20
63.8958536778
 40
9.5023156178
100
AcDbArc
 50
178.6887892093
 51
238.3071336086
  0
ARC
  5
2BD
100
AcDbEntity
  8
0
100
AcDbCircle
 62
7
  6
CONTINUOUS
 10
18.2533646965
 20
49.1720993099
 40
3.8100940184
100
AcDbArc
 50
208.1635864539
 51
208.7458228884
  0
ARC
  5
2BE
100
AcDbEntity
  8
0
100
AcDbCircle
 62
7
  6
CONTINUOUS
 10
17.986902273
 20
55.7102201293
 40
2.0006379956
100
AcDbArc
 50
203.96746087
 51
211.9521610273
  0
ARC
  5
2BF
100
AcDbEntity
  8
0
100
AcDbCircle
 62
7
  6
CONTINUOUS
 10
12.3935683739
 20
58.3392754517
 40
1.7042532094
100
AcDbArc
 50
183.6216740031
 51
190.0996810504
  0
ARC
  5
2C0
100
AcDbEntity
  8
0
100
AcDbCircle
 62
7
  6
CONTINUOUS
 10
12.3366621819
 20
58.3349542205
 40
1.6471878573
100
AcDbArc
 50
179.9383415333
 51
183.596700901
  0
ARC
  5
2C1
100
AcDbEntity
  8
0
100
AcDbCircle
 62
7
  6
CONTINUOUS
 10
58.1137384104
 20
-81.7618973957
 40
172.3732150206
100
AcDbArc
 50
96.2548444367
 51
96.4350104902
  0
ARC
  5
2C2
100
AcDbEntity
  8
0
100
AcDbCircle
 62
7
  6
CONTINUOUS
 10
45.8027851716
 20
39.1636847642
 40
44.5021254904
100
AcDbArc
 50
88.6746991822
 51
119.0325451454
  0
ARC
  5
2C3
100
AcDbEntity
  8
0
100
AcDbCircle
 62
7
  6
CONTINUOUS
 10
45.6140889138
 20
39.1674874142
 40
39.5028524809
100
AcDbArc
 50
88.4036888506
 51
119.0325299743
  0
ARC
  5
2C4
100
AcDbEntity
  8
0
100
AcDbCircle
 62
7
  6
CONTINUOUS
 10
39.344314918
 20
63.842224484
 40
25.1478360341
100
AcDbArc
 50
200.7150683866
 51
201.1470369954
  0
ARC
  5
2C5
100
AcDbEntity
  8
0
100
AcDbCircle
 62
7
  6
CONTINUOUS
 10
39.2687403341
 20
63.8127538354
 40
25.0667189113
100
AcDbArc
 50
201.1465306058
 51
202.4620930623
  0
ARC
  5
2C6
100
AcDbEntity
  8
0
100
AcDbCircle
 62
7
  6
CONTINUOUS
 10
65.5082435762
 20
20.1529952481
 40
23.7984752939
100
AcDbArc
 50
86.337236969
 51
89.8344243791
  0
ARC
  5
2C7
100
AcDbEntity
  8
0
100
AcDbCircle
 62
7
  6
CONTINUOUS
 10
50.6356329524
 20
63.0219060348
 40
19.5707878402
100
AcDbArc
 50
73.2131480444
 51
73.6290475542
  0
ARC
  5
2C8
100
AcDbEntity
  8
0
100
AcDbCircle
 62
7
  6
CONTINUOUS
 10
50.7984200327
 20
63.5671472759
 40
19.0017701207
100
AcDbArc
 50
73.6366104748
 51
74.0541834582
  0
ARC
  5
2C9
100
AcDbEntity
  8
0
100
AcDbCircle
 62
7
  6
CONTINUOUS
 10
72.2082421074
 20
49.0616665309
 40
10.8262436898
100
AcDbArc
 50
176.7405952866
 51
177.9636277515
  0
ARC
  5
2CA
100
AcDbEntity
  8
0
100
AcDbCircle
 62
7
  6
CONTINUOUS
 10
53.0800601547
 20
54.3716933823
 40
8.5
100
AcDbArc
 50
283.9731488985
 51
358.673738632
  0
ARC
  5
2CB
100
AcDbEntity
  8
0
100
AcDbCircle
 62
7
  6
CONTINUOUS
 10
53.0808571267
 20
54.371674931
 40
8.5
100
AcDbArc
 50
283.1237771721
 51
283.5971645658
  0
ARC
  5
2CC
100
AcDbEntity
  8
0
100
AcDbCircle
 62
7
  6
CONTINUOUS
 10
53.05705802
 20
54.3722259223
 40
8.5
100
AcDbArc
 50
283.1203716912
 51
358.673738632
  0
ARC
  5
2CD
100
AcDbEntity
  8
0
100
AcDbCircle
 62
7
  6
CONTINUOUS
 10
65.4829919512
 20
49.7803707839
 40
4.0
100
AcDbArc
 50
186.5784492379
 51
268.1251504671
  0
ARC
  5
2CE
100
AcDbEntity
  8
0
100
AcDbCircle
 62
7
  6
CONTINUOUS
 10
65.4794054333
 20
49.7804538182
 40
4.0
100
AcDbArc
 50
178.673738632
 51
186.5847602444
  0
ARC
  5
2CF
100
AcDbEntity
  8
0
100
AcDbCircle
 62
7
  6
CONTINUOUS
 10
69.1262419334
 20
46.7145104978
 40
0.3
100
AcDbArc
 50
277.2901366159
 51
358.673738632
  0
ARC
  5
2D0
100
AcDbEntity
  8
0
100
AcDbCircle
 62
7
  6
CONTINUOUS
 10
64.1262592989
 20
46.8302689096
 40
0.3
100
AcDbArc
 50
270.6737385025
 51
358.673738632
  0
ARC
  5
2D1
100
AcDbEntity
  8
0
100
AcDbCircle
 62
7
  6
CONTINUOUS
 10
69.1343898597
 20
46.7143522649
 40
0.299999896
100
AcDbArc
 50
275.9968538025
 51
358.6679330779
  0
ARC
  5
2D2
100
AcDbEntity
  8
0
100
AcDbCircle
 62
7
  6
CONTINUOUS
 10
64.1181128266
 20
46.830487295
 40
0.299999896
100
AcDbArc
 50
270.6735158728
 51
358.6680525437
  0
ARC
  5
2D3
100
AcDbEntity
  8
0
100
AcDbCircle
 62
7
  6
CONTINUOUS
 10
32.7452672102
 20
65.6621925283
 40
16.6295981152
100
AcDbArc
 50
180.5544344629
 51
181.4619439291
  0
ARC
  5
2D4
100
AcDbEntity
  8
0
100
AcDbCircle
 62
7
  6
CONTINUOUS
 10
26.9781987312
 20
71.2201007647
 40
15.9999777577
100
AcDbArc
 50
103.6699144481
 51
131.5002263709
  0
ARC
  5
2D5
100
AcDbEntity
  8
0
100
AcDbCircle
 62
7
  6
CONTINUOUS
 10
26.9902161576
 20
71.2198225401
 40
15.9999777577
100
AcDbArc
 50
131.6968239903
 51
177.3636784557
  0
ARC
  5
2D6
100
AcDbEntity
  8
0
100
AcDbCircle
 62
7
  6
CONTINUOUS
 10
26.9546146279
 20
71.3534122778
 40
15.8529395261
100
AcDbArc
 50
103.7009695429
 51
122.4636204309
  0
ARC
  5
2D7
100
AcDbEntity
  8
0
100
AcDbCircle
 62
7
  6
CONTINUOUS
 10
26.6424515346
 20
72.4721096639
 40
14.7604934576
100
AcDbArc
 50
133.882394741
 51
137.8102365067
  0
ARC
  5
2D8
100
AcDbEntity
  8
0
100
AcDbCircle
 62
7
  6
CONTINUOUS
 10
30.8163132687
 20
65.1456400309
 40
14.5170476781
100
AcDbArc
 50
151.1994965039
 51
155.6852534819
  0
ARC
  5
2D9
100
AcDbEntity
  8
0
100
AcDbCircle
 62
7
  6
CONTINUOUS
 10
30.8014655815
 20
65.1490106133
 40
14.5017254272
100
AcDbArc
 50
119.0370547306
 51
178.66997077
  0
ARC
  5
2DA
100
AcDbEntity
  8
0
100
AcDbCircle
 62
7
  6
CONTINUOUS
 10
30.7643849641
 20
65.1755409098
 40
14.4571377378
100
AcDbArc
 50
144.399107109
 51
151.2041934764
  0
ARC
  5
2DB
100
AcDbEntity
  8
0
100
AcDbCircle
 62
7
  6
CONTINUOUS
 10
30.7589209179
 20
65.1766288773
 40
14.452061805
100
AcDbArc
 50
141.9293931004
 51
144.3900037368
  0
ARC
  5
2DC
100
AcDbEntity
  8
0
100
AcDbCircle
 62
7
  6
CONTINUOUS
 10
30.7160958368
 20
65.1932665775
 40
14.4061097793
100
AcDbArc
 50
155.6937548199
 51
162.2326560064
  0
ARC
  5
2DD
100
AcDbEntity
  8
0
100
AcDbCircle
 62
7
  6
CONTINUOUS
 10
26.237229787
 20
72.8917516978
 40
14.1771056453
100
AcDbArc
 50
130.4085582918
 51
132.5416829079
  0
ARC
  5
2DE
100
AcDbEntity
  8
0
100
AcDbCircle
 62
7
  6
CONTINUOUS
 10
26.2338841731
 20
72.8932363434
 40
14.1737497971
100
AcDbArc
 50
132.5357762037
 51
133.8720302806
  0
ARC
  5
2DF
100
AcDbEntity
  8
0
100
AcDbCircle
 62
7
  6
CONTINUOUS
 10
21.9340679307
 20
72.1048663226
 40
10.5948815633
100
AcDbArc
 50
152.7659098085
 51
153.0438847077
  0
ARC
  5
2E0
100
AcDbEntity
  8
0
100
AcDbCircle
 62
7
  6
CONTINUOUS
 10
30.6127961295
 20
65.1531481438
 40
9.5023145148
100
AcDbArc
 50
119.0403219661
 51
178.6586519498
  0
ARC
  5
2E1
100
AcDbEntity
  8
0
100
AcDbCircle
 62
7
  6
CONTINUOUS
 10
7.4774766699
 20
65.0233841757
 40
8.6462971062
100
AcDbArc
 50
358.9149043208
 51
359.7432528868
  0
ARC
  5
2E2
100
AcDbEntity
  8
0
100
AcDbCircle
 62
7
  6
CONTINUOUS
 10
7.486643407
 20
65.0237988164
 40
8.6371323312
100
AcDbArc
 50
359.7402298405
 51
0.5775699988
  0
ARC
  5
2E3
100
AcDbEntity
  8
0
100
AcDbCircle
 62
7
  6
CONTINUOUS
 10
7.6206811401
 20
65.0898040339
 40
8.5046570335
100
AcDbArc
 50
355.9005569328
 51
358.4492380259
  0
ARC
  5
2E4
100
AcDbEntity
  8
0
100
AcDbCircle
 62
7
  6
CONTINUOUS
 10
7.9301188638
 20
65.0291304662
 40
8.1936257068
100
AcDbArc
 50
0.5715492543
 51
1.4601996227
  0
ARC
  5
2E5
100
AcDbEntity
  8
0
100
AcDbCircle
 62
7
  6
CONTINUOUS
 10
22.2625288624
 20
77.9089435925
 40
7.9387276354
100
AcDbArc
 50
145.677976889
 51
158.0201090761
  0
ARC
  5
2E6
100
AcDbEntity
  8
0
100
AcDbCircle
 62
7
  6
CONTINUOUS
 10
18.9621493706
 20
80.4442171554
 40
3.7906836961
100
AcDbArc
 50
148.6176982971
 51
149.2010253501
  0
ARC
  5
2E7
100
AcDbEntity
  8
0
100
AcDbCircle
 62
7
  6
CONTINUOUS
 10
12.750370223
 20
71.5348038047
 40
1.7564269515
100
AcDbArc
 50
166.5236941338
 51
167.2721605505
  0
ARC
  5
2E8
100
AcDbEntity
  8
0
100
AcDbCircle
 62
7
  6
CONTINUOUS
 10
12.6992606331
 20
71.5455988409
 40
1.7041950389
100
AcDbArc
 50
167.2475941733
 51
173.7360534332
  0
ARC
  5
2E9
100
AcDbEntity
  8
0
100
AcDbCircle
 62
7
  6
CONTINUOUS
 10
12.6425391706
 20
71.5525489635
 40
1.6470540518
100
AcDbArc
 50
173.7610935519
 51
177.432576884
  0
ARC
  5
2EA
100
AcDbEntity
  8
0
100
AcDbCircle
 62
7
  6
CONTINUOUS
 10
46.9616689237
 20
89.159462985
 40
44.507210008
100
AcDbArc
 50
238.3166374505
 51
268.670984952
  0
ARC
  5
2EB
100
AcDbEntity
  8
0
100
AcDbCircle
 62
7
  6
CONTINUOUS
 10
46.986677543
 20
89.1588839913
 40
44.507210008
100
AcDbArc
 50
238.3633367355
 51
238.4131876007
  0
ARC
  5
2EC
100
AcDbEntity
  8
0
100
AcDbCircle
 62
7
  6
CONTINUOUS
 10
46.7714906979
 20
89.1594322782
 40
39.5028532555
100
AcDbArc
 50
238.3149477664
 51
268.9437882102
  0
ARC
  5
2ED
100
AcDbEntity
  8
0
100
AcDbCircle
 62
7
  6
CONTINUOUS
 10
49.3997809211
 20
64.089217656
 40
38.4652239931
100
AcDbArc
 50
177.2238117933
 51
180.221578701
  0
ARC
  5
2EE
100
AcDbEntity
  8
0
100
AcDbCircle
 62
7
  6
CONTINUOUS
 10
39.3667036452
 20
64.8012084458
 40
25.1480374513
100
AcDbArc
 50
156.2052286388
 51
156.6324077344
  0
ARC
  5
2EF
100
AcDbEntity
  8
0
100
AcDbCircle
 62
7
  6
CONTINUOUS
 10
39.2926004301
 20
64.8341282946
 40
25.0669513692
100
AcDbArc
 50
154.8852971422
 51
156.2057400201
  0
ARC
  5
2F0
100
AcDbEntity
  8
0
100
AcDbCircle
 62
7
  6
CONTINUOUS
 10
67.5643847226
 20
107.2500504907
 40
23.8356239782
100
AcDbArc
 50
267.424975713
 51
270.9962130949
  0
ARC
  5
2F1
100
AcDbEntity
  8
0
100
AcDbCircle
 62
7
  6
CONTINUOUS
 10
39.5134888141
 20
64.8420217406
 40
23.4627524561
100
AcDbArc
 50
167.8476803425
 51
168.1353707961
  0
ARC
  5
2F2
100
AcDbEntity
  8
0
100
AcDbCircle
 62
7
  6
CONTINUOUS
 10
50.8213122251
 20
64.5542238567
 40
19.0095746916
100
AcDbArc
 50
282.9992679554
 51
283.1651567414
  0
ARC
  5
2F3
100
AcDbEntity
  8
0
100
AcDbCircle
 62
7
  6
CONTINUOUS
 10
50.8316944203
 20
64.514336093
 40
18.9683706661
100
AcDbArc
 50
283.1620620257
 51
284.1312133536
  0
ARC
  5
2F4
100
AcDbEntity
  8
0
100
AcDbCircle
 62
7
  6
CONTINUOUS
 10
50.8548644124
 20
64.4089374297
 40
18.8604643465
100
AcDbArc
 50
282.8842430386
 51
282.9992320567
  0
ARC
  5
2F5
100
AcDbEntity
  8
0
100
AcDbCircle
 62
7
  6
CONTINUOUS
 10
50.9746903519
 20
64.1929575237
 40
18.35161358
100
AcDbArc
 50
74.046565703
 51
74.4651005038
  0
ARC
  5
2F6
100
AcDbEntity
  8
0
100
AcDbCircle
 62
7
  6
CONTINUOUS
 10
46.8432516838
 20
75.6812959341
 40
14.4702158986
100
AcDbArc
 50
89.0854953162
 51
89.5120468287
  0
ARC
  5
2F7
100
AcDbEntity
  8
0
100
AcDbCircle
 62
7
  6
CONTINUOUS
 10
46.8564128265
 20
76.511984739
 40
13.6394228461
100
AcDbArc
 50
88.675593499
 51
89.0850807334
  0
ARC
  5
2F8
100
AcDbEntity
  8
0
100
AcDbCircle
 62
7
  6
CONTINUOUS
 10
46.8906650734
 20
76.7686115466
 40
13.382071993
100
AcDbArc
 50
88.6739934237
 51
88.7965193722
  0
ARC
  5
2F9
100
AcDbEntity
  8
0
100
AcDbCircle
 62
7
  6
CONTINUOUS
 10
53.5028276798
 20
73.6265327146
 40
8.5
100
AcDbArc
 50
358.673738632
 51
74.2270958931
  0
ARC
  5
2FA
100
AcDbEntity
  8
0
100
AcDbCircle
 62
7
  6
CONTINUOUS
 10
53.526628217
 20
73.6259816902
 40
8.5
100
AcDbArc
 50
358.673738632
 51
74.2237968455
  0
ARC
  5
2FB
100
AcDbEntity
  8
0
100
AcDbCircle
 62
7
  6
CONTINUOUS
 10
66.1279200623
 20
77.6384124348
 40
4.0
100
AcDbArc
 50
89.2219062262
 51
171.0266558558
  0
ARC
  5
2FC
100
AcDbEntity
  8
0
100
AcDbCircle
 62
7
  6
CONTINUOUS
 10
66.1243708298
 20
77.6384946058
 40
4.0
100
AcDbArc
 50
171.0205911186
 51
178.673738632
  0
ARC
  5
2FD
100
AcDbEntity
  8
0
100
AcDbCircle
 62
7
  6
CONTINUOUS
 10
69.9091852741
 20
80.5323821065
 40
0.3
100
AcDbArc
 50
358.673738632
 51
80.0573406482
  0
ARC
  5
2FE
100
AcDbEntity
  8
0
100
AcDbCircle
 62
7
  6
CONTINUOUS
 10
64.9092026395
 20
80.6481405183
 40
0.3
100
AcDbArc
 50
358.673738632
 51
86.6737387616
  0
ARC
  5
2FF
100
AcDbEntity
  8
0
100
AcDbCircle
 62
7
  6
CONTINUOUS
 10
69.9173320638
 20
80.5321637477
 40
0.2999998948
100
AcDbArc
 50
358.6794182241
 51
81.3321774217
  0
ARC
  5
300
100
AcDbEntity
  8
0
100
AcDbCircle
 62
7
  6
CONTINUOUS
 10
64.9010545843
 20
80.648298787
 40
0.2999998948
100
AcDbArc
 50
358.6795379137
 51
86.673928876
  0
ARC
  5
301
100
AcDbEntity
  8
0
100
AcDbCircle
 62
7
  6
CONTINUOUS
 10
40.9627881418
 20
228.9557152703
 40
191.0
100
AcDbArc
 50
272.2548058267
 51
279.3817805621
  0
ARC
  5
302
100
AcDbEntity
  8
0
100
AcDbCircle
 62
7
  6
CONTINUOUS
 10
40.9723941582
 20
228.9554928741
 40
191.0
100
AcDbArc
 50
279.3789483622
 51
281.8618413801
  0
ARC
  5
303
100
AcDbEntity
  8
0
100
AcDbCircle
 62
7
  6
CONTINUOUS
 10
40.9871818849
 20
228.9551505121
 40
191.0
100
AcDbArc
 50
280.1891013557
 51
281.8353434256
  0
ARC
  5
304
100
AcDbEntity
  8
0
100
AcDbCircle
 62
7
  6
CONTINUOUS
 10
40.9824349385
 20
228.9552604123
 40
191.0
100
AcDbArc
 50
281.8367303699
 51
281.8889313533
  0
ARC
  5
305
100
AcDbEntity
  8
0
100
AcDbCircle
 62
7
  6
CONTINUOUS
 10
40.9914734914
 20
228.9550511536
 40
190.9999999997
100
AcDbArc
 50
277.1862679123
 51
280.1903609047
  0
ARC
  5
306
100
AcDbEntity
  8
0
100
AcDbCircle
 62
7
  6
CONTINUOUS
 10
40.9914734914
 20
228.9550511536
 40
190.9999999997
100
AcDbArc
 50
274.6199252635
 51
275.3263402225
  0
ARC
  5
307
100
AcDbEntity
  8
0
100
AcDbCircle
 62
7
  6
CONTINUOUS
 10
40.9914734914
 20
228.9550511536
 40
190.9999999997
100
AcDbArc
 50
272.2548058603
 51
272.3751728161
  0
ARC
  5
308
100
AcDbEntity
  8
0
100
AcDbCircle
 62
7
  6
CONTINUOUS
 10
42.0251253005
 20
229.0904406675
 40
190.1434339403
100
AcDbArc
 50
279.3529832871
 51
281.8386689394
  0
ARC
  5
309
100
AcDbEntity
  8
0
100
AcDbCircle
 62
7
  6
CONTINUOUS
 10
467.6154685042
 20
52.6109672961
 40
456.698323741
100
AcDbArc
 50
177.487936471
 51
177.6708094326
  0
SPLINE
  5
30A
100
AcDbEntity
  8
0
100
AcDbSpline
 62
7
  6
CONTINUOUS
 70
0
 71
3
 72
11
 73
7
 74
0
 42
0.0000001
 43
0.0000001
 44
0.0000000001
 40
0.0
 40
0.0
 40
0.0
 40
0.0
 40
0.2456839319
 40
0.4919607825
 40
0.7423522903
 40
1.0
 40
1.0
 40
1.0
 40
1.0
 10
46.5796074669
 20
83.8906617309
 30
0.0
 10
46.676837
 20
84.031203758
 30
0.0
 10
46.9018249145
 20
84.2926355607
 30
0.0
 10
47.3068912526
 20
84.6166351909
 30
0.0
 10
47.7642490731
 20
84.8774402627
 30
0.0
 10
48.0927622606
 20
85.0104427076
 30
0.0
 10
48.2623797411
 20
85.0683149245
 30
0.0
  0
SPLINE
  5
30B
100
AcDbEntity
  8
0
100
AcDbSpline
 62
7
  6
CONTINUOUS
 70
0
 71
3
 72
9
 73
5
 74
0
 42
0.0000001
 43
0.0000001
 44
0.0000000001
 40
0.0
 40
0.0
 40
0.0
 40
0.0
 40
0.5057168527
 40
1.0
 40
1.0
 40
1.0
 40
1.0
 10
47.3020525216
 20
44.0569180647
 30
0.0
 10
47.140280399
 20
44.1301385605
 30
0.0
 10
46.8287929229
 20
44.2946283369
 30
0.0
 10
46.544226892
 20
44.5032793273
 30
0.0
 10
46.4136366409
 20
44.6175945972
 30
0.0
  0
SPLINE
  5
30C
100
AcDbEntity
  8
0
100
AcDbSpline
 62
7
  6
CONTINUOUS
 70
0
 71
3
 72
35
 73
31
 74
0
 42
0.0000001
 43
0.0000001
 44
0.0000000001
 40
0.0
 40
0.0
 40
0.0
 40
0.0
 40
0.0000802028
 40
0.0003081918
 40
0.0006863158
 40
0.0012147569
 40
0.0018934446
 40
0.002722239
 40
0.0048294657
 40
0.0075349931
 40
0.0108372973
 40
0.0147348276
 40
0.019226021
 40
0.0299796248
 40
0.0430679975
 40
0.0584574701
 40
0.0761143603
 40
0.0960013266
 40
0.1180663203
 40
0.1422535912
 40
0.1685073872
 40
0.2269656007
 40
0.2928650217
 40
0.3655822585
 40
0.4444083046
 40
0.5285928896
 40
0.6173064569
 40
0.709697688
 40
0.8049073745
 40
1.0
 40
1.0
 40
1.0
 40
1.0
 10
64.1216406997
 20
46.5304782872
 30
0.0
 10
64.1217475262
 20
46.5304751238
 30
0.0
 10
64.1217560253
 20
46.5310946874
 30
0.0
 10
64.1219432426
 20
46.5317987881
 30
0.0
 10
64.12203532
 20
46.5334198095
 30
0.0
 10
64.1222032076
 20
46.5354762907
 30
0.0
 10
64.1223593805
 20
46.5382039561
 30
0.0
 10
64.1226189741
 20
46.543004562
 30
0.0
 10
64.12295939
 20
46.550520522
 30
0.0
 10
64.1233970961
 20
46.5613226741
 30
0.0
 10
64.1238830568
 20
46.5745139689
 30
0.0
 10
64.124418762
 20
46.5900831797
 30
0.0
 10
64.1252482356
 20
46.6155777183
 30
0.0
 10
64.1263926686
 20
46.6533153478
 30
0.0
 10
64.1278851271
 20
46.705571484
 30
0.0
 10
64.1295619452
 20
46.7670249001
 30
0.0
 10
64.1314189192
 20
46.8375361343
 30
0.0
 10
64.1334510142
 20
46.9169411976
 30
0.0
 10
64.1356532387
 20
47.0050467205
 30
0.0
 10
64.1380199812
 20
47.1016348105
 30
0.0
 10
64.1415142352
 20
47.2467051641
 30
0.0
 10
64.1462367567
 20
47.4473450595
 30
0.0
 10
64.1522752625
 20
47.7098853835
 30
0.0
 10
64.1588106765
 20
47.9995623381
 30
0.0
 10
64.1657807477
 20
48.3136013387
 30
0.0
 10
64.1731169587
 20
48.6489531626
 30
0.0
 10
64.1807490791
 20
49.002378947
 30
0.0
 10
64.1886037081
 20
49.3704947058
 30
0.0
 10
64.1993604819
 20
49.880334925
 30
0.0
 10
64.2073885086
 20
50.2670904851
 30
0.0
 10
64.2127272819
 20
50.527003992
 30
0.0
  0
SPLINE
  5
30D
100
AcDbEntity
  8
0
100
AcDbSpline
 62
7
  6
CONTINUOUS
 70
0
 71
3
 72
35
 73
31
 74
0
 42
0.0000001
 43
0.0000001
 44
0.0000000001
 40
0.0
 40
0.0
 40
0.0
 40
0.0
 40
0.1950926264
 40
0.2903023135
 40
0.3826935448
 40
0.4714071122
 40
0.5555916972
 40
0.6344177434
 40
0.70713498
 40
0.7730344007
 40
0.831492614
 40
0.85774641
 40
0.8819336807
 40
0.9039986742
 40
0.9238856404
 40
0.9415425303
 40
0.9569320024
 40
0.9700203751
 40
0.9807739791
 40
0.9852651728
 40
0.9891627035
 40
0.992465008
 40
0.9951705356
 40
0.9972777624
 40
0.9981065568
 40
0.9987852443
 40
0.9993136852
 40
0.9996918089
 40
0.9999197976
 40
1.0
 40
1.0
 40
1.0
 40
1.0
 10
64.8244978109
 20
76.9513646158
 30
0.0
 10
64.8311931981
 20
77.2112467159
 30
0.0
 10
64.8410723506
 20
77.5979594212
 30
0.0
 10
64.8539218566
 20
78.1077511924
 30
0.0
 10
64.8631115646
 20
78.475836043
 30
0.0
 10
64.871843714
 20
78.8292363604
 30
0.0
 10
64.8800350177
 20
79.1645683875
 30
0.0
 10
64.8876057377
 20
79.4785934819
 30
0.0
 10
64.8944832044
 20
79.7682625168
 30
0.0
 10
64.9006011987
 20
80.0308009997
 30
0.0
 10
64.9051690947
 20
80.2314444743
 30
0.0
 10
64.908392255
 20
80.3765211036
 30
0.0
 10
64.9104980216
 20
80.4731152351
 30
0.0
 10
64.9123755674
 20
80.5612282742
 30
0.0
 10
64.9140204142
 20
80.6406423021
 30
0.0
 10
64.9154285992
 20
80.7111639254
 30
0.0
 10
64.9165975628
 20
80.7726290982
 30
0.0
 10
64.9175250504
 20
80.8248983141
 30
0.0
 10
64.9181282929
 20
80.8626484737
 30
0.0
 10
64.9184795632
 20
80.8881540849
 30
0.0
 10
64.9186649555
 20
80.9037314073
 30
0.0
 10
64.9187899922
 20
80.9169310593
 30
0.0
 10
64.918852665
 20
80.9277418949
 30
0.0
 10
64.918860443
 20
80.9352655566
 30
0.0
 10
64.9188232933
 20
80.9400730323
 30
0.0
 10
64.9187935202
 20
80.9428050025
 30
0.0
 10
64.9187209841
 20
80.9448670482
 30
0.0
 10
64.9187040227
 20
80.9464905951
 30
0.0
 10
64.9185495925
 20
80.9472026006
 30
0.0
 10
64.9185697724
 20
80.947821896
 30
0.0
 10
64.9184629145
 20
80.9478236777
 30
0.0
  0
SPLINE
  5
30E
100
AcDbEntity
  8
0
100
AcDbSpline
 62
7
  6
CONTINUOUS
 70
0
 71
3
 72
9
 73
5
 74
0
 42
0.0000001
 43
0.0000001
 44
0.0000000001
 40
0.0
 40
0.0
 40
0.0
 40
0.0
 40
0.250525501
 40
1.0
 40
1.0
 40
1.0
 40
1.0
 10
66.23163939
 20
83.9571631175
 30
0.0
 10
66.3800978889
 20
83.9211921748
 30
0.0
 10
66.9709932288
 20
83.7712835822
 30
0.0
 10
67.5544668322
 20
83.5876590224
 30
0.0
 10
67.978797236
 20
83.4180265246
 30
0.0
  0
SPLINE
  5
30F
100
AcDbEntity
  8
0
100
AcDbSpline
 62
7
  6
CONTINUOUS
 70
0
 71
3
 72
11
 73
7
 74
0
 42
0.0000001
 43
0.0000001
 44
0.0000000001
 40
0.0
 40
0.0
 40
0.0
 40
0.0
 40
0.2194239447
 40
0.4709101881
 40
0.7385659233
 40
1.0
 40
1.0
 40
1.0
 40
1.0
 10
70.6308756669
 20
45.0354372164
 30
0.0
 10
70.5351816052
 20
44.9049610993
 30
0.0
 10
70.2989236391
 20
44.6470569923
 30
0.0
 10
69.8615968287
 20
44.3173725156
 30
0.0
 10
69.3430940423
 20
44.060675834
 30
0.0
 10
68.9574919109
 20
43.9673554915
 30
0.0
 10
68.7650002924
 20
43.9567147344
 30
0.0
  0
SPLINE
  5
310
100
AcDbEntity
  8
0
100
AcDbSpline
 62
7
  6
CONTINUOUS
 70
0
 71
3
 72
9
 73
5
 74
0
 42
0.0000001
 43
0.0000001
 44
0.0000000001
 40
0.0
 40
0.0
 40
0.0
 40
0.0
 40
0.5084362065
 40
1.0
 40
1.0
 40
1.0
 40
1.0
 10
67.978797236
 20
83.4180265246
 30
0.0
 10
68.283550121
 20
83.3991053188
 30
0.0
 10
68.8826959747
 20
83.3578117888
 30
0.0
 10
69.4808713697
 20
83.3032650018
 30
0.0
 10
69.7742872109
 20
83.2707944938
 30
0.0
  0
SPLINE
  5
311
100
AcDbEntity
  8
0
100
AcDbSpline
 62
7
  6
CONTINUOUS
 70
0
 71
3
 72
14
 73
10
 74
0
 42
0.0000001
 43
0.0000001
 44
0.0000000001
 40
0.0
 40
0.0
 40
0.0
 40
0.0
 40
0.1671312364
 40
0.3180103621
 40
0.4555836936
 40
0.5823468372
 40
0.6996646373
 40
0.8081539274
 40
1.0
 40
1.0
 40
1.0
 40
1.0
 10
69.7742872109
 20
83.2707944938
 30
0.0
 10
69.8028476301
 20
83.4113772217
 30
0.0
 10
69.8655818635
 20
83.6772964295
 30
0.0
 10
69.9853497242
 20
84.0501064316
 30
0.0
 10
70.1275835442
 20
84.3775117087
 30
0.0
 10
70.2836329825
 20
84.6658359054
 30
0.0
 10
70.4408123079
 20
84.9244732512
 30
0.0
 10
70.6296787985
 20
85.2291610549
 30
0.0
 10
70.7665706685
 20
85.4476291124
 30
0.0
 10
70.8512454491
 20
85.588858617
 30
0.0
  0
SPLINE
  5
312
100
AcDbEntity
  8
0
100
AcDbSpline
 62
7
  6
CONTINUOUS
 70
0
 71
3
 72
9
 73
5
 74
0
 42
0.0000001
 43
0.0000001
 44
0.0000000001
 40
0.0
 40
0.0
 40
0.0
 40
0.0
 40
0.4917026105
 40
1.0
 40
1.0
 40
1.0
 40
1.0
 10
70.8512151508
 20
85.5888702122
 30
0.0
 10
70.0634719662
 20
85.4245249232
 30
0.0
 10
68.4829299879
 20
84.9787580733
 30
0.0
 10
66.9750868759
 20
84.3303225409
 30
0.0
 10
66.231610498
 20
83.9571761777
 30
0.0
  0
SPLINE
  5
313
100
AcDbEntity
  8
0
100
AcDbSpline
 62
7
  6
CONTINUOUS
 70
0
 71
3
 72
14
 73
10
 74
0
 42
0.0000001
 43
0.0000001
 44
0.0000000001
 40
0.0
 40
0.0
 40
0.0
 40
0.0
 40
0.3072731141
 40
0.4464987677
 40
0.5735450686
 40
0.6898433932
 40
0.7978296292
 40
0.9002429034
 40
1.0
 40
1.0
 40
1.0
 40
1.0
 10
74.9135624308
 20
77.2618022031
 30
0.0
 10
74.9315076014
 20
77.8758656256
 30
0.0
 10
74.8007066735
 20
78.7858758392
 30
0.0
 10
74.3249381947
 20
79.8346361783
 30
0.0
 10
73.8811680757
 20
80.463730927
 30
0.0
 10
73.3684933354
 20
80.9506697508
 30
0.0
 10
72.8090160575
 20
81.2969736533
 30
0.0
 10
72.2204935709
 20
81.5063941429
 30
0.0
 10
71.8156172616
 20
81.5566116558
 30
0.0
 10
71.6161954525
 20
81.5594884978
 30
0.0
  0
SPLINE
  5
314
100
AcDbEntity
  8
0
100
AcDbSpline
 62
7
  6
CONTINUOUS
 70
0
 71
3
 72
9
 73
5
 74
0
 42
0.0000001
 43
0.0000001
 44
0.0000000001
 40
0.0
 40
0.0
 40
0.0
 40
0.0
 40
0.5084983048
 40
1.0
 40
1.0
 40
1.0
 40
1.0
 10
71.470649504
 20
43.521431951
 30
0.0
 10
71.7048181212
 20
43.165851805
 30
0.0
 10
72.1837391407
 20
42.4786861135
 30
0.0
 10
72.682082636
 20
41.8058587187
 30
0.0
 10
72.9265383886
 20
41.4748028217
 30
0.0
  0
SPLINE
  5
315
100
AcDbEntity
  8
0
100
AcDbSpline
 62
7
  6
CONTINUOUS
 70
0
 71
3
 72
10
 73
6
 74
0
 42
0.0000001
 43
0.0000001
 44
0.0000000001
 40
0.0
 40
0.0
 40
0.0
 40
0.0
 40
0.5689165443
 40
0.8015324077
 40
1.0
 40
1.0
 40
1.0
 40
1.0
 10
71.0264485167
 20
44.6097473546
 30
0.0
 10
71.0873619182
 20
44.3946066833
 30
0.0
 10
71.1842771873
 20
44.0938508861
 30
0.0
 10
71.3445162409
 20
43.7346444545
 30
0.0
 10
71.4277478393
 20
43.5865722659
 30
0.0
 10
71.4706492492
 20
43.5214273725
 30
0.0
  0
SPLINE
  5
316
100
AcDbEntity
  8
0
100
AcDbSpline
 62
7
  6
CONTINUOUS
 70
0
 71
3
 72
10
 73
6
 74
0
 42
0.0000001
 43
0.0000001
 44
0.0000000001
 40
0.0
 40
0.0
 40
0.0
 40
0.0
 40
0.1983209318
 40
0.4308884573
 40
1.0
 40
1.0
 40
1.0
 40
1.0
 10
72.3967612524
 20
83.6042816074
 30
0.0
 10
72.3513938466
 20
83.5417724583
 30
0.0
 10
72.2623697042
 20
83.3990129059
 30
0.0
 10
72.087555203
 20
83.0506597435
 30
0.0
 10
71.9781022542
 20
82.7572280226
 30
0.0
 10
71.9081822308
 20
82.546901617
 30
0.0
  0
SPLINE
  5
317
100
AcDbEntity
  8
0
100
AcDbSpline
 62
7
  6
CONTINUOUS
 70
0
 71
3
 72
9
 73
5
 74
0
 42
0.0000001
 43
0.0000001
 44
0.0000000001
 40
0.0
 40
0.0
 40
0.0
 40
0.0
 40
0.4917804081
 40
1.0
 40
1.0
 40
1.0
 40
1.0
 10
73.9478681737
 20
85.5906089331
 30
0.0
 10
73.6882079218
 20
85.2692326056
 30
0.0
 10
73.1587968649
 20
84.6168941485
 30
0.0
 10
72.6475580344
 20
83.949834524
 30
0.0
 10
72.3967613042
 20
83.6042760791
 30
0.0
  0
SPLINE
  5
318
100
AcDbEntity
  8
0
100
AcDbSpline
 62
7
  6
CONTINUOUS
 70
0
 71
3
 72
17
 73
13
 74
0
 42
0.0000001
 43
0.0000001
 44
0.0000000001
 40
0.0
 40
0.0
 40
0.0
 40
0.0
 40
0.1158419587
 40
0.2547362461
 40
0.4021853293
 40
0.5403479535
 40
0.6717414371
 40
0.7983713187
 40
0.8558124539
 40
0.9081995171
 40
0.9558006561
 40
1.0
 40
1.0
 40
1.0
 40
1.0
 10
66.4934778523
 20
83.4384027792
 30
0.0
 10
66.5530994563
 20
83.3813144873
 30
0.0
 10
66.6581624645
 20
83.2285531351
 30
0.0
 10
66.7515257138
 20
82.9550811576
 30
0.0
 10
66.786635139
 20
82.652523806
 30
0.0
 10
66.7651085829
 20
82.3544610794
 30
0.0
 10
66.692311343
 20
82.0801080122
 30
0.0
 10
66.58618833
 20
81.8780700436
 30
0.0
 10
66.4721944289
 20
81.7528054659
 30
0.0
 10
66.3811911951
 20
81.685645801
 30
0.0
 10
66.2852935356
 20
81.6458129457
 30
0.0
 10
66.219455075
 20
81.6375485146
 30
0.0
 10
66.1879625702
 20
81.6379634595
 30
0.0
  0
SPLINE
  5
319
100
AcDbEntity
  8
0
100
AcDbSpline
 62
7
  6
CONTINUOUS
 70
0
 71
3
 72
9
 73
5
 74
0
 42
0.0000001
 43
0.0000001
 44
0.0000000001
 40
0.0
 40
0.0
 40
0.0
 40
0.0
 40
0.5107314303
 40
1.0
 40
1.0
 40
1.0
 40
1.0
 10
62.0754299081
 20
78.5701070157
 30
0.0
 10
62.1131911057
 20
78.5284649151
 30
0.0
 10
62.1694301907
 20
78.4298402794
 30
0.0
 10
62.1819755185
 20
78.3160444989
 30
0.0
 10
62.1735870516
 20
78.2628505257
 30
0.0
  0
SPLINE
  5
31A
100
AcDbEntity
  8
0
100
AcDbSpline
 62
7
  6
CONTINUOUS
 70
0
 71
3
 72
11
 73
7
 74
0
 42
0.0000001
 43
0.0000001
 44
0.0000000001
 40
0.0
 40
0.0
 40
0.0
 40
0.0
 40
0.2706897764
 40
0.524598362
 40
0.7659692625
 40
1.0
 40
1.0
 40
1.0
 40
1.0
 10
66.2318552137
 20
83.9571143669
 30
0.0
 10
65.4004640601
 20
83.5398827629
 30
0.0
 10
63.7462156613
 20
82.8121514774
 30
0.0
 10
61.2177141719
 20
82.0538977925
 30
0.0
 10
58.7310283545
 20
81.6770778675
 30
0.0
 10
57.0889929916
 20
81.6871580756
 30
0.0
 10
56.2879396556
 20
81.7586203806
 30
0.0
  0
SPLINE
  5
31B
100
AcDbEntity
  8
0
100
AcDbSpline
 62
7
  6
CONTINUOUS
 70
0
 71
3
 72
12
 73
8
 74
0
 42
0.0000001
 43
0.0000001
 44
0.0000000001
 40
0.0
 40
0.0
 40
0.0
 40
0.0
 40
0.1208272652
 40
0.2423472834
 40
0.4868413706
 40
0.7390076398
 40
1.0
 40
1.0
 40
1.0
 40
1.0
 10
56.2879396556
 20
81.7586203806
 30
0.0
 10
56.5517442599
 20
81.6979480789
 30
0.0
 10
57.0773891485
 20
81.5606410942
 30
0.0
 10
58.1177825372
 20
81.2326122229
 30
0.0
 10
59.4040998067
 20
80.7080328518
 30
0.0
 10
60.8640209114
 20
79.8259761346
 30
0.0
 10
61.709726397
 20
79.0264088936
 30
0.0
 10
62.0756534882
 20
78.5703619115
 30
0.0
  0
SPLINE
  5
31C
100
AcDbEntity
  8
0
100
AcDbSpline
 62
7
  6
CONTINUOUS
 70
0
 71
3
 72
21
 73
17
 74
0
 42
0.0000001
 43
0.0000001
 44
0.0000000001
 40
0.0
 40
0.0
 40
0.0
 40
0.0
 40
0.0705066713
 40
0.1352162007
 40
0.1945744693
 40
0.2502871225
 40
0.3555115099
 40
0.4057779546
 40
0.454971012
 40
0.5529241243
 40
0.6042794501
 40
0.6599000638
 40
0.7966715847
 40
0.8874429362
 40
0.940726644
 40
1.0
 40
1.0
 40
1.0
 40
1.0
 10
62.0756534882
 20
78.5703619115
 30
0.0
 10
62.1038021242
 20
78.738896138
 30
0.0
 10
62.1603177378
 20
79.0616927713
 30
0.0
 10
62.262765767
 20
79.5223823608
 30
0.0
 10
62.3936164403
 20
79.9384748053
 30
0.0
 10
62.5857537175
 20
80.4366870883
 30
0.0
 10
62.789854737
 20
80.9064830881
 30
0.0
 10
63.0123035467
 20
81.3500271854
 30
0.0
 10
63.2432136212
 20
81.7689529966
 30
0.0
 10
63.5100854899
 20
82.1719902882
 30
0.0
 10
63.8450240936
 20
82.5402247607
 30
0.0
 10
64.2957341045
 20
82.924405542
 30
0.0
 10
64.9202313179
 20
83.2399059205
 30
0.0
 10
65.5859284914
 20
83.3941155116
 30
0.0
 10
66.0766177959
 20
83.4448607341
 30
0.0
 10
66.3500838766
 20
83.4464452843
 30
0.0
 10
66.4935091508
 20
83.438494558
 30
0.0
  0
SPLINE
  5
31D
100
AcDbEntity
  8
0
100
AcDbSpline
 62
7
  6
CONTINUOUS
 70
0
 71
3
 72
10
 73
6
 74
0
 42
0.0000001
 43
0.0000001
 44
0.0000000001
 40
0.0
 40
0.0
 40
0.0
 40
0.0
 40
0.2442103789
 40
0.4942761237
 40
1.0
 40
1.0
 40
1.0
 40
1.0
 10
49.5166286467
 20
83.5917082593
 30
0.0
 10
50.0293389282
 20
83.4468831325
 30
0.0
 10
51.070974593
 20
83.1677533979
 30
0.0
 10
53.1826402502
 20
82.6198380008
 30
0.0
 10
54.7733699586
 20
82.1856143094
 30
0.0
 10
55.8360754054
 20
81.8891139286
 30
0.0
  0
SPLINE
  5
31E
100
AcDbEntity
  8
0
100
AcDbSpline
 62
7
  6
CONTINUOUS
 70
0
 71
3
 72
14
 73
10
 74
0
 42
0.0000001
 43
0.0000001
 44
0.0000000001
 40
0.0
 40
0.0
 40
0.0
 40
0.0
 40
0.1229740565
 40
0.2397069999
 40
0.3544335266
 40
0.4711623906
 40
0.5920645297
 40
0.7187578896
 40
1.0
 40
1.0
 40
1.0
 40
1.0
 10
70.8505231777
 20
85.5868605091
 30
0.0
 10
70.9128980649
 20
85.6760836949
 30
0.0
 10
71.0412046479
 20
85.8455613176
 30
0.0
 10
71.2595619853
 20
86.0723139739
 30
0.0
 10
71.5073898454
 20
86.2581019643
 30
0.0
 10
71.7859707163
 20
86.4013213637
 30
0.0
 10
72.0921831201
 20
86.5057328687
 30
0.0
 10
72.5519419906
 20
86.5992867816
 30
0.0
 10
72.9164206147
 20
86.6065796496
 30
0.0
 10
73.1649769846
 20
86.5921873059
 30
0.0
  0
SPLINE
  5
31F
100
AcDbEntity
  8
0
100
AcDbSpline
 62
7
  6
CONTINUOUS
 70
0
 71
3
 72
11
 73
7
 74
0
 42
0.0000001
 43
0.0000001
 44
0.0000000001
 40
0.0
 40
0.0
 40
0.0
 40
0.0
 40
0.2587993807
 40
0.5242342696
 40
0.7776833932
 40
1.0
 40
1.0
 40
1.0
 40
1.0
 10
49.5986797086
 20
86.8407934076
 30
0.0
 10
51.0458557978
 20
86.6707060117
 30
0.0
 10
53.975307855
 20
86.3071651567
 30
0.0
 10
58.302477866
 20
85.6317816991
 30
0.0
 10
62.4013218389
 20
84.8427676213
 30
0.0
 10
65.0141261211
 20
84.2501894784
 30
0.0
 10
66.2311231287
 20
83.9573844215
 30
0.0
  0
SPLINE
  5
320
100
AcDbEntity
  8
0
100
AcDbSpline
 62
7
  6
CONTINUOUS
 70
0
 71
3
 72
11
 73
7
 74
0
 42
0.0000001
 43
0.0000001
 44
0.0000000001
 40
0.0
 40
0.0
 40
0.0
 40
0.0
 40
0.2417927749
 40
0.4984397386
 40
0.7560205816
 40
1.0
 40
1.0
 40
1.0
 40
1.0
 10
80.2514755409
 20
42.0357544594
 30
0.0
 10
80.3561909076
 20
42.0577552427
 30
0.0
 10
80.5660870228
 20
42.1395610724
 30
0.0
 10
80.8243665184
 20
42.3625629375
 30
0.0
 10
80.992243777
 20
42.6606407278
 30
0.0
 10
81.0323789648
 20
42.8835331356
 30
0.0
 10
81.0343132488
 20
42.991485073
 30
0.0
  0
SPLINE
  5
321
100
AcDbEntity
  8
0
100
AcDbSpline
 62
7
  6
CONTINUOUS
 70
0
 71
3
 72
11
 73
7
 74
0
 42
0.0000001
 43
0.0000001
 44
0.0000000001
 40
0.0
 40
0.0
 40
0.0
 40
0.0
 40
0.2486185105
 40
0.4981234479
 40
0.7488792589
 40
1.0
 40
1.0
 40
1.0
 40
1.0
 10
72.098130048
 20
40.5105758254
 30
0.0
 10
72.2101250768
 20
40.5295029836
 30
0.0
 10
72.4297477496
 20
40.6074853499
 30
0.0
 10
72.698534746
 20
40.829720492
 30
0.0
 10
72.878009375
 20
41.129971225
 30
0.0
 10
72.9235962191
 20
41.3600708562
 30
0.0
 10
72.9265687637
 20
41.4747586162
 30
0.0
  0
SPLINE
  5
322
100
AcDbEntity
  8
0
100
AcDbSpline
 62
7
  6
CONTINUOUS
 70
0
 71
3
 72
9
 73
5
 74
0
 42
0.0000001
 43
0.0000001
 44
0.0000000001
 40
0.0
 40
0.0
 40
0.0
 40
0.0
 40
0.24183737
 40
1.0
 40
1.0
 40
1.0
 40
1.0
 10
61.4802889141
 20
49.8730404151
 30
0.0
 10
61.4798849592
 20
49.8557669467
 30
0.0
 10
61.4711219576
 20
49.7845979022
 30
0.0
 10
61.4358360605
 20
49.7174114602
 30
0.0
 10
61.3995810059
 20
49.6771663602
 30
0.0
  0
SPLINE
  5
323
100
AcDbEntity
  8
0
100
AcDbSpline
 62
7
  6
CONTINUOUS
 70
0
 71
3
 72
9
 73
5
 74
0
 42
0.0000001
 43
0.0000001
 44
0.0000000001
 40
0.0
 40
0.0
 40
0.0
 40
0.0
 40
0.3252131775
 40
1.0
 40
1.0
 40
1.0
 40
1.0
 10
55.8376273755
 20
81.8057926852
 30
0.0
 10
55.8420588028
 20
81.8045649745
 30
0.0
 10
55.8556520053
 20
81.815179004
 30
0.0
 10
55.8624446658
 20
81.8262041147
 30
0.0
 10
55.867541038
 20
81.8342701192
 30
0.0
  0
SPLINE
  5
324
100
AcDbEntity
  8
0
100
AcDbSpline
 62
7
  6
CONTINUOUS
 70
0
 71
3
 72
9
 73
5
 74
0
 42
0.0000001
 43
0.0000001
 44
0.0000000001
 40
0.0
 40
0.0
 40
0.0
 40
0.0
 40
0.2147455712
 40
1.0
 40
1.0
 40
1.0
 40
1.0
 10
55.867541038
 20
81.8342701192
 30
0.0
 10
55.869282206
 20
81.8370258575
 30
0.0
 10
55.877158376
 20
81.8500049652
 30
0.0
 10
55.8842900123
 20
81.8634216819
 30
0.0
 10
55.8896904025
 20
81.8740478562
 30
0.0
  0
SPLINE
  5
325
100
AcDbEntity
  8
0
100
AcDbSpline
 62
7
  6
CONTINUOUS
 70
0
 71
3
 72
9
 73
5
 74
0
 42
0.0000001
 43
0.0000001
 44
0.0000000001
 40
0.0
 40
0.0
 40
0.0
 40
0.0
 40
0.2460269253
 40
1.0
 40
1.0
 40
1.0
 40
1.0
 10
55.9580572001
 20
81.7708029326
 30
0.0
 10
55.9750747037
 20
81.7657326202
 30
0.0
 10
56.0451139259
 20
81.7480886064
 30
0.0
 10
56.1181050627
 20
81.742836362
 30
0.0
 10
56.1724747892
 20
81.7451131073
 30
0.0
  0
SPLINE
  5
326
100
AcDbEntity
  8
0
100
AcDbSpline
 62
7
  6
CONTINUOUS
 70
0
 71
3
 72
9
 73
5
 74
0
 42
0.0000001
 43
0.0000001
 44
0.0000000001
 40
0.0
 40
0.0
 40
0.0
 40
0.0
 40
0.2445907863
 40
1.0
 40
1.0
 40
1.0
 40
1.0
 10
56.1724747892
 20
81.7451131073
 30
0.0
 10
56.1819298696
 20
81.745509041
 30
0.0
 10
56.2205532332
 20
81.7478794387
 30
0.0
 10
56.2589805633
 20
81.7532079756
 30
0.0
 10
56.2876923866
 20
81.7586726751
 30
0.0
  0
SPLINE
  5
327
100
AcDbEntity
  8
0
100
AcDbSpline
 62
7
  6
CONTINUOUS
 70
0
 71
3
 72
11
 73
7
 74
0
 42
0.0000001
 43
0.0000001
 44
0.0000000001
 40
0.0
 40
0.0
 40
0.0
 40
0.0
 40
0.2226203612
 40
0.4760539836
 40
0.7413236634
 40
1.0
 40
1.0
 40
1.0
 40
1.0
 10
65.2936173105
 20
43.4633579007
 30
0.0
 10
64.062623345
 20
43.2272659858
 30
0.0
 10
61.4234827409
 20
42.7566900016
 30
0.0
 10
57.291812148
 20
42.1584573567
 30
0.0
 10
52.9398148495
 20
41.6836807977
 30
0.0
 10
49.9983506056
 20
41.4556526686
 30
0.0
 10
48.5455518049
 20
41.3527708058
 30
0.0
  0
SPLINE
  5
328
100
AcDbEntity
  8
0
100
AcDbSpline
 62
7
  6
CONTINUOUS
 70
0
 71
3
 72
9
 73
5
 74
0
 42
0.0000001
 43
0.0000001
 44
0.0000000001
 40
0.0
 40
0.0
 40
0.0
 40
0.0
 40
0.249588676
 40
1.0
 40
1.0
 40
1.0
 40
1.0
 10
67.0285873751
 20
43.903006444
 30
0.0
 10
66.8873361877
 20
43.8558130466
 30
0.0
 10
66.3170477056
 20
43.6796508079
 30
0.0
 10
65.7337568746
 20
43.5486136385
 30
0.0
 10
65.294141833
 20
43.463591032
 30
0.0
  0
SPLINE
  5
329
100
AcDbEntity
  8
0
100
AcDbSpline
 62
7
  6
CONTINUOUS
 70
0
 71
3
 72
9
 73
5
 74
0
 42
0.0000001
 43
0.0000001
 44
0.0000000001
 40
0.0
 40
0.0
 40
0.0
 40
0.0
 40
0.2517173442
 40
1.0
 40
1.0
 40
1.0
 40
1.0
 10
62.0547770319
 20
77.9279259367
 30
0.0
 10
62.0546159049
 20
77.9467085717
 30
0.0
 10
62.0540247509
 20
78.0213265729
 30
0.0
 10
62.0538213154
 20
78.0959505792
 30
0.0
 10
62.0542446156
 20
78.1517863553
 30
0.0
  0
SPLINE
  5
32A
100
AcDbEntity
  8
0
100
AcDbSpline
 62
7
  6
CONTINUOUS
 70
0
 71
3
 72
9
 73
5
 74
0
 42
0.0000001
 43
0.0000001
 44
0.0000000001
 40
0.0
 40
0.0
 40
0.0
 40
0.0
 40
0.2533752556
 40
1.0
 40
1.0
 40
1.0
 40
1.0
 10
62.0542446156
 20
78.1517863553
 30
0.0
 10
62.0543842303
 20
78.170202352
 30
0.0
 10
62.0551854139
 20
78.2428818466
 30
0.0
 10
62.0571839024
 20
78.3155567204
 30
0.0
 10
62.0597680021
 20
78.3697634207
 30
0.0
  0
SPLINE
  5
32B
100
AcDbEntity
  8
0
100
AcDbSpline
 62
7
  6
CONTINUOUS
 70
0
 71
3
 72
9
 73
5
 74
0
 42
0.0000001
 43
0.0000001
 44
0.0000000001
 40
0.0
 40
0.0
 40
0.0
 40
0.0
 40
0.2547438911
 40
1.0
 40
1.0
 40
1.0
 40
1.0
 10
62.0597680021
 20
78.3697634207
 30
0.0
 10
62.0605807693
 20
78.3868128493
 30
0.0
 10
62.0642002852
 20
78.4537174473
 30
0.0
 10
62.0697299101
 20
78.5205342665
 30
0.0
 10
62.0753802118
 20
78.5701484991
 30
0.0
  0
SPLINE
  5
32C
100
AcDbEntity
  8
0
100
AcDbSpline
 62
7
  6
CONTINUOUS
 70
0
 71
3
 72
9
 73
5
 74
0
 42
0.0000001
 43
0.0000001
 44
0.0000000001
 40
0.0
 40
0.0
 40
0.0
 40
0.0
 40
0.5035387612
 40
1.0
 40
1.0
 40
1.0
 40
1.0
 10
62.0233204343
 20
73.4292721113
 30
0.0
 10
62.0403950292
 20
74.1511892873
 30
0.0
 10
62.070147673
 20
75.5850844109
 30
0.0
 10
62.0622941558
 20
77.019262899
 30
0.0
 10
62.0564253519
 20
77.7312079874
 30
0.0
  0
SPLINE
  5
32D
100
AcDbEntity
  8
0
100
AcDbSpline
 62
7
  6
CONTINUOUS
 70
0
 71
3
 72
9
 73
5
 74
0
 42
0.0000001
 43
0.0000001
 44
0.0000000001
 40
0.0
 40
0.0
 40
0.0
 40
0.0
 40
0.2446845199
 40
1.0
 40
1.0
 40
1.0
 40
1.0
 10
62.1252617213
 20
77.7310810311
 30
0.0
 10
62.1256570554
 20
77.7483319537
 30
0.0
 10
62.1202106206
 20
77.818910733
 30
0.0
 10
62.088492816
 20
77.8867090047
 30
0.0
 10
62.0547672136
 20
77.9279379539
 30
0.0
  0
SPLINE
  5
32E
100
AcDbEntity
  8
0
100
AcDbSpline
 62
7
  6
CONTINUOUS
 70
0
 71
3
 72
9
 73
5
 74
0
 42
0.0000001
 43
0.0000001
 44
0.0000000001
 40
0.0
 40
0.0
 40
0.0
 40
0.0
 40
0.4917040201
 40
1.0
 40
1.0
 40
1.0
 40
1.0
 10
69.8402844195
 20
41.6199218387
 30
0.0
 10
69.0597654949
 20
41.8203805324
 30
0.0
 10
67.4988726018
 20
42.338091585
 30
0.0
 10
66.0200758706
 20
43.0558004856
 30
0.0
 10
65.2936151232
 20
43.4634936195
 30
0.0
  0
SPLINE
  5
32F
100
AcDbEntity
  8
0
100
AcDbSpline
 62
7
  6
CONTINUOUS
 70
0
 71
3
 72
14
 73
10
 74
0
 42
0.0000001
 43
0.0000001
 44
0.0000000001
 40
0.0
 40
0.0
 40
0.0
 40
0.0
 40
0.2808885356
 40
0.4075172358
 40
0.5284046984
 40
0.6451949382
 40
0.7600635387
 40
0.8769454482
 40
1.0
 40
1.0
 40
1.0
 40
1.0
 10
72.0981379212
 20
40.5105293059
 30
0.0
 10
71.8503069159
 20
40.5078709702
 30
0.0
 10
71.488139582
 20
40.5322892019
 30
0.0
 10
71.0351818025
 20
40.6470150211
 30
0.0
 10
70.7352526857
 20
40.7654005297
 30
0.0
 10
70.4644577713
 20
40.9211030392
 30
0.0
 10
70.2259493804
 20
41.1175777527
 30
0.0
 10
70.0184654313
 20
41.3533829752
 30
0.0
 10
69.8982923006
 20
41.5281373033
 30
0.0
 10
69.8402844195
 20
41.6199218387
 30
0.0
  0
SPLINE
  5
330
100
AcDbEntity
  8
0
100
AcDbSpline
 62
7
  6
CONTINUOUS
 70
0
 71
3
 72
15
 73
11
 74
0
 42
0.0000001
 43
0.0000001
 44
0.0000000001
 40
0.0
 40
0.0
 40
0.0
 40
0.0
 40
0.1045805197
 40
0.2118069903
 40
0.3240316237
 40
0.4433103982
 40
0.5712516914
 40
0.7077156075
 40
0.8517677424
 40
1.0
 40
1.0
 40
1.0
 40
1.0
 10
70.7839066755
 20
45.6095058052
 30
0.0
 10
70.9931469379
 20
45.6028341603
 30
0.0
 10
71.4200197554
 20
45.6383993387
 30
0.0
 10
72.0425181342
 20
45.8384220108
 30
0.0
 10
72.6316306719
 20
46.1847434865
 30
0.0
 10
73.166249068
 20
46.6736591375
 30
0.0
 10
73.6235139112
 20
47.2964531156
 30
0.0
 10
73.9809155156
 20
48.0369418912
 30
0.0
 10
74.210739333
 20
48.8681011484
 30
0.0
 10
74.2715966667
 20
49.4533049417
 30
0.0
 10
74.2766374695
 20
49.7499896484
 30
0.0
  0
SPLINE
  5
331
100
AcDbEntity
  8
0
100
AcDbSpline
 62
7
  6
CONTINUOUS
 70
0
 71
3
 72
10
 73
6
 74
0
 42
0.0000001
 43
0.0000001
 44
0.0000000001
 40
0.0
 40
0.0
 40
0.0
 40
0.0
 40
0.5245020328
 40
0.7709889381
 40
1.0
 40
1.0
 40
1.0
 40
1.0
 10
76.9692612821
 20
49.6876505252
 30
0.0
 10
76.9517496704
 20
48.9303022795
 30
0.0
 10
76.845699363
 20
47.8159051668
 30
0.0
 10
76.5370417887
 20
46.4038233823
 30
0.0
 10
76.332440027
 20
45.7469326288
 30
0.0
 10
76.2179886482
 20
45.4365988006
 30
0.0
  0
SPLINE
  5
332
100
AcDbEntity
  8
0
100
AcDbSpline
 62
7
  6
CONTINUOUS
 70
0
 71
3
 72
11
 73
7
 74
0
 42
0.0000001
 43
0.0000001
 44
0.0000000001
 40
0.0
 40
0.0
 40
0.0
 40
0.0
 40
0.2274487334
 40
0.4732956032
 40
0.733249256
 40
1.0
 40
1.0
 40
1.0
 40
1.0
 10
77.0524322853
 20
81.4806516738
 30
0.0
 10
77.1517601715
 20
81.1673939671
 30
0.0
 10
77.3251532521
 20
80.5047155255
 30
0.0
 10
77.5043945369
 20
79.4593924219
 30
0.0
 10
77.6038212588
 20
78.3465229349
 30
0.0
 10
77.6151455185
 20
77.5847724575
 30
0.0
 10
77.6062249096
 20
77.1994623202
 30
0.0
  0
SPLINE
  5
333
100
AcDbEntity
  8
0
100
AcDbSpline
 62
7
  6
CONTINUOUS
 70
0
 71
3
 72
9
 73
5
 74
0
 42
0.0000001
 43
0.0000001
 44
0.0000000001
 40
0.0
 40
0.0
 40
0.0
 40
0.0
 40
0.2232568956
 40
1.0
 40
1.0
 40
1.0
 40
1.0
 10
71.9081822929
 20
82.5469003758
 30
0.0
 10
71.8804830859
 20
82.5148808101
 30
0.0
 10
71.7546361766
 20
82.3730554084
 30
0.0
 10
71.6176153085
 20
82.2407261123
 30
0.0
 10
71.5039008303
 20
82.1470979798
 30
0.0
  0
SPLINE
  5
334
100
AcDbEntity
  8
0
100
AcDbSpline
 62
7
  6
CONTINUOUS
 70
0
 71
3
 72
11
 73
7
 74
0
 42
0.0000001
 43
0.0000001
 44
0.0000000001
 40
0.0
 40
0.0
 40
0.0
 40
0.0
 40
0.2609596351
 40
0.5133182329
 40
0.7585351499
 40
1.0
 40
1.0
 40
1.0
 40
1.0
 10
71.5039008303
 20
82.1470979798
 30
0.0
 10
71.4682085855
 20
82.0605901745
 30
0.0
 10
71.3730423774
 20
81.8994794639
 30
0.0
 10
71.1702841126
 20
81.7123544969
 30
0.0
 10
70.9273773055
 20
81.5968373538
 30
0.0
 10
70.7513807128
 20
81.5721513418
 30
0.0
 10
70.6647984174
 20
81.5733622746
 30
0.0
  0
SPLINE
  5
335
100
AcDbEntity
  8
0
100
AcDbSpline
 62
7
  6
CONTINUOUS
 70
0
 71
3
 72
17
 73
13
 74
0
 42
0.0000001
 43
0.0000001
 44
0.0000000001
 40
0.0
 40
0.0
 40
0.0
 40
0.0
 40
0.1204485814
 40
0.261800304
 40
0.4075663426
 40
0.5405437457
 40
0.6672496123
 40
0.7929278144
 40
0.8511353845
 40
0.9048366355
 40
0.9540087688
 40
1.0
 40
1.0
 40
1.0
 40
1.0
 10
65.5769935352
 20
43.951509105
 30
0.0
 10
65.642228083
 20
44.0083819445
 30
0.0
 10
65.7572421921
 20
44.1626528207
 30
0.0
 10
65.8623754571
 20
44.4385041613
 30
0.0
 10
65.9089580527
 20
44.7387624306
 30
0.0
 10
65.9009059173
 20
45.0314893224
 30
0.0
 10
65.8438655115
 20
45.3038178187
 30
0.0
 10
65.7512701051
 20
45.5103664098
 30
0.0
 10
65.644897878
 20
45.6449703879
 30
0.0
 10
65.5561655701
 20
45.7207786214
 30
0.0
 10
65.4592276609
 20
45.7687873122
 30
0.0
 10
65.3908786818
 20
45.7812150163
 30
0.0
 10
65.3578513885
 20
45.7823205961
 30
0.0
  0
SPLINE
  5
336
100
AcDbEntity
  8
0
100
AcDbSpline
 62
7
  6
CONTINUOUS
 70
0
 71
3
 72
11
 73
7
 74
0
 42
0.0000001
 43
0.0000001
 44
0.0000000001
 40
0.0
 40
0.0
 40
0.0
 40
0.0
 40
0.2611419977
 40
0.5284544576
 40
0.7798776668
 40
1.0
 40
1.0
 40
1.0
 40
1.0
 10
69.7743044963
 20
83.2708194938
 30
0.0
 10
69.9574335211
 20
83.250562728
 30
0.0
 10
70.3207480272
 20
83.1425576385
 30
0.0
 10
70.8027502799
 20
82.8712482074
 30
0.0
 10
71.204596283
 20
82.5347590631
 30
0.0
 10
71.4183402806
 20
82.276708996
 30
0.0
 10
71.5039009366
 20
82.1470980004
 30
0.0
  0
SPLINE
  5
337
100
AcDbEntity
  8
0
100
AcDbSpline
 62
7
  6
CONTINUOUS
 70
0
 71
3
 72
20
 73
16
 74
0
 42
0.0000001
 43
0.0000001
 44
0.0000000001
 40
0.0
 40
0.0
 40
0.0
 40
0.0
 40
0.1129273527
 40
0.204040251
 40
0.3411929493
 40
0.3968960854
 40
0.4482372885
 40
0.5459329803
 40
0.6450220531
 40
0.6966149577
 40
0.7498932383
 40
0.8055741681
 40
0.8651573456
 40
0.9299179948
 40
1.0
 40
1.0
 40
1.0
 40
1.0
 10
65.5770173014
 20
43.9513854289
 30
0.0
 10
65.3037229783
 20
43.9485534201
 30
0.0
 10
64.8082977822
 20
44.0011721073
 30
0.0
 10
64.0109560995
 20
44.2247912481
 30
0.0
 10
63.4009798415
 20
44.5703558576
 30
0.0
 10
62.9682803307
 20
44.9750446413
 30
0.0
 10
62.65140498
 20
45.3575508243
 30
0.0
 10
62.3427136698
 20
45.8758607204
 30
0.0
 10
62.0927223337
 20
46.4230060779
 30
0.0
 10
61.9097664813
 20
46.881543406
 30
0.0
 10
61.7742789495
 20
47.2457570453
 30
0.0
 10
61.6455819751
 20
47.633043803
 30
0.0
 10
61.5386547023
 20
48.0559218082
 30
0.0
 10
61.4581871722
 20
48.5198092741
 30
0.0
 10
61.4134279534
 20
48.8430729947
 30
0.0
 10
61.3909110296
 20
49.0111855893
 30
0.0
  0
SPLINE
  5
338
100
AcDbEntity
  8
0
100
AcDbSpline
 62
7
  6
CONTINUOUS
 70
0
 71
3
 72
11
 73
7
 74
0
 42
0.0000001
 43
0.0000001
 44
0.0000000001
 40
0.0
 40
0.0
 40
0.0
 40
0.0
 40
0.246211286
 40
0.5053311767
 40
0.7614279316
 40
1.0
 40
1.0
 40
1.0
 40
1.0
 10
70.8512454935
 20
85.588858793
 30
0.0
 10
71.0636331465
 20
85.5299664505
 30
0.0
 10
71.4831581183
 20
85.3388385725
 30
0.0
 10
71.9916914223
 20
84.8671284123
 30
0.0
 10
72.318246816
 20
84.26286974
 30
0.0
 10
72.3947638756
 20
83.8178298271
 30
0.0
 10
72.3967613042
 20
83.6042760791
 30
0.0
  0
SPLINE
  5
339
100
AcDbEntity
  8
0
100
AcDbSpline
 62
7
  6
CONTINUOUS
 70
0
 71
3
 72
12
 73
8
 74
0
 42
0.0000001
 43
0.0000001
 44
0.0000000001
 40
0.0
 40
0.0
 40
0.0
 40
0.0
 40
0.1317762012
 40
0.2611641098
 40
0.5130003007
 40
0.75850063
 40
1.0
 40
1.0
 40
1.0
 40
1.0
 10
61.3909110296
 20
49.0111855893
 30
0.0
 10
61.1968065281
 20
48.789509507
 30
0.0
 10
60.7752103228
 20
48.3817752805
 30
0.0
 10
59.8563225634
 20
47.6922811174
 30
0.0
 10
58.6169432976
 20
47.0203359876
 30
0.0
 10
57.0558039378
 20
46.4681050752
 30
0.0
 10
55.9943085364
 20
46.2149728978
 30
0.0
 10
55.4627498978
 20
46.1199555478
 30
0.0
  0
SPLINE
  5
33A
100
AcDbEntity
  8
0
100
AcDbSpline
 62
7
  6
CONTINUOUS
 70
0
 71
3
 72
9
 73
5
 74
0
 42
0.0000001
 43
0.0000001
 44
0.0000000001
 40
0.0
 40
0.0
 40
0.0
 40
0.0
 40
0.5091572526
 40
1.0
 40
1.0
 40
1.0
 40
1.0
 10
61.390654392
 20
49.0113775779
 30
0.0
 10
61.4315151277
 20
49.0520658213
 30
0.0
 10
61.497012735
 20
49.1493011024
 30
0.0
 10
61.5122727253
 20
49.2664911638
 30
0.0
 10
61.5059783571
 20
49.3217234409
 30
0.0
  0
SPLINE
  5
33B
100
AcDbEntity
  8
0
100
AcDbSpline
 62
7
  6
CONTINUOUS
 70
0
 71
3
 72
9
 73
5
 74
0
 42
0.0000001
 43
0.0000001
 44
0.0000000001
 40
0.0
 40
0.0
 40
0.0
 40
0.0
 40
0.2421115332
 40
1.0
 40
1.0
 40
1.0
 40
1.0
 10
61.3906172169
 20
49.011409054
 30
0.0
 10
61.3884738882
 20
49.0464561063
 30
0.0
 10
61.3818461176
 20
49.1913622501
 30
0.0
 10
61.3848952244
 20
49.3365223128
 30
0.0
 10
61.3888355055
 20
49.4463653908
 30
0.0
  0
SPLINE
  5
33C
100
AcDbEntity
  8
0
100
AcDbSpline
 62
7
  6
CONTINUOUS
 70
0
 71
3
 72
11
 73
7
 74
0
 42
0.0000001
 43
0.0000001
 44
0.0000000001
 40
0.0
 40
0.0
 40
0.0
 40
0.0
 40
0.2471311394
 40
0.433434449
 40
0.6213796746
 40
1.0
 40
1.0
 40
1.0
 40
1.0
 10
61.4118757508
 20
49.8774067357
 30
0.0
 10
61.4331211237
 20
50.2310708456
 30
0.0
 10
61.4648406378
 20
50.8516803931
 30
0.0
 10
61.5038985849
 20
51.7416681184
 30
0.0
 10
61.5455941445
 20
52.820233818
 30
0.0
 10
61.5652367921
 20
53.6322889442
 30
0.0
 10
61.5775283674
 20
54.1749620141
 30
0.0
  0
SPLINE
  5
33D
100
AcDbEntity
  8
0
100
AcDbSpline
 62
7
  6
CONTINUOUS
 70
0
 71
3
 72
11
 73
7
 74
0
 42
0.0000001
 43
0.0000001
 44
0.0000000001
 40
0.0
 40
0.0
 40
0.0
 40
0.0
 40
0.2486177297
 40
0.4981239879
 40
0.7488709229
 40
1.0
 40
1.0
 40
1.0
 40
1.0
 10
73.1649630455
 20
86.5921882758
 30
0.0
 10
73.2759704086
 20
86.5680980897
 30
0.0
 10
73.4917619852
 20
86.4800211458
 30
0.0
 10
73.7499959318
 20
86.2455730057
 30
0.0
 10
73.9153754391
 20
85.9373005998
 30
0.0
 10
73.9502458231
 20
85.705318184
 30
0.0
 10
73.947900387
 20
85.5906034978
 30
0.0
  0
SPLINE
  5
33E
100
AcDbEntity
  8
0
100
AcDbSpline
 62
7
  6
CONTINUOUS
 70
0
 71
3
 72
9
 73
5
 74
0
 42
0.0000001
 43
0.0000001
 44
0.0000000001
 40
0.0
 40
0.0
 40
0.0
 40
0.0
 40
0.5149346555
 40
1.0
 40
1.0
 40
1.0
 40
1.0
 10
55.4625004281
 20
46.1199151516
 30
0.0
 10
55.407011521
 20
46.1331514646
 30
0.0
 10
55.2962237475
 20
46.1483599056
 30
0.0
 10
55.1847358213
 20
46.1359584275
 30
0.0
 10
55.13258114
 20
46.1230151319
 30
0.0
  0
SPLINE
  5
33F
100
AcDbEntity
  8
0
100
AcDbSpline
 62
7
  6
CONTINUOUS
 70
0
 71
3
 72
9
 73
5
 74
0
 42
0.0000001
 43
0.0000001
 44
0.0000000001
 40
0.0
 40
0.0
 40
0.0
 40
0.0
 40
0.6134192929
 40
1.0
 40
1.0
 40
1.0
 40
1.0
 10
55.0604091817
 20
46.0233313911
 30
0.0
 10
55.0540989108
 20
46.0371379042
 30
0.0
 10
55.0432199975
 20
46.0592595035
 30
0.0
 10
55.0300465291
 20
46.0806086843
 30
0.0
 10
55.0233556292
 20
46.087446311
 30
0.0
  0
SPLINE
  5
340
100
AcDbEntity
  8
0
100
AcDbSpline
 62
7
  6
CONTINUOUS
 70
0
 71
3
 72
9
 73
5
 74
0
 42
0.0000001
 43
0.0000001
 44
0.0000000001
 40
0.0
 40
0.0
 40
0.0
 40
0.0
 40
0.3319674403
 40
1.0
 40
1.0
 40
1.0
 40
1.0
 10
55.0233556292
 20
46.087446311
 30
0.0
 10
55.0222524911
 20
46.0885736402
 30
0.0
 10
55.0188986241
 20
46.0917467512
 30
0.0
 10
55.0139236727
 20
46.0943833236
 30
0.0
 10
55.0108290254
 20
46.0936779802
 30
0.0
  0
SPLINE
  5
341
100
AcDbEntity
  8
0
100
AcDbSpline
 62
7
  6
CONTINUOUS
 70
0
 71
3
 72
11
 73
7
 74
0
 42
0.0000001
 43
0.0000001
 44
0.0000000001
 40
0.0
 40
0.0
 40
0.0
 40
0.0
 40
0.2415657123
 40
0.4981269418
 40
0.7557919746
 40
1.0
 40
1.0
 40
1.0
 40
1.0
 10
81.2390393548
 20
84.6912600783
 30
0.0
 10
81.3425274439
 20
84.6644602485
 30
0.0
 10
81.5482893738
 20
84.5731178142
 30
0.0
 10
81.7959791168
 20
84.3385617247
 30
0.0
 10
81.9500371996
 20
84.032990102
 30
0.0
 10
81.9798632071
 20
83.8083321506
 30
0.0
 10
81.9767940545
 20
83.7003045213
 30
0.0
  0
SPLINE
  5
342
100
AcDbEntity
  8
0
100
AcDbSpline
 62
7
  6
CONTINUOUS
 70
0
 71
3
 72
9
 73
5
 74
0
 42
0.0000001
 43
0.0000001
 44
0.0000000001
 40
0.0
 40
0.0
 40
0.0
 40
0.0
 40
0.2380969329
 40
1.0
 40
1.0
 40
1.0
 40
1.0
 10
80.2292136151
 20
44.3165087102
 30
0.0
 10
80.2193874037
 20
44.3584158371
 30
0.0
 10
80.1680441249
 20
44.5319882467
 30
0.0
 10
80.0772643217
 20
44.6932255055
 30
0.0
 10
79.992746081
 20
44.8019848382
 30
0.0
  0
SPLINE
  5
343
100
AcDbEntity
  8
0
100
AcDbSpline
 62
7
  6
CONTINUOUS
 70
0
 71
3
 72
11
 73
7
 74
0
 42
0.0000001
 43
0.0000001
 44
0.0000000001
 40
0.0
 40
0.0
 40
0.0
 40
0.0
 40
0.2706877566
 40
0.5245933545
 40
0.7659660512
 40
1.0
 40
1.0
 40
1.0
 40
1.0
 10
65.2944206494
 20
43.4636402076
 30
0.0
 10
64.4832263643
 20
43.9188924485
 30
0.0
 10
62.8643874798
 20
44.722315427
 30
0.0
 10
60.3736032888
 20
45.5965491201
 30
0.0
 10
57.9069858657
 20
46.087932454
 30
0.0
 10
56.2662433907
 20
46.1540172602
 30
0.0
 10
55.4627179561
 20
46.1198767331
 30
0.0
  0
SPLINE
  5
344
100
AcDbEntity
  8
0
100
AcDbSpline
 62
7
  6
CONTINUOUS
 70
0
 71
3
 72
11
 73
7
 74
0
 42
0.0000001
 43
0.0000001
 44
0.0000000001
 40
0.0
 40
0.0
 40
0.0
 40
0.0
 40
0.2611601726
 40
0.5135491692
 40
0.7587365727
 40
1.0
 40
1.0
 40
1.0
 40
1.0
 10
70.630875655
 20
45.0354372194
 30
0.0
 10
70.5987664688
 20
45.1226455538
 30
0.0
 10
70.5106765409
 20
45.2861426636
 30
0.0
 10
70.3173360913
 20
45.4800265061
 30
0.0
 10
70.081562877
 20
45.6048589992
 30
0.0
 10
69.9083441176
 20
45.637230547
 30
0.0
 10
69.8225374263
 20
45.6400061108
 30
0.0
  0
SPLINE
  5
345
100
AcDbEntity
  8
0
100
AcDbSpline
 62
7
  6
CONTINUOUS
 70
0
 71
3
 72
18
 73
14
 74
0
 42
0.0000001
 43
0.0000001
 44
0.0000000001
 40
0.0
 40
0.0
 40
0.0
 40
0.0
 40
0.1737515158
 40
0.3492497462
 40
0.5173872687
 40
0.668286432
 40
0.7932660285
 40
0.8447641981
 40
0.8885658163
 40
0.9247693906
 40
0.9543355074
 40
0.9787465151
 40
1.0
 40
1.0
 40
1.0
 40
1.0
 10
55.0968319662
 20
50.9348131542
 30
0.0
 10
55.1586792406
 20
50.6501910177
 30
0.0
 10
55.2707598829
 20
50.0753508022
 30
0.0
 10
55.3984796223
 20
49.217154337
 30
0.0
 10
55.4752769151
 20
48.3911972156
 30
0.0
 10
55.4962790592
 20
47.6466129819
 30
0.0
 10
55.4608847674
 20
47.097488911
 30
0.0
 10
55.3969236313
 20
46.7334397205
 30
0.0
 10
55.3389578534
 20
46.5203120361
 30
0.0
 10
55.268152454
 20
46.3500963944
 30
0.0
 10
55.1858151116
 20
46.2220326574
 30
0.0
 10
55.0927567495
 20
46.1344979247
 30
0.0
 10
55.0212026761
 20
46.1023430177
 30
0.0
 10
54.9865083489
 20
46.0942410468
 30
0.0
  0
SPLINE
  5
346
100
AcDbEntity
  8
0
100
AcDbSpline
 62
7
  6
CONTINUOUS
 70
0
 71
3
 72
9
 73
5
 74
0
 42
0.0000001
 43
0.0000001
 44
0.0000000001
 40
0.0
 40
0.0
 40
0.0
 40
0.0
 40
0.5056091493
 40
1.0
 40
1.0
 40
1.0
 40
1.0
 10
55.0054786065
 20
46.0106624037
 30
0.0
 10
53.9302036809
 20
45.7646794231
 30
0.0
 10
51.8015128275
 20
45.286899688
 30
0.0
 10
49.6643719949
 20
44.8470501347
 30
0.0
 10
48.6139528484
 20
44.6022036197
 30
0.0
  0
SPLINE
  5
347
100
AcDbEntity
  8
0
100
AcDbSpline
 62
7
  6
CONTINUOUS
 70
0
 71
3
 72
16
 73
12
 74
0
 42
0.0000001
 43
0.0000001
 44
0.0000000001
 40
0.0
 40
0.0
 40
0.0
 40
0.0
 40
0.1798121041
 40
0.34721665
 40
0.4986408505
 40
0.6320595972
 40
0.7467715551
 40
0.843697367
 40
0.9260418985
 40
0.9636381537
 40
1.0
 40
1.0
 40
1.0
 40
1.0
 10
55.0968319662
 20
50.9348131542
 30
0.0
 10
55.5571856652
 20
50.9735497921
 30
0.0
 10
56.4440403784
 20
51.0787194991
 30
0.0
 10
57.7014450769
 20
51.3320607143
 30
0.0
 10
58.8162503988
 20
51.6664387824
 30
0.0
 10
59.7635368696
 20
52.068581445
 30
0.0
 10
60.5262128581
 20
52.5280207414
 30
0.0
 10
61.0943905485
 20
53.0339563898
 30
0.0
 10
61.4056971873
 20
53.5079850524
 30
0.0
 10
61.5297516311
 20
53.8920975343
 30
0.0
 10
61.5532409314
 20
54.0820769769
 30
0.0
 10
61.555485095
 20
54.1754723548
 30
0.0
  0
SPLINE
  5
348
100
AcDbEntity
  8
0
100
AcDbSpline
 62
7
  6
CONTINUOUS
 70
0
 71
3
 72
16
 73
12
 74
0
 42
0.0000001
 43
0.0000001
 44
0.0000000001
 40
0.0
 40
0.0
 40
0.0
 40
0.0
 40
0.0357399741
 40
0.0726126826
 40
0.153325224
 40
0.2484450624
 40
0.3614461653
 40
0.4939799537
 40
0.6458162055
 40
0.8157259137
 40
1.0
 40
1.0
 40
1.0
 40
1.0
 10
62.0012562689
 20
73.4297804698
 30
0.0
 10
62.0033013603
 20
73.521583839
 30
0.0
 10
61.9893193373
 20
73.7089637988
 30
0.0
 10
61.8870333365
 20
74.0914325248
 30
0.0
 10
61.6076613843
 20
74.5721771224
 30
0.0
 10
61.0780272306
 20
75.0997086158
 30
0.0
 10
60.3506299422
 20
75.5933992733
 30
0.0
 10
59.4307978715
 20
76.0423760982
 30
0.0
 10
58.3295107556
 20
76.4350495557
 30
0.0
 10
57.067606577
 20
76.7545187218
 30
0.0
 10
56.1690246597
 20
76.9050308467
 30
0.0
 10
55.6994968802
 20
76.9658659224
 30
0.0
  0
SPLINE
  5
349
100
AcDbEntity
  8
0
100
AcDbSpline
 62
7
  6
CONTINUOUS
 70
0
 71
3
 72
18
 73
14
 74
0
 42
0.0000001
 43
0.0000001
 44
0.0000000001
 40
0.0
 40
0.0
 40
0.0
 40
0.0
 40
0.0212534849
 40
0.0456644926
 40
0.0752306094
 40
0.1114341837
 40
0.1552358019
 40
0.2067339715
 40
0.331713568
 40
0.4826127313
 40
0.6507502538
 40
0.8262484842
 40
1.0
 40
1.0
 40
1.0
 40
1.0
 10
55.8133067563
 20
81.8063557504
 30
0.0
 10
55.8475889619
 20
81.7966568511
 30
0.0
 10
55.9175782819
 20
81.761224965
 30
0.0
 10
56.0064859429
 20
81.6694773982
 30
0.0
 10
56.0828084404
 20
81.5377404062
 30
0.0
 10
56.1456606145
 20
81.3644303561
 30
0.0
 10
56.1937010094
 20
81.1488484419
 30
0.0
 10
56.2407458849
 20
80.7822292665
 30
0.0
 10
56.2506894949
 20
80.2320555433
 30
0.0
 10
56.195251448
 20
79.4892410348
 30
0.0
 10
56.0803122001
 20
78.6677229523
 30
0.0
 10
55.9130130701
 20
77.816356694
 30
0.0
 10
55.7744496455
 20
77.2473193304
 30
0.0
 10
55.6994966882
 20
76.9658643604
 30
0.0
  0
SPLINE
  5
34A
100
AcDbEntity
  8
0
100
AcDbSpline
 62
7
  6
CONTINUOUS
 70
0
 71
3
 72
9
 73
5
 74
0
 42
0.0000001
 43
0.0000001
 44
0.0000000001
 40
0.0
 40
0.0
 40
0.0
 40
0.0
 40
0.5078147272
 40
1.0
 40
1.0
 40
1.0
 40
1.0
 10
67.0285930356
 20
43.9030968427
 30
0.0
 10
67.3226312273
 20
43.9073424852
 30
0.0
 10
67.9016527444
 20
43.9174068686
 30
0.0
 10
68.4803405227
 20
43.9410638006
 30
0.0
 10
68.764923293
 20
43.9568094108
 30
0.0
  0
SPLINE
  5
34B
100
AcDbEntity
  8
0
100
AcDbSpline
 62
7
  6
CONTINUOUS
 70
0
 71
3
 72
9
 73
5
 74
0
 42
0.0000001
 43
0.0000001
 44
0.0000000001
 40
0.0
 40
0.0
 40
0.0
 40
0.0
 40
0.2231132754
 40
1.0
 40
1.0
 40
1.0
 40
1.0
 10
71.0264486345
 20
44.609748579
 30
0.0
 10
70.9996465445
 20
44.6436857542
 30
0.0
 10
70.8775479392
 20
44.7941791872
 30
0.0
 10
70.7432062581
 20
44.9351590748
 30
0.0
 10
70.630875655
 20
45.0354372194
 30
0.0
  0
SPLINE
  5
34C
100
AcDbEntity
  8
0
100
AcDbSpline
 62
7
  6
CONTINUOUS
 70
0
 71
3
 72
11
 73
7
 74
0
 42
0.0000001
 43
0.0000001
 44
0.0000000001
 40
0.0
 40
0.0
 40
0.0
 40
0.0
 40
0.2442523459
 40
0.5026632941
 40
0.7595101189
 40
1.0
 40
1.0
 40
1.0
 40
1.0
 10
69.8409106956
 20
41.6178929807
 30
0.0
 10
70.0533070327
 20
41.6662483984
 30
0.0
 10
70.4775106498
 20
41.8355138944
 30
0.0
 10
71.0053609988
 20
42.2787151086
 30
0.0
 10
71.3609480504
 20
42.8655140929
 30
0.0
 10
71.4587322575
 20
43.3072829333
 30
0.0
 10
71.4706492492
 20
43.5214273725
 30
0.0
  0
SPLINE
  5
34D
100
AcDbEntity
  8
0
100
AcDbSpline
 62
7
  6
CONTINUOUS
 70
0
 71
3
 72
9
 73
5
 74
0
 42
0.0000001
 43
0.0000001
 44
0.0000000001
 40
0.0
 40
0.0
 40
0.0
 40
0.0
 40
0.2380890183
 40
1.0
 40
1.0
 40
1.0
 40
1.0
 10
81.1112373081
 20
82.4139832766
 30
0.0
 10
81.0994826174
 20
82.3725772064
 30
0.0
 10
81.0401571698
 20
82.2015686723
 30
0.0
 10
80.9420177008
 20
82.0447031265
 30
0.0
 10
80.8525559196
 20
81.939970719
 30
0.0
  0
SPLINE
  5
34E
100
AcDbEntity
  8
0
100
AcDbSpline
 62
7
  6
CONTINUOUS
 70
0
 71
3
 72
12
 73
8
 74
0
 42
0.0000001
 43
0.0000001
 44
0.0000000001
 40
0.0
 40
0.0
 40
0.0
 40
0.0
 40
0.1635707757
 40
0.3125093254
 40
0.5774592432
 40
0.8065677303
 40
1.0
 40
1.0
 40
1.0
 40
1.0
 10
68.7650002924
 20
43.9567147344
 30
0.0
 10
68.7914783051
 20
43.8181243169
 30
0.0
 10
68.8577336522
 20
43.5560830528
 30
0.0
 10
69.0281296319
 20
43.0875221186
 30
0.0
 10
69.2715827129
 20
42.5872608467
 30
0.0
 10
69.5821085335
 20
42.0822344476
 30
0.0
 10
69.7683893819
 20
41.768164444
 30
0.0
 10
69.8409106956
 20
41.6178929807
 30
0.0
  0
LINE
  5
34F
100
AcDbEntity
  8
0
100
AcDbLine
 62
7
  6
CONTINUOUS
 10
41.8487206003
 20
38.5528714104
 11
41.8265298965
 21
38.5557346879
  0
SPLINE
  5
350
100
AcDbEntity
  8
0
100
AcDbSpline
 62
7
  6
CONTINUOUS
 70
0
 71
3
 72
21
 73
17
 74
0
 42
0.0000001
 43
0.0000001
 44
0.0000000001
 40
0.0
 40
0.0
 40
0.0
 40
0.0
 40
0.0086894441
 40
0.0354742653
 40
0.065667438
 40
0.1052672006
 40
0.1558519673
 40
0.2176717474
 40
0.2913101346
 40
0.3771244474
 40
0.475342054
 40
0.5860608625
 40
0.7095850704
 40
0.8449117828
 40
0.9998939018
 40
1.0
 40
1.0
 40
1.0
 40
1.0
 10
41.8265298965
 20
38.5557346879
 30
0.0
 10
41.7806078407
 20
38.5616649594
 30
0.0
 10
41.5931489397
 20
38.5859976933
 30
0.0
 10
41.2462573896
 20
38.6319481158
 30
0.0
 10
40.7363416138
 20
38.701473271
 30
0.0
 10
40.1011448635
 20
38.7908735912
 30
0.0
 10
39.2996691618
 20
38.9079898912
 30
0.0
 10
38.3195867632
 20
39.0571663207
 30
0.0
 10
37.1550770657
 20
39.2420850353
 30
0.0
 10
35.8005909211
 20
39.4671395926
 30
0.0
 10
34.2533353313
 20
39.7372715826
 30
0.0
 10
32.5111412573
 20
40.0586297701
 30
0.0
 10
30.5784442263
 20
40.4374667544
 30
0.0
 10
28.4225177724
 20
40.899786585
 30
0.0
 10
26.9161248316
 20
41.2598657287
 30
0.0
 10
26.1230404157
 20
41.4922041748
 30
0.0
 10
26.1224978602
 20
41.4923631398
 30
0.0
  0
SPLINE
  5
351
100
AcDbEntity
  8
0
100
AcDbSpline
 62
7
  6
CONTINUOUS
 70
0
 71
3
 72
16
 73
12
 74
0
 42
0.0000001
 43
0.0000001
 44
0.0000000001
 40
0.0
 40
0.0
 40
0.0
 40
0.0
 40
0.1278707525
 40
0.3265245909
 40
0.4969920548
 40
0.6401003101
 40
0.7572003339
 40
0.8488708792
 40
0.9187658588
 40
0.9807707547
 40
1.0
 40
1.0
 40
1.0
 40
1.0
 10
35.0245799341
 20
39.6075811251
 30
0.0
 10
35.3145086871
 20
39.5567886338
 30
0.0
 10
36.0551820808
 20
39.4289363682
 30
0.0
 10
37.1837362425
 20
39.2414215248
 30
0.0
 10
38.34824594
 20
39.0565028102
 30
0.0
 10
39.3283283385
 20
38.9073263807
 30
0.0
 10
40.1298040402
 20
38.7902100808
 30
0.0
 10
40.7650007905
 20
38.7008097606
 30
0.0
 10
41.2749165663
 20
38.6312846053
 30
0.0
 10
41.6197858957
 20
38.585602053
 30
0.0
 10
41.8052211956
 20
38.5615266669
 30
0.0
 10
41.8491198394
 20
38.5558551225
 30
0.0
  0
SPLINE
  5
352
100
AcDbEntity
  8
0
100
AcDbSpline
 62
7
  6
CONTINUOUS
 70
0
 71
3
 72
21
 73
17
 74
0
 42
0.0000001
 43
0.0000001
 44
0.0000000001
 40
0.0
 40
0.0
 40
0.0
 40
0.0
 40
0.000106476
 40
0.1553986474
 40
0.29099609
 40
0.4147674165
 40
0.5257077255
 40
0.6241218232
 40
0.7101078134
 40
0.7838935192
 40
0.8458369739
 40
0.8965229389
 40
0.9362019236
 40
0.9664554997
 40
0.9932939058
 40
1.0
 40
1.0
 40
1.0
 40
1.0
 10
27.1931913351
 20
87.7390918191
 30
0.0
 10
27.1937415215
 20
87.7392257132
 30
0.0
 10
27.9967293712
 20
87.9346125438
 30
0.0
 10
29.5181731789
 20
88.2245921144
 30
0.0
 10
31.69318527
 20
88.5866430833
 30
0.0
 10
33.6413436346
 20
88.8756314242
 30
0.0
 10
35.3965431082
 20
89.116018786
 30
0.0
 10
36.9546422785
 20
89.3142563393
 30
0.0
 10
38.3180924176
 20
89.4763858806
 30
0.0
 10
39.4899122213
 20
89.6072144488
 30
0.0
 10
40.4758482204
 20
89.7108740868
 30
0.0
 10
41.2818851864
 20
89.7907736348
 30
0.0
 10
41.9205386977
 20
89.8506820759
 30
0.0
 10
42.4331256676
 20
89.8965344902
 30
0.0
 10
42.7711708385
 20
89.9254744151
 30
0.0
 10
42.9489491966
 20
89.9402520494
 30
0.0
 10
42.9844914722
 20
89.9431885147
 30
0.0
  0
LINE
  5
353
100
AcDbEntity
  8
0
100
AcDbLine
 62
7
  6
CONTINUOUS
 10
42.9844914722
 20
89.9431885147
 11
43.0384796286
 21
89.9476351189
  0
SPLINE
  5
354
100
AcDbEntity
  8
0
100
AcDbSpline
 62
7
  6
CONTINUOUS
 70
0
 71
3
 72
12
 73
8
 74
0
 42
0.0000001
 43
0.0000001
 44
0.0000000001
 40
0.0
 40
0.0
 40
0.0
 40
0.0
 40
0.2577107547
 40
0.5356174083
 40
0.7500850717
 40
0.9184537316
 40
1.0
 40
1.0
 40
1.0
 40
1.0
 10
45.6263872732
 20
38.1737357651
 30
0.0
 10
45.3017571392
 20
38.1888422888
 30
0.0
 10
44.6278405621
 20
38.2403999105
 30
0.0
 10
43.6866096402
 20
38.3328992249
 30
0.0
 10
42.8586726003
 20
38.426891167
 30
0.0
 10
42.2774288861
 20
38.4981187073
 30
0.0
 10
41.9648050596
 20
38.5379160178
 30
0.0
 10
41.8628162694
 20
38.5510507457
 30
0.0
  0
SPLINE
  5
355
100
AcDbEntity
  8
0
100
AcDbSpline
 62
7
  6
CONTINUOUS
 70
0
 71
3
 72
12
 73
8
 74
0
 42
0.0000001
 43
0.0000001
 44
0.0000000001
 40
0.0
 40
0.0
 40
0.0
 40
0.0
 40
0.0789228445
 40
0.2413798047
 40
0.4483171567
 40
0.716466052
 40
1.0
 40
1.0
 40
1.0
 40
1.0
 10
43.0518279959
 20
89.9487348796
 30
0.0
 10
43.1546276423
 20
89.957162142
 30
0.0
 10
43.4690705525
 20
89.9824755932
 30
0.0
 10
44.0533003192
 20
90.0267512854
 30
0.0
 10
44.884700106
 20
90.0823266549
 30
0.0
 10
45.8747116218
 20
90.1335211824
 30
0.0
 10
46.5959586553
 20
90.1541574136
 30
0.0
 10
46.966484188
 20
90.1509870815
 30
0.0
  0
SPLINE
  5
356
100
AcDbEntity
  8
0
100
AcDbSpline
 62
7
  6
CONTINUOUS
 70
0
 71
3
 72
15
 73
11
 74
0
 42
0.0000001
 43
0.0000001
 44
0.0000000001
 40
0.0
 40
0.0
 40
0.0
 40
0.0
 40
0.1249333046
 40
0.2499274878
 40
0.4999524939
 40
0.624970864
 40
0.7499895501
 40
0.8124972181
 40
0.8750037183
 40
1.0
 40
1.0
 40
1.0
 40
1.0
 10
41.8312814135
 20
38.5551171979
 30
0.0
 10
41.1705375433
 20
38.6404283338
 30
0.0
 10
39.8506083019
 20
38.8257052778
 30
0.0
 10
37.2156742877
 20
39.2322646653
 30
0.0
 10
34.5870044449
 20
39.6815517692
 30
0.0
 10
31.9661077554
 20
40.1737469804
 30
0.0
 10
30.3321068077
 20
40.5025809908
 30
0.0
 10
29.0284853113
 20
40.7827495939
 30
0.0
 10
27.7279439296
 20
41.0757611718
 30
0.0
 10
26.757028244
 20
41.317559489
 30
0.0
 10
26.1171892025
 20
41.5044125137
 30
0.0
  0
SPLINE
  5
357
100
AcDbEntity
  8
0
100
AcDbSpline
 62
7
  6
CONTINUOUS
 70
0
 71
3
 72
9
 73
5
 74
0
 42
0.0000001
 43
0.0000001
 44
0.0000000001
 40
0.0
 40
0.0
 40
0.0
 40
0.0
 40
0.5211502651
 40
1.0
 40
1.0
 40
1.0
 40
1.0
 10
20.4682155227
 20
81.2443506431
 30
0.0
 10
20.400922044
 20
81.0930555791
 30
0.0
 10
20.2776383051
 20
80.8001062271
 30
0.0
 10
20.1735873065
 20
80.4993764511
 30
0.0
 10
20.1320212222
 20
80.3530190074
 30
0.0
  0
SPLINE
  5
358
100
AcDbEntity
  8
0
100
AcDbSpline
 62
7
  6
CONTINUOUS
 70
0
 71
3
 72
23
 73
19
 74
0
 42
0.0000001
 43
0.0000001
 44
0.0000000001
 40
0.0
 40
0.0
 40
0.0
 40
0.0
 40
0.2323512805
 40
0.4344383237
 40
0.6060488083
 40
0.6803592297
 40
0.746971296
 40
0.8058588369
 40
0.85699592
 40
0.9003570226
 40
0.935917395
 40
0.9636539398
 40
0.9745822836
 40
0.9835484525
 40
0.9905526459
 40
0.9955992073
 40
0.9987070822
 40
1.0
 40
1.0
 40
1.0
 40
1.0
 10
45.9613016552
 20
41.4127089708
 30
0.0
 10
45.9639346343
 20
41.6646117636
 30
0.0
 10
45.9685212394
 20
42.1356101761
 30
0.0
 10
45.973613116
 20
42.7926724078
 30
0.0
 10
45.9760885796
 20
43.2783997784
 30
0.0
 10
45.9767893808
 20
43.6172493822
 30
0.0
 10
45.9767122843
 20
43.8338845734
 30
0.0
 10
45.9760624215
 20
44.0253949605
 30
0.0
 10
45.9748408003
 20
44.1916907835
 30
0.0
 10
45.9730571867
 20
44.3326961787
 30
0.0
 10
45.9707152074
 20
44.4482978462
 30
0.0
 10
45.9681778754
 20
44.528771166
 30
0.0
 10
45.9657134202
 20
44.5803037034
 30
0.0
 10
45.9638623194
 20
44.6095195372
 30
0.0
 10
45.9619532447
 20
44.6319440141
 30
0.0
 10
45.9598300733
 20
44.6489056658
 30
0.0
 10
45.9579812857
 20
44.6577740976
 30
0.0
 10
45.9559560455
 20
44.6636468214
 30
0.0
 10
45.9545571299
 20
44.6637365242
 30
0.0
  0
SPLINE
  5
359
100
AcDbEntity
  8
0
100
AcDbSpline
 62
7
  6
CONTINUOUS
 70
0
 71
3
 72
9
 73
5
 74
0
 42
0.0000001
 43
0.0000001
 44
0.0000000001
 40
0.0
 40
0.0
 40
0.0
 40
0.0
 40
0.2514303446
 40
1.0
 40
1.0
 40
1.0
 40
1.0
 10
14.4370474162
 20
48.114350929
 30
0.0
 10
14.4059811501
 20
48.1780863273
 30
0.0
 10
14.2903821311
 20
48.4354133092
 30
0.0
 10
14.2063075891
 20
48.7066414763
 30
0.0
 10
14.1607205632
 20
48.9127576142
 30
0.0
  0
SPLINE
  5
35A
100
AcDbEntity
  8
0
100
AcDbSpline
 62
7
  6
CONTINUOUS
 70
0
 71
3
 72
9
 73
5
 74
0
 42
0.0000001
 43
0.0000001
 44
0.0000000001
 40
0.0
 40
0.0
 40
0.0
 40
0.0
 40
0.2690057816
 40
1.0
 40
1.0
 40
1.0
 40
1.0
 10
23.4989310025
 20
82.5756394292
 30
0.0
 10
23.2108341304
 20
82.5012023541
 30
0.0
 10
22.152992039
 20
82.1747501206
 30
0.0
 10
21.1500061679
 20
81.6789322028
 30
0.0
 10
20.46823221
 20
81.2442044531
 30
0.0
  0
SPLINE
  5
35B
100
AcDbEntity
  8
0
100
AcDbSpline
 62
7
  6
CONTINUOUS
 70
0
 71
3
 72
13
 73
9
 74
0
 42
0.0000001
 43
0.0000001
 44
0.0000000001
 40
0.0
 40
0.0
 40
0.0
 40
0.0
 40
0.073304192
 40
0.1655873673
 40
0.276930335
 40
0.4043997168
 40
0.6909449034
 40
1.0
 40
1.0
 40
1.0
 40
1.0
 10
18.1375249517
 20
78.2739993159
 30
0.0
 10
18.1410974836
 20
78.1951093872
 30
0.0
 10
18.123381447
 20
78.0158675402
 30
0.0
 10
18.0438551569
 20
77.727683138
 30
0.0
 10
17.9150181208
 20
77.3946525084
 30
0.0
 10
17.6795495995
 20
76.8798282361
 30
0.0
 10
17.3232273676
 20
76.1869294526
 30
0.0
 10
17.0277538195
 20
75.6174160732
 30
0.0
 10
16.8772126863
 20
75.3204476219
 30
0.0
  0
SPLINE
  5
35C
100
AcDbEntity
  8
0
100
AcDbSpline
 62
7
  6
CONTINUOUS
 70
0
 71
3
 72
9
 73
5
 74
0
 42
0.0000001
 43
0.0000001
 44
0.0000000001
 40
0.0
 40
0.0
 40
0.0
 40
0.0
 40
0.2477354224
 40
1.0
 40
1.0
 40
1.0
 40
1.0
 10
18.1375249517
 20
78.2739993159
 30
0.0
 10
18.2674058857
 20
78.4742530728
 30
0.0
 10
18.8315898138
 20
79.2561318548
 30
0.0
 10
19.5430937943
 20
79.9305597572
 30
0.0
 10
20.1320230263
 20
80.353020102
 30
0.0
  0
SPLINE
  5
35D
100
AcDbEntity
  8
0
100
AcDbSpline
 62
7
  6
CONTINUOUS
 70
0
 71
3
 72
9
 73
5
 74
0
 42
0.0000001
 43
0.0000001
 44
0.0000000001
 40
0.0
 40
0.0
 40
0.0
 40
0.0
 40
0.2737165474
 40
1.0
 40
1.0
 40
1.0
 40
1.0
 10
18.4453278204
 20
84.7290839838
 30
0.0
 10
18.3116270567
 20
84.642693794
 30
0.0
 10
17.8292585592
 20
84.3176846118
 30
0.0
 10
17.3687945873
 20
83.9605576229
 30
0.0
 10
17.0471529178
 20
83.6867881319
 30
0.0
  0
SPLINE
  5
35E
100
AcDbEntity
  8
0
100
AcDbSpline
 62
7
  6
CONTINUOUS
 70
0
 71
3
 72
9
 73
5
 74
0
 42
0.0000001
 43
0.0000001
 44
0.0000000001
 40
0.0
 40
0.0
 40
0.0
 40
0.0
 40
0.2481312967
 40
1.0
 40
1.0
 40
1.0
 40
1.0
 10
18.1125436896
 20
78.979734331
 30
0.0
 10
18.2629386788
 20
79.205685848
 30
0.0
 10
18.9217385411
 20
80.0803989676
 30
0.0
 10
19.7696580832
 20
80.8102424676
 30
0.0
 10
20.4682182138
 20
81.244352318
 30
0.0
  0
SPLINE
  5
35F
100
AcDbEntity
  8
0
100
AcDbSpline
 62
7
  6
CONTINUOUS
 70
0
 71
3
 72
15
 73
11
 74
0
 42
0.0000001
 43
0.0000001
 44
0.0000000001
 40
0.0
 40
0.0
 40
0.0
 40
0.0
 40
0.1342403713
 40
0.2551237086
 40
0.3645147432
 40
0.4669677574
 40
0.5704674243
 40
0.6856464137
 40
0.8240936577
 40
1.0
 40
1.0
 40
1.0
 40
1.0
 10
14.1607244404
 20
48.9127226351
 30
0.0
 10
14.3452701482
 20
48.8021486408
 30
0.0
 10
14.7097933698
 20
48.6132344775
 30
0.0
 10
15.2695200102
 20
48.4341712971
 30
0.0
 10
15.8065707553
 20
48.387649122
 30
0.0
 10
16.3099604288
 20
48.493547446
 30
0.0
 10
16.7554101575
 20
48.7724868373
 30
0.0
 10
17.1143031649
 20
49.2308292722
 30
0.0
 10
17.3698465559
 20
49.8778062741
 30
0.0
 10
17.4417580729
 20
50.3810717498
 30
0.0
 10
17.4569515475
 20
50.6625733479
 30
0.0
  0
SPLINE
  5
360
100
AcDbEntity
  8
0
100
AcDbSpline
 62
7
  6
CONTINUOUS
 70
0
 71
3
 72
15
 73
11
 74
0
 42
0.0000001
 43
0.0000001
 44
0.0000000001
 40
0.0
 40
0.0
 40
0.0
 40
0.0
 40
0.1759065039
 40
0.3143543967
 40
0.4295330703
 40
0.533032516
 40
0.635485362
 40
0.7448763932
 40
0.8657595986
 40
1.0
 40
1.0
 40
1.0
 40
1.0
 10
18.1125438248
 20
78.9797379643
 30
0.0
 10
18.1103942922
 20
79.26164132
 30
0.0
 10
18.0618452171
 20
79.7676956763
 30
0.0
 10
17.8365234557
 20
80.4258092405
 30
0.0
 10
17.4992212215
 20
80.9002662681
 30
0.0
 10
17.0671602951
 20
81.1995224033
 30
0.0
 10
16.5692108406
 20
81.3286024471
 30
0.0
 10
16.0305833143
 20
81.3069832151
 30
0.0
 10
15.4631695169
 20
81.1540163959
 30
0.0
 10
15.0902944747
 20
80.9821739812
 30
0.0
 10
14.9008292482
 20
80.8802589853
 30
0.0
  0
SPLINE
  5
361
100
AcDbEntity
  8
0
100
AcDbSpline
 62
7
  6
CONTINUOUS
 70
0
 71
3
 72
9
 73
5
 74
0
 42
0.0000001
 43
0.0000001
 44
0.0000000001
 40
0.0
 40
0.0
 40
0.0
 40
0.0
 40
0.2418403744
 40
1.0
 40
1.0
 40
1.0
 40
1.0
 10
18.1375249517
 20
78.2739993159
 30
0.0
 10
18.1335800587
 20
78.3307955322
 30
0.0
 10
18.119669521
 20
78.5658120744
 30
0.0
 10
18.1138837185
 20
78.8012602189
 30
0.0
 10
18.1125438248
 20
78.9797379643
 30
0.0
  0
SPLINE
  5
362
100
AcDbEntity
  8
0
100
AcDbSpline
 62
7
  6
CONTINUOUS
 70
0
 71
3
 72
9
 73
5
 74
0
 42
0.0000001
 43
0.0000001
 44
0.0000000001
 40
0.0
 40
0.0
 40
0.0
 40
0.0
 40
0.3809294601
 40
1.0
 40
1.0
 40
1.0
 40
1.0
 10
14.8815786044
 20
47.3218199646
 30
0.0
 10
14.8779338625
 20
47.3278301694
 30
0.0
 10
14.8789395575
 20
47.3484597603
 30
0.0
 10
14.888321205
 20
47.3642256398
 30
0.0
 10
14.8943861806
 20
47.3739058265
 30
0.0
  0
SPLINE
  5
363
100
AcDbEntity
  8
0
100
AcDbSpline
 62
7
  6
CONTINUOUS
 70
0
 71
3
 72
9
 73
5
 74
0
 42
0.0000001
 43
0.0000001
 44
0.0000000001
 40
0.0
 40
0.0
 40
0.0
 40
0.0
 40
0.2577314874
 40
1.0
 40
1.0
 40
1.0
 40
1.0
 10
17.4569515475
 20
50.6625733479
 30
0.0
 10
17.4602143418
 20
50.7231587914
 30
0.0
 10
17.4743199262
 20
50.9581430206
 30
0.0
 10
17.4944045875
 20
51.1928274706
 30
0.0
 10
17.51456659
 20
51.3663997494
 30
0.0
  0
SPLINE
  5
364
100
AcDbEntity
  8
0
100
AcDbSpline
 62
7
  6
CONTINUOUS
 70
0
 71
3
 72
9
 73
5
 74
0
 42
0.0000001
 43
0.0000001
 44
0.0000000001
 40
0.0
 40
0.0
 40
0.0
 40
0.0
 40
0.4963908028
 40
1.0
 40
1.0
 40
1.0
 40
1.0
 10
15.9526547781
 20
73.4976240075
 30
0.0
 10
16.0928296688
 20
73.7555867545
 30
0.0
 10
16.432399324
 20
74.245999611
 30
0.0
 10
16.8654691258
 20
74.6553150103
 30
0.0
 10
17.1005962859
 20
74.8381647904
 30
0.0
  0
SPLINE
  5
365
100
AcDbEntity
  8
0
100
AcDbSpline
 62
7
  6
CONTINUOUS
 70
0
 71
3
 72
9
 73
5
 74
0
 42
0.0000001
 43
0.0000001
 44
0.0000000001
 40
0.0
 40
0.0
 40
0.0
 40
0.0
 40
0.7497876021
 40
1.0
 40
1.0
 40
1.0
 40
1.0
 10
14.1607244398
 20
48.9127226349
 30
0.0
 10
14.3014411243
 20
48.5100452064
 30
0.0
 10
14.5344617137
 20
47.9872878864
 30
0.0
 10
14.8198185412
 20
47.4950325145
 30
0.0
 10
14.8944436018
 20
47.3738151832
 30
0.0
  0
SPLINE
  5
366
100
AcDbEntity
  8
0
100
AcDbSpline
 62
7
  6
CONTINUOUS
 70
0
 71
3
 72
9
 73
5
 74
0
 42
0.0000001
 43
0.0000001
 44
0.0000000001
 40
0.0
 40
0.0
 40
0.0
 40
0.0
 40
0.2470469941
 40
1.0
 40
1.0
 40
1.0
 40
1.0
 10
16.6188386902
 20
74.8075684431
 30
0.0
 10
16.6439067063
 20
74.8578128455
 30
0.0
 10
16.7540487799
 20
75.0568087962
 30
0.0
 10
16.8984110227
 20
75.2363800334
 30
0.0
 10
17.0202125963
 20
75.3565974598
 30
0.0
  0
SPLINE
  5
367
100
AcDbEntity
  8
0
100
AcDbSpline
 62
7
  6
CONTINUOUS
 70
0
 71
3
 72
9
 73
5
 74
0
 42
0.0000001
 43
0.0000001
 44
0.0000000001
 40
0.0
 40
0.0
 40
0.0
 40
0.0
 40
0.2456560834
 40
1.0
 40
1.0
 40
1.0
 40
1.0
 10
17.0202125963
 20
75.3565974598
 30
0.0
 10
17.0447777413
 20
75.3808431114
 30
0.0
 10
17.147029993
 20
75.4772407392
 30
0.0
 10
17.2579914343
 20
75.5643151483
 30
0.0
 10
17.3452322981
 20
75.6245002666
 30
0.0
  0
SPLINE
  5
368
100
AcDbEntity
  8
0
100
AcDbSpline
 62
7
  6
CONTINUOUS
 70
0
 71
3
 72
9
 73
5
 74
0
 42
0.0000001
 43
0.0000001
 44
0.0000000001
 40
0.0
 40
0.0
 40
0.0
 40
0.0
 40
0.2463985775
 40
1.0
 40
1.0
 40
1.0
 40
1.0
 10
17.4569516967
 20
50.6625767441
 30
0.0
 10
17.5957498794
 20
50.4315368109
 30
0.0
 10
18.2130148947
 20
49.5271041812
 30
0.0
 10
19.0260293428
 20
48.7584054206
 30
0.0
 10
19.7052987333
 20
48.2913681628
 30
0.0
  0
SPLINE
  5
369
100
AcDbEntity
  8
0
100
AcDbSpline
 62
7
  6
CONTINUOUS
 70
0
 71
3
 72
9
 73
5
 74
0
 42
0.0000001
 43
0.0000001
 44
0.0000000001
 40
0.0
 40
0.0
 40
0.0
 40
0.0
 40
0.2472705997
 40
1.0
 40
1.0
 40
1.0
 40
1.0
 10
17.51456659
 20
51.3663997494
 30
0.0
 10
17.6348143346
 20
51.1607372895
 30
0.0
 10
18.1621353992
 20
50.3535502395
 30
0.0
 10
18.8416168942
 20
49.6468420104
 30
0.0
 10
19.410713271
 20
49.1973036789
 30
0.0
  0
SPLINE
  5
36A
100
AcDbEntity
  8
0
100
AcDbSpline
 62
7
  6
CONTINUOUS
 70
0
 71
3
 72
9
 73
5
 74
0
 42
0.0000001
 43
0.0000001
 44
0.0000000001
 40
0.0
 40
0.0
 40
0.0
 40
0.0
 40
0.274830353
 40
1.0
 40
1.0
 40
1.0
 40
1.0
 10
17.3452172948
 20
75.6244055628
 30
0.0
 10
17.318335418
 20
75.5539012166
 30
0.0
 10
17.2269101854
 20
75.2948943113
 30
0.0
 10
17.1534771162
 20
75.0301163774
 30
0.0
 10
17.100594953
 20
74.8381709289
 30
0.0
  0
SPLINE
  5
36B
100
AcDbEntity
  8
0
100
AcDbSpline
 62
7
  6
CONTINUOUS
 70
0
 71
3
 72
9
 73
5
 74
0
 42
0.0000001
 43
0.0000001
 44
0.0000000001
 40
0.0
 40
0.0
 40
0.0
 40
0.0
 40
0.5250870174
 40
1.0
 40
1.0
 40
1.0
 40
1.0
 10
16.2853454219
 20
65.4841726613
 30
0.0
 10
16.2804207727
 20
66.219275638
 30
0.0
 10
16.3643359816
 20
67.6213581095
 30
0.0
 10
16.6095848623
 20
69.0021342776
 30
0.0
 10
16.7547433727
 20
69.6509710571
 30
0.0
  0
SPLINE
  5
36C
100
AcDbEntity
  8
0
100
AcDbSpline
 62
7
  6
CONTINUOUS
 70
0
 71
3
 72
20
 73
16
 74
0
 42
0.0000001
 43
0.0000001
 44
0.0000000001
 40
0.0
 40
0.0
 40
0.0
 40
0.0
 40
0.2112620295
 40
0.3984264576
 40
0.5597441959
 40
0.6294616351
 40
0.6915768651
 40
0.7460934542
 40
0.7933775585
 40
0.8342542272
 40
0.870075897
 40
0.9027247286
 40
0.9341972694
 40
0.9662256507
 40
1.0
 40
1.0
 40
1.0
 40
1.0
 10
16.7547433727
 20
69.6509710571
 30
0.0
 10
16.8540377186
 20
70.0948018973
 30
0.0
 10
17.0665181398
 20
70.9263513775
 30
0.0
 10
17.4164589454
 20
72.0795366816
 30
0.0
 10
17.690914234
 20
72.9370405287
 30
0.0
 10
17.8645072252
 20
73.5438742047
 30
0.0
 10
17.9598531336
 20
73.9337165251
 30
0.0
 10
18.0211698227
 20
74.2816136755
 30
0.0
 10
18.0442668842
 20
74.5885907981
 30
0.0
 10
18.0271911949
 20
74.8561199797
 30
0.0
 10
17.9671747531
 20
75.0857073295
 30
0.0
 10
17.8637134979
 20
75.2768502009
 30
0.0
 10
17.7219579183
 20
75.4306075642
 30
0.0
 10
17.5457189027
 20
75.546877497
 30
0.0
 10
17.4140243217
 20
75.6008321474
 30
0.0
 10
17.3452536541
 20
75.6244371429
 30
0.0
  0
SPLINE
  5
36D
100
AcDbEntity
  8
0
100
AcDbSpline
 62
7
  6
CONTINUOUS
 70
0
 71
3
 72
9
 73
5
 74
0
 42
0.0000001
 43
0.0000001
 44
0.0000000001
 40
0.0
 40
0.0
 40
0.0
 40
0.0
 40
0.2777530102
 40
1.0
 40
1.0
 40
1.0
 40
1.0
 10
16.1210826741
 20
65.2379229477
 30
0.0
 10
16.1405232623
 20
65.2574125318
 30
0.0
 10
16.2075496775
 20
65.3301993551
 30
0.0
 10
16.2620430062
 20
65.4164906278
 30
0.0
 10
16.2853454219
 20
65.4841726613
 30
0.0
  0
SPLINE
  5
36E
100
AcDbEntity
  8
0
100
AcDbSpline
 62
7
  6
CONTINUOUS
 70
0
 71
3
 72
9
 73
5
 74
0
 42
0.0000001
 43
0.0000001
 44
0.0000000001
 40
0.0
 40
0.0
 40
0.0
 40
0.0
 40
0.246738823
 40
1.0
 40
1.0
 40
1.0
 40
1.0
 10
16.2893804294
 20
54.6514604872
 30
0.0
 10
16.3068907663
 20
54.6233694079
 30
0.0
 10
16.3806160054
 20
54.5112553767
 30
0.0
 10
16.465197522
 20
54.4063393824
 30
0.0
 10
16.5337745912
 20
54.3321146666
 30
0.0
  0
SPLINE
  5
36F
100
AcDbEntity
  8
0
100
AcDbSpline
 62
7
  6
CONTINUOUS
 70
0
 71
3
 72
9
 73
5
 74
0
 42
0.0000001
 43
0.0000001
 44
0.0000000001
 40
0.0
 40
0.0
 40
0.0
 40
0.0
 40
0.2450637195
 40
1.0
 40
1.0
 40
1.0
 40
1.0
 10
16.5337745912
 20
54.3321146666
 30
0.0
 10
16.5571168976
 20
54.3068500106
 30
0.0
 10
16.6547141113
 20
54.2059398011
 30
0.0
 10
16.7614255606
 20
54.1139244881
 30
0.0
 10
16.8457696982
 20
54.0497823163
 30
0.0
  0
SPLINE
  5
370
100
AcDbEntity
  8
0
100
AcDbSpline
 62
7
  6
CONTINUOUS
 70
0
 71
3
 72
9
 73
5
 74
0
 42
0.0000001
 43
0.0000001
 44
0.0000000001
 40
0.0
 40
0.0
 40
0.0
 40
0.0
 40
0.4963878537
 40
1.0
 40
1.0
 40
1.0
 40
1.0
 10
15.5517063437
 20
56.2415839184
 30
0.0
 10
15.6798138568
 20
55.9768445145
 30
0.0
 10
15.9965954199
 20
55.4701427045
 30
0.0
 10
16.4109285364
 20
55.040378903
 30
0.0
 10
16.6377430356
 20
54.8464981623
 30
0.0
  0
SPLINE
  5
371
100
AcDbEntity
  8
0
100
AcDbSpline
 62
7
  6
CONTINUOUS
 70
0
 71
3
 72
9
 73
5
 74
0
 42
0.0000001
 43
0.0000001
 44
0.0000000001
 40
0.0
 40
0.0
 40
0.0
 40
0.0
 40
0.6232072239
 40
1.0
 40
1.0
 40
1.0
 40
1.0
 10
16.1222221539
 20
64.8596462431
 30
0.0
 10
16.1547254966
 20
64.8589787531
 30
0.0
 10
16.2068251143
 20
64.8578118019
 30
0.0
 10
16.2590825571
 20
64.8560668429
 30
0.0
 10
16.2786916439
 20
64.8574204758
 30
0.0
  0
SPLINE
  5
372
100
AcDbEntity
  8
0
100
AcDbSpline
 62
7
  6
CONTINUOUS
 70
0
 71
3
 72
23
 73
19
 74
0
 42
0.0000001
 43
0.0000001
 44
0.0000000001
 40
0.0
 40
0.0
 40
0.0
 40
0.0
 40
0.0068563757
 40
0.013091364
 40
0.0200163491
 40
0.0285733261
 40
0.0521083793
 40
0.0848007326
 40
0.1263945629
 40
0.1763675727
 40
0.2342279945
 40
0.2994590168
 40
0.371460162
 40
0.4495389143
 40
0.5329128704
 40
0.6207882068
 40
0.8067217953
 40
1.0
 40
1.0
 40
1.0
 40
1.0
 10
46.8320654471
 20
83.6538840727
 30
0.0
 10
46.8436085728
 20
83.6536426156
 30
0.0
 10
46.8660775915
 20
83.6501161142
 30
0.0
 10
46.8943881202
 20
83.629642752
 30
0.0
 10
46.9122512562
 20
83.5967667338
 30
0.0
 10
46.9266599094
 20
83.5322647042
 30
0.0
 10
46.9246123552
 20
83.4222987316
 30
0.0
 10
46.9088379713
 20
83.2586144458
 30
0.0
 10
46.8847266003
 20
83.0506517386
 30
0.0
 10
46.8604764647
 20
82.8001893938
 30
0.0
 10
46.8443937981
 20
82.5091300162
 30
0.0
 10
46.8326148614
 20
82.1808294083
 30
0.0
 10
46.8191592562
 20
81.8185065984
 30
0.0
 10
46.8024850551
 20
81.4257409529
 30
0.0
 10
46.7854348318
 20
81.0062352598
 30
0.0
 10
46.7643321006
 20
80.4051323064
 30
0.0
 10
46.7407805255
 20
79.6189410849
 30
0.0
 10
46.7229009209
 20
78.980624861
 30
0.0
 10
46.7145368354
 20
78.6552655502
 30
0.0
  0
SPLINE
  5
373
100
AcDbEntity
  8
0
100
AcDbSpline
 62
7
  6
CONTINUOUS
 70
0
 71
3
 72
21
 73
17
 74
0
 42
0.0000001
 43
0.0000001
 44
0.0000000001
 40
0.0
 40
0.0
 40
0.0
 40
0.0
 40
0.0017690133
 40
0.005158327
 40
0.0180488068
 40
0.0398540828
 40
0.071219962
 40
0.1125543148
 40
0.163501057
 40
0.2235100947
 40
0.2920284855
 40
0.3683413568
 40
0.4510902388
 40
0.6298148599
 40
0.8163388793
 40
1.0
 40
1.0
 40
1.0
 40
1.0
 10
24.2058595647
 20
78.0739112901
 30
0.0
 10
24.2033175842
 20
78.0725187766
 30
0.0
 10
24.2006496412
 20
78.0629905523
 30
0.0
 10
24.2048431368
 20
78.0345570876
 30
0.0
 10
24.2235759885
 20
77.9738620135
 30
0.0
 10
24.2633375474
 20
77.873787919
 30
0.0
 10
24.3255694453
 20
77.7316891371
 30
0.0
 10
24.4111944807
 20
77.5481924867
 30
0.0
 10
24.5199369599
 20
77.3235682165
 30
0.0
 10
24.6509078554
 20
77.0602996383
 30
0.0
 10
24.8029060261
 20
76.7610670033
 30
0.0
 10
24.9740943854
 20
76.4298108223
 30
0.0
 10
25.2308808546
 20
75.9395466563
 30
0.0
 10
25.5759927618
 20
75.291714198
 30
0.0
 10
26.0047790102
 20
74.5011541006
 30
0.0
 10
26.2972291408
 20
73.9697899089
 30
0.0
 10
26.4431049689
 20
73.7065965931
 30
0.0
  0
SPLINE
  5
374
100
AcDbEntity
  8
0
100
AcDbSpline
 62
7
  6
CONTINUOUS
 70
0
 71
3
 72
21
 73
17
 74
0
 42
0.0000001
 43
0.0000001
 44
0.0000000001
 40
0.0
 40
0.0
 40
0.0
 40
0.0
 40
0.1830230398
 40
0.3691027368
 40
0.5476643713
 40
0.6304355235
 40
0.7068340248
 40
0.7754942928
 40
0.8356832559
 40
0.8868269847
 40
0.9283544068
 40
0.9598902167
 40
0.9818299616
 40
0.9948088245
 40
0.9982217683
 40
1.0
 40
1.0
 40
1.0
 40
1.0
 10
25.9999492314
 20
73.4606132696
 30
0.0
 10
25.8545803456
 20
73.722891949
 30
0.0
 10
25.5629793355
 20
74.2526984888
 30
0.0
 10
25.1351438791
 20
75.0414519806
 30
0.0
 10
24.7904484613
 20
75.6884193756
 30
0.0
 10
24.5336667161
 20
76.1785835408
 30
0.0
 10
24.3622603783
 20
76.510187315
 30
0.0
 10
24.2099262536
 20
76.8099977218
 30
0.0
 10
24.0785392349
 20
77.0740081382
 30
0.0
 10
23.9693489124
 20
77.2994534833
 30
0.0
 10
23.8832931727
 20
77.4837595808
 30
0.0
 10
23.820690409
 20
77.6265903635
 30
0.0
 10
23.7806486739
 20
77.7272343322
 30
0.0
 10
23.7617515682
 20
77.7883205183
 30
0.0
 10
23.757490126
 20
77.816924397
 30
0.0
 10
23.760148602
 20
77.8265281996
 30
0.0
 10
23.7627038273
 20
77.8279279665
 30
0.0
  0
SPLINE
  5
375
100
AcDbEntity
  8
0
100
AcDbSpline
 62
7
  6
CONTINUOUS
 70
0
 71
3
 72
9
 73
5
 74
0
 42
0.0000001
 43
0.0000001
 44
0.0000000001
 40
0.0
 40
0.0
 40
0.0
 40
0.0
 40
0.478849735
 40
1.0
 40
1.0
 40
1.0
 40
1.0
 10
19.4107114724
 20
49.1973048874
 30
0.0
 10
19.4454597864
 20
49.0491806297
 30
0.0
 10
19.5354819123
 20
48.7439577162
 30
0.0
 10
19.6450762399
 20
48.4456168239
 30
0.0
 10
19.7052958762
 20
48.2913696052
 30
0.0
  0
SPLINE
  5
376
100
AcDbEntity
  8
0
100
AcDbSpline
 62
7
  6
CONTINUOUS
 70
0
 71
3
 72
16
 73
12
 74
0
 42
0.0000001
 43
0.0000001
 44
0.0000000001
 40
0.0
 40
0.0
 40
0.0
 40
0.0
 40
0.3166284578
 40
0.45729351
 40
0.5883034906
 40
0.7095491005
 40
0.8199238442
 40
0.8694138631
 40
0.9157882059
 40
0.9597493519
 40
1.0
 40
1.0
 40
1.0
 40
1.0
 10
16.8457602304
 20
54.049754026
 30
0.0
 10
17.1266004126
 20
53.5416773454
 30
0.0
 10
17.5501807364
 20
52.8179172289
 30
0.0
 10
18.0989038285
 20
51.8893382375
 30
0.0
 10
18.4609696571
 20
51.2664549573
 30
0.0
 10
18.7821672128
 20
50.6843422499
 30
0.0
 10
19.0191639629
 20
50.2262854513
 30
0.0
 10
19.1716013173
 20
49.8801096739
 30
0.0
 10
19.2661365599
 20
49.6417672715
 30
0.0
 10
19.3491010094
 20
49.4171722226
 30
0.0
 10
19.3938907884
 20
49.2691295934
 30
0.0
 10
19.4107457507
 20
49.1972818459
 30
0.0
  0
SPLINE
  5
377
100
AcDbEntity
  8
0
100
AcDbSpline
 62
7
  6
CONTINUOUS
 70
0
 71
3
 72
10
 73
6
 74
0
 42
0.0000001
 43
0.0000001
 44
0.0000000001
 40
0.0
 40
0.0
 40
0.0
 40
0.0
 40
0.2687684251
 40
0.5255825483
 40
1.0
 40
1.0
 40
1.0
 40
1.0
 10
16.2562679581
 20
64.228236496
 30
0.0
 10
16.2367649633
 20
63.8471322355
 30
0.0
 10
16.2221165791
 20
63.1003757396
 30
0.0
 10
16.2874894669
 20
61.6813184575
 30
0.0
 10
16.4243305231
 20
60.6498195792
 30
0.0
 10
16.5424764869
 20
59.9866740977
 30
0.0
  0
SPLINE
  5
378
100
AcDbEntity
  8
0
100
AcDbSpline
 62
7
  6
CONTINUOUS
 70
0
 71
3
 72
20
 73
16
 74
0
 42
0.0000001
 43
0.0000001
 44
0.0000000001
 40
0.0
 40
0.0
 40
0.0
 40
0.0
 40
0.2112118735
 40
0.3986500431
 40
0.5598588337
 40
0.6295502271
 40
0.6916432402
 40
0.7461982527
 40
0.793590437
 40
0.8345787857
 40
0.8703825768
 40
0.902789965
 40
0.9341863553
 40
0.9664025551
 40
1.0
 40
1.0
 40
1.0
 40
1.0
 10
16.5424764869
 20
59.9866740977
 30
0.0
 10
16.621439412
 20
59.5434604205
 30
0.0
 10
16.7949337144
 20
58.7111159693
 30
0.0
 10
17.0900715691
 20
57.5547697662
 30
0.0
 10
17.3217426272
 20
56.6936541795
 30
0.0
 10
17.4649015498
 20
56.0856834677
 30
0.0
 10
17.5400199514
 20
55.695492471
 30
0.0
 10
17.5837943384
 20
55.3482566521
 30
0.0
 10
17.5926668909
 20
55.0430042301
 30
0.0
 10
17.5620496598
 20
54.7788764526
 30
0.0
 10
17.4907936948
 20
54.5552599189
 30
0.0
 10
17.3756778443
 20
54.3735629683
 30
0.0
 10
17.2209936013
 20
54.2363535501
 30
0.0
 10
17.0411584361
 20
54.1318834215
 30
0.0
 10
16.9121459641
 20
54.0763512842
 30
0.0
 10
16.8456664995
 20
54.0497284798
 30
0.0
  0
SPLINE
  5
379
100
AcDbEntity
  8
0
100
AcDbSpline
 62
7
  6
CONTINUOUS
 70
0
 71
3
 72
11
 73
7
 74
0
 42
0.0000001
 43
0.0000001
 44
0.0000000001
 40
0.0
 40
0.0
 40
0.0
 40
0.0
 40
0.2499022811
 40
0.4999236665
 40
0.7499534522
 40
1.0
 40
1.0
 40
1.0
 40
1.0
 10
23.1422417477
 20
51.5607695773
 30
0.0
 10
22.730345985
 20
51.811177828
 30
0.0
 10
21.9348778189
 20
52.3602013787
 30
0.0
 10
20.831697886
 20
53.2993316093
 30
0.0
 10
19.8256147041
 20
54.3423452753
 30
0.0
 10
19.227299266
 20
55.101381161
 30
0.0
 10
18.9479640873
 20
55.4945765691
 30
0.0
  0
SPLINE
  5
37A
100
AcDbEntity
  8
0
100
AcDbSpline
 62
7
  6
CONTINUOUS
 70
0
 71
3
 72
23
 73
19
 74
0
 42
0.0000001
 43
0.0000001
 44
0.0000000001
 40
0.0
 40
0.0
 40
0.0
 40
0.0
 40
0.232353221
 40
0.4344416567
 40
0.6060529798
 40
0.6803636109
 40
0.7469757461
 40
0.8058632146
 40
0.857000083
 40
0.9003608281
 40
0.9359206997
 40
0.9636565998
 40
0.9745845673
 40
0.9835503244
 40
0.9905540708
 40
0.995600152
 40
0.998707522
 40
1.0
 40
1.0
 40
1.0
 40
1.0
 10
47.014425219
 20
86.9005449588
 30
0.0
 10
47.0053975657
 20
86.6487882163
 30
0.0
 10
46.9881819236
 20
86.1780787732
 30
0.0
 10
46.9628601605
 20
85.5214806537
 30
0.0
 10
46.942853996
 20
85.0361567091
 30
0.0
 10
46.9278724284
 20
84.6976366631
 30
0.0
 10
46.9177697686
 20
84.4812370204
 30
0.0
 10
46.9082577101
 20
84.2899622181
 30
0.0
 10
46.8993414172
 20
84.123901878
 30
0.0
 10
46.8910341486
 20
83.9831313261
 30
0.0
 10
46.8833447964
 20
83.8677635942
 30
0.0
 10
46.8770859512
 20
83.7874955861
 30
0.0
 10
46.8722393218
 20
83.7361339313
 30
0.0
 10
46.8690380432
 20
83.7070363543
 30
0.0
 10
46.8660935372
 20
83.6847258983
 30
0.0
 10
46.8631870996
 20
83.6678818788
 30
0.0
 10
46.8609310774
 20
83.6591106637
 30
0.0
 10
46.8586349555
 20
83.6533385388
 30
0.0
 10
46.8572338469
 20
83.6533147081
 30
0.0
  0
SPLINE
  5
37B
100
AcDbEntity
  8
0
100
AcDbSpline
 62
7
  6
CONTINUOUS
 70
0
 71
3
 72
15
 73
11
 74
0
 42
0.0000001
 43
0.0000001
 44
0.0000000001
 40
0.0
 40
0.0
 40
0.0
 40
0.0
 40
0.3853336499
 40
0.5450342248
 40
0.6822135412
 40
0.7965001491
 40
0.8876551215
 40
0.9555048579
 40
0.9806653741
 40
1.0
 40
1.0
 40
1.0
 40
1.0
 10
22.6711487389
 20
46.8211770652
 30
0.0
 10
22.7172697275
 20
47.4287811413
 30
0.0
 10
22.785421
 20
48.2880013786
 30
0.0
 10
22.881958838
 20
49.3625124363
 30
0.0
 10
22.9460447947
 20
50.0095559438
 30
0.0
 10
23.0062305998
 20
50.54804686
 30
0.0
 10
23.0625398669
 20
50.9765341891
 30
0.0
 10
23.1089490099
 20
51.2641954893
 30
0.0
 10
23.1461508267
 20
51.4379363928
 30
0.0
 10
23.1643633881
 20
51.5059841301
 30
0.0
 10
23.1738421604
 20
51.5350527754
 30
0.0
  0
SPLINE
  5
37C
100
AcDbEntity
  8
0
100
AcDbSpline
 62
7
  6
CONTINUOUS
 70
0
 71
3
 72
13
 73
9
 74
0
 42
0.0000001
 43
0.0000001
 44
0.0000000001
 40
0.0
 40
0.0
 40
0.0
 40
0.0
 40
0.3410285459
 40
0.6221175428
 40
0.7397680626
 40
0.8419811536
 40
0.9287026121
 40
1.0
 40
1.0
 40
1.0
 40
1.0
 10
25.716117615
 20
83.1486823693
 30
0.0
 10
25.6086910359
 20
82.5991689976
 30
0.0
 10
25.4027964396
 20
81.5986306996
 30
0.0
 10
25.1216844816
 20
80.4166217095
 30
0.0
 10
24.9000530608
 20
79.6244518768
 30
0.0
 10
24.7481897069
 20
79.1443900659
 30
0.0
 10
24.6008250838
 20
78.7431966005
 30
0.0
 10
24.4955720345
 20
78.5056443355
 30
0.0
 10
24.442162984
 20
78.4014794631
 30
0.0
  0
SPLINE
  5
37D
100
AcDbEntity
  8
0
100
AcDbSpline
 62
7
  6
CONTINUOUS
 70
0
 71
3
 72
9
 73
5
 74
0
 42
0.0000001
 43
0.0000001
 44
0.0000000001
 40
0.0
 40
0.0
 40
0.0
 40
0.0
 40
0.5479067151
 40
1.0
 40
1.0
 40
1.0
 40
1.0
 10
24.442162984
 20
78.4014794631
 30
0.0
 10
24.4114607953
 20
78.3416002939
 30
0.0
 10
24.3517785295
 20
78.2341208295
 30
0.0
 10
24.2810843942
 20
78.1331524358
 30
0.0
 10
24.2453742021
 20
78.0906353222
 30
0.0
  0
SPLINE
  5
37E
100
AcDbEntity
  8
0
100
AcDbSpline
 62
7
  6
CONTINUOUS
 70
0
 71
3
 72
24
 73
20
 74
0
 42
0.0000001
 43
0.0000001
 44
0.0000000001
 40
0.0
 40
0.0
 40
0.0
 40
0.0
 40
0.0629764884
 40
0.0938587103
 40
0.1237745659
 40
0.1807457869
 40
0.2348149607
 40
0.3379752474
 40
0.440661361
 40
0.5501716371
 40
0.6097719296
 40
0.6739650131
 40
0.7434642267
 40
0.7805145328
 40
0.8195363983
 40
0.8609138391
 40
0.9048729035
 40
0.9512824405
 40
1.0
 40
1.0
 40
1.0
 40
1.0
 10
47.0144252972
 20
86.9005469369
 30
0.0
 10
46.5591309069
 20
86.9110873071
 30
0.0
 10
45.8801016341
 20
86.9078544627
 30
0.0
 10
44.9854167064
 20
86.8816041271
 30
0.0
 10
44.1344408406
 20
86.8472883157
 30
0.0
 10
43.1166517779
 20
86.788830603
 30
0.0
 10
41.5733429088
 20
86.6540189019
 30
0.0
 10
39.7101669625
 20
86.391371247
 30
0.0
 10
37.4814314478
 20
85.9010873687
 30
0.0
 10
35.5824014221
 20
85.3939420025
 30
0.0
 10
33.9516028007
 20
84.9615656693
 30
0.0
 10
32.5961481969
 20
84.6199091773
 30
0.0
 10
31.3943276998
 20
84.3364690414
 30
0.0
 10
30.3665853625
 20
84.1085146345
 30
0.0
 10
29.5352934483
 20
83.9342245082
 30
0.0
 10
28.6525758778
 20
83.762175785
 30
0.0
 10
27.7156053148
 20
83.5896135363
 30
0.0
 10
26.7290780432
 20
83.3933069808
 30
0.0
 10
26.0588630104
 20
83.2372065673
 30
0.0
 10
25.7177681325
 20
83.1490513622
 30
0.0
  0
SPLINE
  5
37F
100
AcDbEntity
  8
0
100
AcDbSpline
 62
7
  6
CONTINUOUS
 70
0
 71
3
 72
13
 73
9
 74
0
 42
0.0000001
 43
0.0000001
 44
0.0000000001
 40
0.0
 40
0.0
 40
0.0
 40
0.0
 40
0.1248316087
 40
0.2498670295
 40
0.3749041775
 40
0.4999517573
 40
0.7499689827
 40
1.0
 40
1.0
 40
1.0
 40
1.0
 10
23.7501768102
 20
77.8193932765
 30
0.0
 10
23.5388411114
 20
77.7043675204
 30
0.0
 10
23.1220990164
 20
77.4623203176
 30
0.0
 10
22.5191170812
 20
77.0634596355
 30
0.0
 10
21.936691172
 20
76.634520103
 30
0.0
 10
21.1886867073
 20
76.0260089074
 30
0.0
 10
20.3112650488
 20
75.1972837689
 30
0.0
 10
19.6786862964
 20
74.4676365589
 30
0.0
 10
19.3815141368
 20
74.0882339714
 30
0.0
  0
SPLINE
  5
380
100
AcDbEntity
  8
0
100
AcDbSpline
 62
7
  6
CONTINUOUS
 70
0
 71
3
 72
13
 73
9
 74
0
 42
0.0000001
 43
0.0000001
 44
0.0000000001
 40
0.0
 40
0.0
 40
0.0
 40
0.0
 40
0.3378719393
 40
0.6178889618
 40
0.7358034891
 40
0.8388177425
 40
0.9268699247
 40
1.0
 40
1.0
 40
1.0
 40
1.0
 10
24.8595284706
 20
46.1459396473
 30
0.0
 10
24.7793782435
 20
46.6881255404
 30
0.0
 10
24.6231904068
 20
47.6782704814
 30
0.0
 10
24.402277074
 20
48.8515918988
 30
0.0
 10
24.2220464025
 20
49.6440570214
 30
0.0
 10
24.0954005407
 20
50.12913507
 30
0.0
 10
23.9695255111
 20
50.538932356
 30
0.0
 10
23.8778229458
 20
50.7841219646
 30
0.0
 10
23.8306967244
 20
50.8929873199
 30
0.0
  0
SPLINE
  5
381
100
AcDbEntity
  8
0
100
AcDbSpline
 62
7
  6
CONTINUOUS
 70
0
 71
3
 72
9
 73
5
 74
0
 42
0.0000001
 43
0.0000001
 44
0.0000000001
 40
0.0
 40
0.0
 40
0.0
 40
0.0
 40
0.5532246551
 40
1.0
 40
1.0
 40
1.0
 40
1.0
 10
23.8306967244
 20
50.8929873199
 30
0.0
 10
23.7993581941
 20
50.9653818412
 30
0.0
 10
23.7382671998
 20
51.0943790234
 30
0.0
 10
23.6630626445
 20
51.2162667299
 30
0.0
 10
23.6243848271
 20
51.2668894706
 30
0.0
  0
SPLINE
  5
382
100
AcDbEntity
  8
0
100
AcDbSpline
 62
7
  6
CONTINUOUS
 70
0
 71
3
 72
15
 73
11
 74
0
 42
0.0000001
 43
0.0000001
 44
0.0000000001
 40
0.0
 40
0.0
 40
0.0
 40
0.0
 40
0.3850672412
 40
0.5445945227
 40
0.6816930286
 40
0.7960525869
 40
0.8873772244
 40
0.9554051638
 40
0.9806306444
 40
1.0
 40
1.0
 40
1.0
 40
1.0
 10
23.4977090343
 20
82.5756603459
 30
0.0
 10
23.5157355623
 20
81.9669725039
 30
0.0
 10
23.5441914153
 20
81.1061849527
 30
0.0
 10
23.5911309375
 20
80.0291488897
 30
0.0
 10
23.6253543007
 20
79.3801020573
 30
0.0
 10
23.6606667036
 20
78.839132412
 30
0.0
 10
23.6971753603
 20
78.4078214227
 30
0.0
 10
23.7302847265
 20
78.1176587186
 30
0.0
 10
23.7594683418
 20
77.9419404064
 30
0.0
 10
23.7745484194
 20
77.8729653419
 30
0.0
 10
23.7826986511
 20
77.8434383652
 30
0.0
  0
SPLINE
  5
383
100
AcDbEntity
  8
0
100
AcDbSpline
 62
7
  6
CONTINUOUS
 70
0
 71
3
 72
16
 73
12
 74
0
 42
0.0000001
 43
0.0000001
 44
0.0000000001
 40
0.0
 40
0.0
 40
0.0
 40
0.0
 40
0.0061203394
 40
0.0187745056
 40
0.0665749113
 40
0.1450918701
 40
0.2544603885
 40
0.3946800771
 40
0.5657128493
 40
0.7675060055
 40
1.0
 40
1.0
 40
1.0
 40
1.0
 10
47.1716412761
 20
90.1477520849
 30
0.0
 10
47.1708929356
 20
90.1477583455
 30
0.0
 10
47.1692053067
 20
90.1455539785
 30
0.0
 10
47.1667780714
 20
90.1382278622
 30
0.0
 10
47.1633666815
 20
90.1211074255
 30
0.0
 10
47.159609239
 20
90.092784559
 30
0.0
 10
47.1553466464
 20
90.0527781754
 30
0.0
 10
47.1508383659
 20
90.0015859066
 30
0.0
 10
47.1460200979
 20
89.9390220434
 30
0.0
 10
47.1409344242
 20
89.8651860893
 30
0.0
 10
47.1375976653
 20
89.8121867274
 30
0.0
 10
47.1358722708
 20
89.7838108481
 30
0.0
  0
SPLINE
  5
384
100
AcDbEntity
  8
0
100
AcDbSpline
 62
7
  6
CONTINUOUS
 70
0
 71
3
 72
10
 73
6
 74
0
 42
0.0000001
 43
0.0000001
 44
0.0000000001
 40
0.0
 40
0.0
 40
0.0
 40
0.0
 40
0.157496291
 40
0.3770381279
 40
1.0
 40
1.0
 40
1.0
 40
1.0
 10
47.1358722708
 20
89.7838108481
 30
0.0
 10
47.12667696
 20
89.6325845426
 30
0.0
 10
47.1081827856
 20
89.2703480845
 30
0.0
 10
47.0658890758
 20
88.3093161983
 30
0.0
 10
47.0358990216
 20
87.4994030964
 30
0.0
 10
47.0144239527
 20
86.9005217216
 30
0.0
  0
SPLINE
  5
385
100
AcDbEntity
  8
0
100
AcDbSpline
 62
7
  6
CONTINUOUS
 70
0
 71
3
 72
18
 73
14
 74
0
 42
0.0000001
 43
0.0000001
 44
0.0000000001
 40
0.0
 40
0.0
 40
0.0
 40
0.0
 40
0.1203926523
 40
0.2226964383
 40
0.3071879664
 40
0.3786971045
 40
0.4988588046
 40
0.5521100675
 40
0.6027083703
 40
0.6998564413
 40
0.7968090571
 40
0.8964141039
 40
1.0
 40
1.0
 40
1.0
 40
1.0
 10
19.7049971413
 20
48.2915273575
 30
0.0
 10
19.777642497
 20
48.093372158
 30
0.0
 10
19.9026204601
 20
47.7232226212
 30
0.0
 10
20.0316770088
 20
47.1992641547
 30
0.0
 10
20.0748467011
 20
46.7461937193
 30
0.0
 10
20.0376432119
 20
46.2620973524
 30
0.0
 10
19.9047167127
 20
45.8438384361
 30
0.0
 10
19.6880624227
 20
45.5141310885
 30
0.0
 10
19.4469054498
 20
45.2552904285
 30
0.0
 10
19.0827096273
 20
45.0152443827
 30
0.0
 10
18.585191783
 20
44.8626995213
 30
0.0
 10
18.056678983
 20
44.8261000136
 30
0.0
 10
17.7010245808
 20
44.868870449
 30
0.0
 10
17.522903545
 20
44.9041899023
 30
0.0
  0
SPLINE
  5
386
100
AcDbEntity
  8
0
100
AcDbSpline
 62
7
  6
CONTINUOUS
 70
0
 71
3
 72
9
 73
5
 74
0
 42
0.0000001
 43
0.0000001
 44
0.0000000001
 40
0.0
 40
0.0
 40
0.0
 40
0.0
 40
0.2690057689
 40
1.0
 40
1.0
 40
1.0
 40
1.0
 10
22.6712790454
 20
46.8212228973
 30
0.0
 10
22.386923968
 20
46.9089119999
 30
0.0
 10
21.3452803134
 20
47.283972188
 30
0.0
 10
20.3662768043
 20
47.8256928789
 30
0.0
 10
19.7053252578
 20
48.2915202101
 30
0.0
  0
SPLINE
  5
387
100
AcDbEntity
  8
0
100
AcDbSpline
 62
7
  6
CONTINUOUS
 70
0
 71
3
 72
9
 73
5
 74
0
 42
0.0000001
 43
0.0000001
 44
0.0000000001
 40
0.0
 40
0.0
 40
0.0
 40
0.0
 40
0.2460885254
 40
1.0
 40
1.0
 40
1.0
 40
1.0
 10
11.04230407
 20
71.9441272137
 30
0.0
 10
11.0488728947
 20
71.9715392308
 30
0.0
 10
11.0782308451
 20
72.082281231
 30
0.0
 10
11.1181008617
 20
72.1901821852
 30
0.0
 10
11.1531795897
 20
72.2690929689
 30
0.0
  0
SPLINE
  5
388
100
AcDbEntity
  8
0
100
AcDbSpline
 62
7
  6
CONTINUOUS
 70
0
 71
3
 72
9
 73
5
 74
0
 42
0.0000001
 43
0.0000001
 44
0.0000000001
 40
0.0
 40
0.0
 40
0.0
 40
0.0
 40
0.2437672874
 40
1.0
 40
1.0
 40
1.0
 40
1.0
 10
11.1531795897
 20
72.2690929689
 30
0.0
 10
11.1667947835
 20
72.2997208072
 30
0.0
 10
11.2257728533
 20
72.4239640515
 30
0.0
 10
11.2968868275
 20
72.5423473729
 30
0.0
 10
11.3559969114
 20
72.627893127
 30
0.0
  0
SPLINE
  5
389
100
AcDbEntity
  8
0
100
AcDbSpline
 62
7
  6
CONTINUOUS
 70
0
 71
3
 72
14
 73
10
 74
0
 42
0.0000001
 43
0.0000001
 44
0.0000000001
 40
0.0
 40
0.0
 40
0.0
 40
0.0
 40
0.0527578731
 40
0.1265199253
 40
0.2212032728
 40
0.3366012812
 40
0.4724604576
 40
0.6285057396
 40
1.0
 40
1.0
 40
1.0
 40
1.0
 10
22.1788758661
 20
42.6599148465
 30
0.0
 10
22.2028112296
 20
42.72969599
 30
0.0
 10
22.2460206598
 20
42.9016852354
 30
0.0
 10
22.3033085203
 20
43.2056125415
 30
0.0
 10
22.3620879182
 20
43.5982503033
 30
0.0
 10
22.4223492008
 20
44.0782247953
 30
0.0
 10
22.4837737426
 20
44.644465929
 30
0.0
 10
22.5723602519
 20
45.5678783175
 30
0.0
 10
22.6319617437
 20
46.3031749444
 30
0.0
 10
22.6712739356
 20
46.8211504623
 30
0.0
  0
SPLINE
  5
38A
100
AcDbEntity
  8
0
100
AcDbSpline
 62
7
  6
CONTINUOUS
 70
0
 71
3
 72
9
 73
5
 74
0
 42
0.0000001
 43
0.0000001
 44
0.0000000001
 40
0.0
 40
0.0
 40
0.0
 40
0.0
 40
0.2489530177
 40
1.0
 40
1.0
 40
1.0
 40
1.0
 10
22.1755423228
 20
42.648513127
 30
0.0
 10
22.1764835493
 20
42.6482155086
 30
0.0
 10
22.1764278055
 20
42.6549893671
 30
0.0
 10
22.1777155426
 20
42.657141843
 30
0.0
 10
22.1784033444
 20
42.6600394142
 30
0.0
  0
SPLINE
  5
38B
100
AcDbEntity
  8
0
100
AcDbSpline
 62
7
  6
CONTINUOUS
 70
0
 71
3
 72
9
 73
5
 74
0
 42
0.0000001
 43
0.0000001
 44
0.0000000001
 40
0.0
 40
0.0
 40
0.0
 40
0.0
 40
0.3795838719
 40
1.0
 40
1.0
 40
1.0
 40
1.0
 10
15.6958538586
 20
82.4379841329
 30
0.0
 10
15.6918220466
 20
82.432221886
 30
0.0
 10
15.6916894911
 20
82.4114041052
 30
0.0
 10
15.7004298608
 20
82.3951824818
 30
0.0
 10
15.7060834043
 20
82.3851741962
 30
0.0
  0
SPLINE
  5
38C
100
AcDbEntity
  8
0
100
AcDbSpline
 62
7
  6
CONTINUOUS
 70
0
 71
3
 72
9
 73
5
 74
0
 42
0.0000001
 43
0.0000001
 44
0.0000000001
 40
0.0
 40
0.0
 40
0.0
 40
0.0
 40
0.2561019745
 40
1.0
 40
1.0
 40
1.0
 40
1.0
 10
14.9128197323
 20
47.3397304139
 30
0.0
 10
14.9548296565
 20
47.2631442292
 30
0.0
 10
15.1290764473
 20
46.9699026609
 30
0.0
 10
15.345228445
 20
46.7008633389
 30
0.0
 10
15.5273012298
 20
46.5241486955
 30
0.0
  0
SPLINE
  5
38D
100
AcDbEntity
  8
0
100
AcDbSpline
 62
7
  6
CONTINUOUS
 70
0
 71
3
 72
9
 73
5
 74
0
 42
0.0000001
 43
0.0000001
 44
0.0000000001
 40
0.0
 40
0.0
 40
0.0
 40
0.0
 40
0.519111873
 40
1.0
 40
1.0
 40
1.0
 40
1.0
 10
17.5232498846
 20
44.9040069158
 30
0.0
 10
17.2277446183
 20
45.1156122465
 30
0.0
 10
16.6747638598
 20
45.5466004177
 30
0.0
 10
16.1584596777
 20
46.0205095435
 30
0.0
 10
15.9182173898
 20
46.2564039872
 30
0.0
  0
SPLINE
  5
38E
100
AcDbEntity
  8
0
100
AcDbSpline
 62
7
  6
CONTINUOUS
 70
0
 71
3
 72
9
 73
5
 74
0
 42
0.0000001
 43
0.0000001
 44
0.0000000001
 40
0.0
 40
0.0
 40
0.0
 40
0.0
 40
0.297451318
 40
1.0
 40
1.0
 40
1.0
 40
1.0
 10
17.5186071316
 20
44.8807279259
 30
0.0
 10
17.5166212984
 20
44.8820804977
 30
0.0
 10
17.5184764581
 20
44.8924434596
 30
0.0
 10
17.5210487414
 20
44.8987820548
 30
0.0
 10
17.5232290984
 20
44.9040214155
 30
0.0
  0
SPLINE
  5
38F
100
AcDbEntity
  8
0
100
AcDbSpline
 62
7
  6
CONTINUOUS
 70
0
 71
3
 72
21
 73
17
 74
0
 42
0.0000001
 43
0.0000001
 44
0.0000000001
 40
0.0
 40
0.0
 40
0.0
 40
0.0
 40
0.001778232
 40
0.0051911758
 40
0.0181700379
 40
0.0401097822
 40
0.0716455936
 40
0.1131730172
 40
0.1643167448
 40
0.2245057064
 40
0.2931659745
 40
0.3695644768
 40
0.4523356292
 40
0.6308972628
 40
0.8169769598
 40
1.0
 40
1.0
 40
1.0
 40
1.0
 10
23.154362069
 20
51.551667085
 30
0.0
 10
23.1518743615
 20
51.5531836066
 30
0.0
 10
23.1496631873
 20
51.5629001496
 30
0.0
 10
23.1552438117
 20
51.5912761677
 30
0.0
 10
23.1769476611
 20
51.6514223668
 30
0.0
 10
23.2216041672
 20
51.7501054228
 30
0.0
 10
23.2907498853
 20
51.8898859986
 30
0.0
 10
23.3852428735
 20
52.0700120774
 30
0.0
 10
23.5047495263
 20
52.2901626827
 30
0.0
 10
23.6482138342
 20
52.5478098029
 30
0.0
 10
23.8142595848
 20
52.8402491536
 30
0.0
 10
24.0008284717
 20
53.1635651721
 30
0.0
 10
24.2800192622
 20
53.6413206288
 30
0.0
 10
24.6542861836
 20
54.2716427772
 30
0.0
 10
25.1181657442
 20
55.0397514934
 30
0.0
 10
25.4339730918
 20
55.5554954595
 30
0.0
 10
25.5913241463
 20
55.8107656392
 30
0.0
  0
SPLINE
  5
390
100
AcDbEntity
  8
0
100
AcDbSpline
 62
7
  6
CONTINUOUS
 70
0
 71
3
 72
21
 73
17
 74
0
 42
0.0000001
 43
0.0000001
 44
0.0000000001
 40
0.0
 40
0.0
 40
0.0
 40
0.0
 40
0.1836610864
 40
0.3701851137
 40
0.5489098016
 40
0.6316586699
 40
0.7079714643
 40
0.7764898481
 40
0.8364989976
 40
0.8874458206
 40
0.9287800729
 40
0.9601458353
 40
0.9819511526
 40
0.9948416978
 40
0.9982310124
 40
1.0
 40
1.0
 40
1.0
 40
1.0
 10
26.0226212783
 20
55.5445371903
 30
0.0
 10
25.8647215239
 20
55.2883768594
 30
0.0
 10
25.5479938909
 20
54.7711162402
 30
0.0
 10
25.0830809232
 20
54.0012467774
 30
0.0
 10
24.7083578509
 20
53.3700796806
 30
0.0
 10
24.4291577117
 20
52.8922245862
 30
0.0
 10
24.2428227585
 20
52.5692458223
 30
0.0
 10
24.0771393403
 20
52.2773680178
 30
0.0
 10
23.9341248624
 20
52.0204424254
 30
0.0
 10
23.8151034604
 20
51.8010911705
 30
0.0
 10
23.7210782743
 20
51.6217539417
 30
0.0
 10
23.6523371471
 20
51.4826876124
 30
0.0
 10
23.6079868211
 20
51.3845609276
 30
0.0
 10
23.5864651652
 20
51.3247975684
 30
0.0
 10
23.5809600919
 20
51.2965886893
 30
0.0
 10
23.5831843518
 20
51.286947157
 30
0.0
 10
23.5856592012
 20
51.2854386363
 30
0.0
  0
SPLINE
  5
391
100
AcDbEntity
  8
0
100
AcDbSpline
 62
7
  6
CONTINUOUS
 70
0
 71
3
 72
23
 73
19
 74
0
 42
0.0000001
 43
0.0000001
 44
0.0000000001
 40
0.0
 40
0.0
 40
0.0
 40
0.0
 40
0.1932806498
 40
0.3791112124
 40
0.4669845349
 40
0.5503538573
 40
0.6284148212
 40
0.7004111411
 40
0.7656515785
 40
0.82352529
 40
0.8735236656
 40
0.915133388
 40
0.9478453437
 40
0.97139582
 40
0.9799508446
 40
0.9868690744
 40
0.9931212184
 40
1.0
 40
1.0
 40
1.0
 40
1.0
 10
46.0433155798
 20
49.6630344869
 30
0.0
 10
46.0370449261
 20
49.3376217032
 30
0.0
 10
46.0251008034
 20
48.6993332221
 30
0.0
 10
46.011877505
 20
47.9130660597
 30
0.0
 10
46.0054393676
 20
47.3118076324
 30
0.0
 10
46.0030446953
 20
46.8920011224
 30
0.0
 10
46.0013261403
 20
46.4989282002
 30
0.0
 10
45.9980666655
 20
46.1363919866
 30
0.0
 10
45.9944392563
 20
45.8078614626
 30
0.0
 10
45.9976580236
 20
45.5162994762
 30
0.0
 10
46.0099302421
 20
45.2648720217
 30
0.0
 10
46.0244977364
 20
45.0559287364
 30
0.0
 10
46.0323875606
 20
44.8915539313
 30
0.0
 10
46.0290967954
 20
44.7816265317
 30
0.0
 10
46.0122069316
 20
44.7177461907
 30
0.0
 10
45.9930071427
 20
44.685567126
 30
0.0
 10
45.9636276283
 20
44.6665113508
 30
0.0
 10
45.9409683313
 20
44.664038597
 30
0.0
 10
45.9293886007
 20
44.6643325804
 30
0.0
  0
SPLINE
  5
392
100
AcDbEntity
  8
0
100
AcDbSpline
 62
7
  6
CONTINUOUS
 70
0
 71
3
 72
9
 73
5
 74
0
 42
0.0000001
 43
0.0000001
 44
0.0000000001
 40
0.0
 40
0.0
 40
0.0
 40
0.0
 40
0.2568182811
 40
1.0
 40
1.0
 40
1.0
 40
1.0
 10
11.0015991046
 20
57.3202968999
 30
0.0
 10
10.9828914258
 20
57.3502458761
 30
0.0
 10
10.9125793138
 20
57.4684115851
 30
0.0
 10
10.8527448939
 20
57.5929069682
 30
0.0
 10
10.8156023067
 20
57.6881028103
 30
0.0
  0
SPLINE
  5
393
100
AcDbEntity
  8
0
100
AcDbSpline
 62
7
  6
CONTINUOUS
 70
0
 71
3
 72
9
 73
5
 74
0
 42
0.0000001
 43
0.0000001
 44
0.0000000001
 40
0.0
 40
0.0
 40
0.0
 40
0.0
 40
0.2547706668
 40
1.0
 40
1.0
 40
1.0
 40
1.0
 10
10.8156023067
 20
57.6881028103
 30
0.0
 10
10.8042883574
 20
57.7171002769
 30
0.0
 10
10.76251595
 20
57.8319213969
 30
0.0
 10
10.7316512527
 20
57.9507713446
 30
0.0
 10
10.715724006
 20
58.040415486
 30
0.0
  0
SPLINE
  5
394
100
AcDbEntity
  8
0
100
AcDbSpline
 62
7
  6
CONTINUOUS
 70
0
 71
3
 72
9
 73
5
 74
0
 42
0.0000001
 43
0.0000001
 44
0.0000000001
 40
0.0
 40
0.0
 40
0.0
 40
0.0
 40
0.2523952985
 40
1.0
 40
1.0
 40
1.0
 40
1.0
 10
14.9008277058
 20
80.8802291758
 30
0.0
 10
14.9193468029
 20
80.9489723685
 30
0.0
 10
15.0003303131
 20
81.2192097895
 30
0.0
 10
15.1127971506
 20
81.4801585518
 30
0.0
 10
15.2139152905
 20
81.665213204
 30
0.0
  0
SPLINE
  5
395
100
AcDbEntity
  8
0
100
AcDbSpline
 62
7
  6
CONTINUOUS
 70
0
 71
3
 72
9
 73
5
 74
0
 42
0.0000001
 43
0.0000001
 44
0.0000000001
 40
0.0
 40
0.0
 40
0.0
 40
0.0
 40
0.2437446195
 40
1.0
 40
1.0
 40
1.0
 40
1.0
 10
16.3766330663
 20
83.2031654587
 30
0.0
 10
16.3144525481
 20
83.1481692244
 30
0.0
 10
16.0686825004
 20
82.9121018905
 30
0.0
 10
15.8601220205
 20
82.6380795112
 30
0.0
 10
15.7259983745
 20
82.4182003404
 30
0.0
  0
SPLINE
  5
396
100
AcDbEntity
  8
0
100
AcDbSpline
 62
7
  6
CONTINUOUS
 70
0
 71
3
 72
13
 73
9
 74
0
 42
0.0000001
 43
0.0000001
 44
0.0000000001
 40
0.0
 40
0.0
 40
0.0
 40
0.0
 40
0.128076758
 40
0.261783339
 40
0.3973432317
 40
0.5305673469
 40
0.7792930715
 40
1.0
 40
1.0
 40
1.0
 40
1.0
 10
11.3560247964
 20
72.627933482
 30
0.0
 10
11.3638903432
 20
72.8181808005
 30
0.0
 10
11.3923284222
 20
73.2065931385
 30
0.0
 10
11.4681550742
 20
73.7927196838
 30
0.0
 10
11.5792384209
 20
74.3810774062
 30
0.0
 10
11.7663269011
 20
75.1277143482
 30
0.0
 10
12.0530888181
 20
75.9784081762
 30
0.0
 10
12.341537538
 20
76.6151374853
 30
0.0
 10
12.4902779869
 20
76.9076100007
 30
0.0
  0
SPLINE
  5
397
100
AcDbEntity
  8
0
100
AcDbSpline
 62
7
  6
CONTINUOUS
 70
0
 71
3
 72
9
 73
5
 74
0
 42
0.0000001
 43
0.0000001
 44
0.0000000001
 40
0.0
 40
0.0
 40
0.0
 40
0.0
 40
0.5420413854
 40
1.0
 40
1.0
 40
1.0
 40
1.0
 10
12.5136899201
 20
76.9533705744
 30
0.0
 10
12.7750000381
 20
77.4610807142
 30
0.0
 10
13.3335662398
 20
78.3604137944
 30
0.0
 10
14.0141884949
 20
79.1686091761
 30
0.0
 10
14.3484056971
 20
79.5165187796
 30
0.0
  0
SPLINE
  5
398
100
AcDbEntity
  8
0
100
AcDbSpline
 62
7
  6
CONTINUOUS
 70
0
 71
3
 72
9
 73
5
 74
0
 42
0.0000001
 43
0.0000001
 44
0.0000000001
 40
0.0
 40
0.0
 40
0.0
 40
0.0
 40
0.7510470642
 40
1.0
 40
1.0
 40
1.0
 40
1.0
 10
23.1992839247
 20
86.7551949662
 30
0.0
 10
23.1987309326
 20
86.7581212579
 30
0.0
 10
23.1975441101
 20
86.7603309593
 30
0.0
 10
23.1979133742
 20
86.7670950742
 30
0.0
 10
23.1969593903
 20
86.7668413081
 30
0.0
  0
SPLINE
  5
399
100
AcDbEntity
  8
0
100
AcDbSpline
 62
7
  6
CONTINUOUS
 70
0
 71
3
 72
9
 73
5
 74
0
 42
0.0000001
 43
0.0000001
 44
0.0000000001
 40
0.0
 40
0.0
 40
0.0
 40
0.0
 40
0.2977984979
 40
1.0
 40
1.0
 40
1.0
 40
1.0
 10
18.441689097
 20
84.7525221539
 30
0.0
 10
18.4396447308
 20
84.7512539178
 30
0.0
 10
18.4410773037
 20
84.7408173882
 30
0.0
 10
18.4433463319
 20
84.7343699138
 30
0.0
 10
18.4452877648
 20
84.7290396612
 30
0.0
  0
SPLINE
  5
39A
100
AcDbEntity
  8
0
100
AcDbSpline
 62
7
  6
CONTINUOUS
 70
0
 71
3
 72
15
 73
11
 74
0
 42
0.0000001
 43
0.0000001
 44
0.0000000001
 40
0.0
 40
0.0
 40
0.0
 40
0.0
 40
0.124990081
 40
0.1874876888
 40
0.2499968604
 40
0.3750168889
 40
0.5000371947
 40
0.7500648152
 40
0.8750609644
 40
1.0
 40
1.0
 40
1.0
 40
1.0
 10
27.187330531
 20
87.7273016086
 30
0.0
 10
27.8334304658
 20
87.8847414315
 30
0.0
 10
28.8123343337
 20
88.0802842241
 30
0.0
 10
30.122008589
 20
88.3119387617
 30
0.0
 10
31.4340786981
 20
88.5314477164
 30
0.0
 10
33.0777792453
 20
88.7838898025
 30
0.0
 10
35.7126315814
 20
89.1534187243
 30
0.0
 10
38.3531844597
 20
89.4803614423
 30
0.0
 10
40.9980477545
 20
89.7643660161
 30
0.0
 10
42.3221074028
 20
89.8884085873
 30
0.0
 10
42.9845795984
 20
89.9431979647
 30
0.0
  0
LINE
  5
39B
100
AcDbEntity
  8
0
100
AcDbLine
 62
7
  6
CONTINUOUS
 10
42.9845795984
 20
89.9431979647
 11
43.0213218039
 21
89.946229196
  0
SPLINE
  5
39C
100
AcDbEntity
  8
0
100
AcDbSpline
 62
7
  6
CONTINUOUS
 70
0
 71
3
 72
9
 73
5
 74
0
 42
0.0000001
 43
0.0000001
 44
0.0000000001
 40
0.0
 40
0.0
 40
0.0
 40
0.0
 40
0.2955696745
 40
1.0
 40
1.0
 40
1.0
 40
1.0
 10
27.1915369783
 20
87.7386760929
 30
0.0
 10
27.1934932132
 20
87.7391569149
 30
0.0
 10
27.2034978498
 20
87.7371885932
 30
0.0
 10
27.1913396618
 20
87.7299451636
 30
0.0
 10
27.1873296977
 20
87.7273050296
 30
0.0
  0
SPLINE
  5
39D
100
AcDbEntity
  8
0
100
AcDbSpline
 62
7
  6
CONTINUOUS
 70
0
 71
3
 72
14
 73
10
 74
0
 42
0.0000001
 43
0.0000001
 44
0.0000000001
 40
0.0
 40
0.0
 40
0.0
 40
0.0
 40
0.0666772544
 40
0.1493742296
 40
0.2488069358
 40
0.3652351612
 40
0.4986923772
 40
0.649089731
 40
1.0
 40
1.0
 40
1.0
 40
1.0
 10
27.1825897376
 20
87.7261514203
 30
0.0
 10
27.1123195018
 20
87.6447718778
 30
0.0
 10
26.9758792425
 20
87.4445811423
 30
0.0
 10
26.7931449114
 20
87.0868971242
 30
0.0
 10
26.6108425968
 20
86.6408074163
 30
0.0
 10
26.4291810048
 20
86.1073900787
 30
0.0
 10
26.2481970837
 20
85.4876340298
 30
0.0
 10
25.9948071844
 20
84.4957701504
 30
0.0
 10
25.8272447986
 20
83.7045674929
 30
0.0
 10
25.7185486742
 20
83.1492475205
 30
0.0
  0
SPLINE
  5
39E
100
AcDbEntity
  8
0
100
AcDbSpline
 62
7
  6
CONTINUOUS
 70
0
 71
3
 72
14
 73
10
 74
0
 42
0.0000001
 43
0.0000001
 44
0.0000000001
 40
0.0
 40
0.0
 40
0.0
 40
0.0
 40
0.0527585498
 40
0.1265209058
 40
0.2212042677
 40
0.336602093
 40
0.4724609833
 40
0.6285059711
 40
1.0
 40
1.0
 40
1.0
 40
1.0
 10
23.1997627194
 20
86.7552979931
 30
0.0
 10
23.2204428404
 20
86.684482865
 30
0.0
 10
23.2556464858
 20
86.510676839
 30
0.0
 10
23.2988076036
 20
86.2044225264
 30
0.0
 10
23.3393532721
 20
85.809485016
 30
0.0
 10
23.3773373856
 20
85.3272365809
 30
0.0
 10
23.4124912058
 20
84.7587605303
 30
0.0
 10
23.4582484748
 20
83.8322389371
 30
0.0
 10
23.4837574791
 20
83.0949725479
 30
0.0
 10
23.4990562601
 20
82.575732985
 30
0.0
  0
SPLINE
  5
39F
100
AcDbEntity
  8
0
100
AcDbSpline
 62
7
  6
CONTINUOUS
 70
0
 71
3
 72
8
 73
4
 74
0
 42
0.0000001
 43
0.0000001
 44
0.0000000001
 40
0.0
 40
0.0
 40
0.0
 40
0.0
 40
1.0
 40
1.0
 40
1.0
 40
1.0
 10
27.1873296977
 20
87.7273050296
 30
0.0
 10
25.8581480525
 20
87.402584218
 30
0.0
 10
24.5284416858
 20
87.0800135273
 30
0.0
 10
23.1992839247
 20
86.7551949662
 30
0.0
  0
SPLINE
  5
3A0
100
AcDbEntity
  8
0
100
AcDbSpline
 62
7
  6
CONTINUOUS
 70
0
 71
3
 72
18
 73
14
 74
0
 42
0.0000001
 43
0.0000001
 44
0.0000000001
 40
0.0
 40
0.0
 40
0.0
 40
0.0
 40
0.1035844641
 40
0.2031883621
 40
0.3001402664
 40
0.3972882607
 40
0.44788679
 40
0.5011384516
 40
0.6213013304
 40
0.6928111916
 40
0.7773035014
 40
0.879607652
 40
1.0
 40
1.0
 40
1.0
 40
1.0
 10
18.4450686005
 20
84.7289333656
 30
0.0
 10
18.6246275448
 20
84.7559639263
 30
0.0
 10
18.9818681766
 20
84.7822143835
 30
0.0
 10
19.5081000278
 20
84.7211755958
 30
0.0
 10
19.9980026762
 20
84.5457539176
 30
0.0
 10
20.3506789518
 20
84.2891025194
 30
0.0
 10
20.5795837124
 20
84.0193760123
 30
0.0
 10
20.7807324786
 20
83.6799940485
 30
0.0
 10
20.8941476408
 20
83.2560356169
 30
0.0
 10
20.9088989085
 20
82.7707429692
 30
0.0
 10
20.8448029508
 20
82.3201644458
 30
0.0
 10
20.6916369212
 20
81.8027519996
 30
0.0
 10
20.5496654898
 20
81.4387918375
 30
0.0
 10
20.4679295126
 20
81.2442161759
 30
0.0
  0
SPLINE
  5
3A1
100
AcDbEntity
  8
0
100
AcDbSpline
 62
7
  6
CONTINUOUS
 70
0
 71
3
 72
9
 73
5
 74
0
 42
0.0000001
 43
0.0000001
 44
0.0000000001
 40
0.0
 40
0.0
 40
0.0
 40
0.0
 40
0.2955818354
 40
1.0
 40
1.0
 40
1.0
 40
1.0
 10
26.1208647148
 20
41.4928556613
 30
0.0
 10
26.1227967728
 20
41.4922847716
 30
0.0
 10
26.1328825245
 20
41.4937875123
 30
0.0
 10
26.1210718107
 20
41.5015861959
 30
0.0
 10
26.1171882276
 20
41.5044091888
 30
0.0
  0
SPLINE
  5
3A2
100
AcDbEntity
  8
0
100
AcDbSpline
 62
7
  6
CONTINUOUS
 70
0
 71
3
 72
16
 73
12
 74
0
 42
0.0000001
 43
0.0000001
 44
0.0000000001
 40
0.0
 40
0.0
 40
0.0
 40
0.0
 40
0.0402506124
 40
0.0842118147
 40
0.1305861691
 40
0.1800761584
 40
0.2904507318
 40
0.4116965588
 40
0.5427065699
 40
0.6833715717
 40
1.0
 40
1.0
 40
1.0
 40
1.0
 10
20.1320566699
 20
80.3530405227
 30
0.0
 10
20.1118947563
 20
80.2820498277
 30
0.0
 10
20.06030161
 20
80.1362385954
 30
0.0
 10
19.9670320251
 20
79.9157235742
 30
0.0
 10
19.8615678183
 20
79.6820113946
 30
0.0
 10
19.6932732314
 20
79.3432614101
 30
0.0
 10
19.4353326395
 20
78.896662823
 30
0.0
 10
19.0875389568
 20
78.3300385681
 30
0.0
 10
18.6970341507
 20
77.7245784114
 30
0.0
 10
18.1059263498
 20
76.822387797
 30
0.0
 10
17.6493038351
 20
76.1190066897
 30
0.0
 10
17.3452513921
 20
75.6244712177
 30
0.0
  0
SPLINE
  5
3A3
100
AcDbEntity
  8
0
100
AcDbSpline
 62
7
  6
CONTINUOUS
 70
0
 71
3
 72
9
 73
5
 74
0
 42
0.0000001
 43
0.0000001
 44
0.0000000001
 40
0.0
 40
0.0
 40
0.0
 40
0.0
 40
0.2572786475
 40
1.0
 40
1.0
 40
1.0
 40
1.0
 10
11.0597349733
 20
63.2828642771
 30
0.0
 10
11.0505494511
 20
62.7715686758
 30
0.0
 10
11.0193021597
 20
60.7841657485
 30
0.0
 10
11.0052810506
 20
58.7965157184
 30
0.0
 10
11.0016250637
 20
57.3202553432
 30
0.0
  0
SPLINE
  5
3A4
100
AcDbEntity
  8
0
100
AcDbSpline
 62
7
  6
CONTINUOUS
 70
0
 71
3
 72
13
 73
9
 74
0
 42
0.0000001
 43
0.0000001
 44
0.0000000001
 40
0.0
 40
0.0
 40
0.0
 40
0.0
 40
0.1276515799
 40
0.260878811
 40
0.3960609535
 40
0.5291417863
 40
0.7783280566
 40
1.0
 40
1.0
 40
1.0
 40
1.0
 10
11.0016250637
 20
57.3202553432
 30
0.0
 10
11.0007072237
 20
57.1331804937
 30
0.0
 10
11.0107357401
 20
56.750737134
 30
0.0
 10
11.0576906392
 20
56.1719282137
 30
0.0
 10
11.1385520581
 20
55.5887543564
 30
0.0
 10
11.2862496417
 20
54.8446035648
 30
0.0
 10
11.5264240943
 20
53.9909544541
 30
0.0
 10
11.7787042948
 20
53.3474994277
 30
0.0
 10
11.9106104694
 20
53.0506170961
 30
0.0
  0
SPLINE
  5
3A5
100
AcDbEntity
  8
0
100
AcDbSpline
 62
7
  6
CONTINUOUS
 70
0
 71
3
 72
9
 73
5
 74
0
 42
0.0000001
 43
0.0000001
 44
0.0000000001
 40
0.0
 40
0.0
 40
0.0
 40
0.0
 40
0.2847938618
 40
1.0
 40
1.0
 40
1.0
 40
1.0
 10
11.9618752093
 20
52.9370431381
 30
0.0
 10
12.0863684036
 20
52.6655251166
 30
0.0
 10
12.5637814879
 20
51.730834084
 30
0.0
 10
13.176250046
 20
50.8672192315
 30
0.0
 10
13.6701755439
 20
50.3026628853
 30
0.0
  0
SPLINE
  5
3A6
100
AcDbEntity
  8
0
100
AcDbSpline
 62
7
  6
CONTINUOUS
 70
0
 71
3
 72
13
 73
9
 74
0
 42
0.0000001
 43
0.0000001
 44
0.0000000001
 40
0.0
 40
0.0
 40
0.0
 40
0.0
 40
0.0733030869
 40
0.1655886999
 40
0.276929
 40
0.4043992942
 40
0.6909450095
 40
1.0
 40
1.0
 40
1.0
 40
1.0
 10
17.51456659
 20
51.3663997494
 30
0.0
 10
17.5217860746
 20
51.4450394927
 30
0.0
 10
17.5123875006
 20
51.6249128375
 30
0.0
 10
17.4462744277
 20
51.9164689947
 30
0.0
 10
17.332992648
 20
52.2551112625
 30
0.0
 10
17.1215952976
 20
52.7802840344
 30
0.0
 10
16.7977188413
 20
53.4889398803
 30
0.0
 10
16.5289147839
 20
54.0715238351
 30
0.0
 10
16.392276848
 20
54.3751441259
 30
0.0
  0
SPLINE
  5
3A7
100
AcDbEntity
  8
0
100
AcDbSpline
 62
7
  6
CONTINUOUS
 70
0
 71
3
 72
9
 73
5
 74
0
 42
0.0000001
 43
0.0000001
 44
0.0000000001
 40
0.0
 40
0.0
 40
0.0
 40
0.0
 40
0.2482866809
 40
1.0
 40
1.0
 40
1.0
 40
1.0
 10
18.1375249517
 20
78.2739993159
 30
0.0
 10
17.9947946847
 20
78.051067872
 30
0.0
 10
17.4350436561
 20
77.1435900976
 30
0.0
 10
16.9356411583
 20
76.1989991259
 30
0.0
 10
16.5954807993
 20
75.4733393279
 30
0.0
  0
SPLINE
  5
3A8
100
AcDbEntity
  8
0
100
AcDbSpline
 62
7
  6
CONTINUOUS
 70
0
 71
3
 72
9
 73
5
 74
0
 42
0.0000001
 43
0.0000001
 44
0.0000000001
 40
0.0
 40
0.0
 40
0.0
 40
0.0
 40
0.2517456972
 40
1.0
 40
1.0
 40
1.0
 40
1.0
 10
16.1037703692
 20
54.2354596714
 30
0.0
 10
16.2063204333
 20
53.9874252677
 30
0.0
 10
16.6295062982
 20
53.0088005194
 30
0.0
 10
17.1159739666
 20
52.057434287
 30
0.0
 10
17.51456659
 20
51.3663997494
 30
0.0
  0
SPLINE
  5
3A9
100
AcDbEntity
  8
0
100
AcDbSpline
 62
7
  6
CONTINUOUS
 70
0
 71
3
 72
9
 73
5
 74
0
 42
0.0000001
 43
0.0000001
 44
0.0000000001
 40
0.0
 40
0.0
 40
0.0
 40
0.0
 40
0.5198199318
 40
1.0
 40
1.0
 40
1.0
 40
1.0
 10
16.1164476755
 20
65.5012752934
 30
0.0
 10
16.1093999163
 20
66.227868315
 30
0.0
 10
16.1866262805
 20
67.627657187
 30
0.0
 10
16.4139946389
 20
69.0090874474
 30
0.0
 10
16.5519923472
 20
69.6659654401
 30
0.0
  0
SPLINE
  5
3AA
100
AcDbEntity
  8
0
100
AcDbSpline
 62
7
  6
CONTINUOUS
 70
0
 71
3
 72
19
 73
15
 74
0
 42
0.0000001
 43
0.0000001
 44
0.0000000001
 40
0.0
 40
0.0
 40
0.0
 40
0.0
 40
0.1927302832
 40
0.3713487137
 40
0.5324137404
 40
0.6720128349
 40
0.7323729614
 40
0.7856594761
 40
0.8317150412
 40
0.8712705531
 40
0.9057184492
 40
0.9371545701
 40
0.9679810094
 40
1.0
 40
1.0
 40
1.0
 40
1.0
 10
16.5765034202
 20
69.7811971633
 30
0.0
 10
16.649392655
 20
70.1196980484
 30
0.0
 10
16.8045628601
 20
70.7687886936
 30
0.0
 10
17.0571664958
 20
71.6914596914
 30
0.0
 10
17.2940855013
 20
72.5191940166
 30
0.0
 10
17.4604088727
 20
73.1464922794
 30
0.0
 10
17.5492796735
 20
73.592914405
 30
0.0
 10
17.5859896169
 20
73.877839597
 30
0.0
 10
17.5905121759
 20
74.1280524013
 30
0.0
 10
17.5611435859
 20
74.3428619441
 30
0.0
 10
17.4961211668
 20
74.5228654847
 30
0.0
 10
17.3930240292
 20
74.6657055527
 30
0.0
 10
17.258292863
 20
74.7714255999
 30
0.0
 10
17.1548318351
 20
74.8188862909
 30
0.0
 10
17.1006631955
 20
74.8382493307
 30
0.0
  0
SPLINE
  5
3AB
100
AcDbEntity
  8
0
100
AcDbSpline
 62
7
  6
CONTINUOUS
 70
0
 71
3
 72
9
 73
5
 74
0
 42
0.0000001
 43
0.0000001
 44
0.0000000001
 40
0.0
 40
0.0
 40
0.0
 40
0.0
 40
0.2434683894
 40
1.0
 40
1.0
 40
1.0
 40
1.0
 10
17.1005873652
 20
74.8382027956
 30
0.0
 10
17.0195507745
 20
74.7215717921
 30
0.0
 10
16.6907901623
 20
74.2397216511
 30
0.0
 10
16.3796008587
 20
73.7457792123
 30
0.0
 10
16.1564317645
 20
73.36506712
 30
0.0
  0
SPLINE
  5
3AC
100
AcDbEntity
  8
0
100
AcDbSpline
 62
7
  6
CONTINUOUS
 70
0
 71
3
 72
11
 73
7
 74
0
 42
0.0000001
 43
0.0000001
 44
0.0000000001
 40
0.0
 40
0.0
 40
0.0
 40
0.0
 40
0.2431743944
 40
0.4933517856
 40
0.7461917922
 40
1.0
 40
1.0
 40
1.0
 40
1.0
 10
16.1564317645
 20
73.36506712
 30
0.0
 10
15.791917331
 20
72.7432289877
 30
0.0
 10
15.1197450254
 20
71.4404356585
 30
0.0
 10
14.3470131846
 20
69.3617941567
 30
0.0
 10
13.844046512
 20
67.1690347452
 30
0.0
 10
13.7070441881
 20
65.6680838346
 30
0.0
 10
13.6895901574
 20
64.9159657725
 30
0.0
  0
SPLINE
  5
3AD
100
AcDbEntity
  8
0
100
AcDbSpline
 62
7
  6
CONTINUOUS
 70
0
 71
3
 72
11
 73
7
 74
0
 42
0.0000001
 43
0.0000001
 44
0.0000000001
 40
0.0
 40
0.0
 40
0.0
 40
0.0
 40
0.2537874633
 40
0.5065932032
 40
0.7568326503
 40
1.0
 40
1.0
 40
1.0
 40
1.0
 10
13.6895872997
 20
64.9159658396
 30
0.0
 10
13.6721332041
 20
64.1638449871
 30
0.0
 10
13.7396377156
 20
62.6582014757
 30
0.0
 10
14.1404079445
 20
60.4442630767
 30
0.0
 10
14.8165823692
 20
58.3319567866
 30
0.0
 10
15.4278721923
 20
56.9992131155
 30
0.0
 10
15.7631963685
 20
56.3611145183
 30
0.0
  0
SPLINE
  5
3AE
100
AcDbEntity
  8
0
100
AcDbSpline
 62
7
  6
CONTINUOUS
 70
0
 71
3
 72
9
 73
5
 74
0
 42
0.0000001
 43
0.0000001
 44
0.0000000001
 40
0.0
 40
0.0
 40
0.0
 40
0.0
 40
0.2559368267
 40
1.0
 40
1.0
 40
1.0
 40
1.0
 10
15.7631963685
 20
56.3611145183
 30
0.0
 10
15.8326158235
 20
56.2290141211
 30
0.0
 10
16.109446329
 20
55.7158165204
 30
0.0
 10
16.4069442398
 20
55.2138618472
 30
0.0
 10
16.637741289
 20
54.8465025924
 30
0.0
  0
SPLINE
  5
3AF
100
AcDbEntity
  8
0
100
AcDbSpline
 62
7
  6
CONTINUOUS
 70
0
 71
3
 72
19
 73
15
 74
0
 42
0.0000001
 43
0.0000001
 44
0.0000000001
 40
0.0
 40
0.0
 40
0.0
 40
0.0
 40
0.031826986
 40
0.0624713723
 40
0.0937720814
 40
0.1281674526
 40
0.1677573712
 40
0.213925841
 40
0.2673657506
 40
0.3278758899
 40
0.4676969343
 40
0.6288704726
 40
0.8074497808
 40
1.0
 40
1.0
 40
1.0
 40
1.0
 10
16.6378211182
 20
54.846450717
 30
0.0
 10
16.6933483636
 20
54.8634458532
 30
0.0
 10
16.7998816845
 20
54.9065688
 30
0.0
 10
16.9404334948
 20
55.0074936093
 30
0.0
 10
17.050316314
 20
55.1478620575
 30
0.0
 10
17.1230524366
 20
55.3278011459
 30
0.0
 10
17.161219048
 20
55.5448114748
 30
0.0
 10
17.166553907
 20
55.7994398386
 30
0.0
 10
17.1410273623
 20
56.0908165419
 30
0.0
 10
17.0699285609
 20
56.5485382859
 30
0.0
 10
16.9292486375
 20
57.1932857162
 30
0.0
 10
16.7275724109
 20
58.0446256959
 30
0.0
 10
16.5161009692
 20
58.9926395495
 30
0.0
 10
16.3912955282
 20
59.6584197346
 30
0.0
 10
16.3345531928
 20
60.0051242852
 30
0.0
  0
LINE
  5
3B0
100
AcDbEntity
  8
0
100
AcDbLine
 62
7
  6
CONTINUOUS
 10
16.3345531928
 20
60.0051242852
 11
16.3279197735
 21
60.0458817252
  0
SPLINE
  5
3B1
100
AcDbEntity
  8
0
100
AcDbSpline
 62
7
  6
CONTINUOUS
 70
0
 71
3
 72
9
 73
5
 74
0
 42
0.0000001
 43
0.0000001
 44
0.0000000001
 40
0.0
 40
0.0
 40
0.0
 40
0.0
 40
0.4802314044
 40
1.0
 40
1.0
 40
1.0
 40
1.0
 10
16.3279197735
 20
60.0458817252
 30
0.0
 10
16.2208512249
 20
60.7074366497
 30
0.0
 10
16.0583379178
 20
62.0956211093
 30
0.0
 10
16.0461719184
 20
63.4951211423
 30
0.0
 10
16.0867795053
 20
64.2193208283
 30
0.0
  0
SPLINE
  5
3B2
100
AcDbEntity
  8
0
100
AcDbSpline
 62
7
  6
CONTINUOUS
 70
0
 71
3
 72
9
 73
5
 74
0
 42
0.0000001
 43
0.0000001
 44
0.0000000001
 40
0.0
 40
0.0
 40
0.0
 40
0.0
 40
0.2777529602
 40
1.0
 40
1.0
 40
1.0
 40
1.0
 10
16.1035777245
 20
64.4818271903
 30
0.0
 10
16.122095527
 20
64.4614588062
 30
0.0
 10
16.1856816473
 20
64.385648073
 30
0.0
 10
16.2361231419
 20
64.2969273747
 30
0.0
 10
16.256268354
 20
64.2282394473
 30
0.0
  0
SPLINE
  5
3B3
100
AcDbEntity
  8
0
100
AcDbSpline
 62
7
  6
CONTINUOUS
 70
0
 71
3
 72
10
 73
6
 74
0
 42
0.0000001
 43
0.0000001
 44
0.0000000001
 40
0.0
 40
0.0
 40
0.0
 40
0.0
 40
0.4408527543
 40
0.6984919568
 40
1.0
 40
1.0
 40
1.0
 40
1.0
 10
16.6377656251
 20
54.8465227724
 30
0.0
 10
16.6642209258
 20
54.7284012068
 30
0.0
 10
16.7068991119
 20
54.5413993636
 30
0.0
 10
16.77594234
 20
54.2755978287
 30
0.0
 10
16.8206137047
 20
54.1286629711
 30
0.0
 10
16.8457644272
 20
54.049788769
 30
0.0
  0
SPLINE
  5
3B4
100
AcDbEntity
  8
0
100
AcDbSpline
 62
7
  6
CONTINUOUS
 70
0
 71
3
 72
14
 73
10
 74
0
 42
0.0000001
 43
0.0000001
 44
0.0000000001
 40
0.0
 40
0.0
 40
0.0
 40
0.0
 40
0.066671413
 40
0.1493652681
 40
0.2487973033
 40
0.3652267114
 40
0.4986862506
 40
0.6490863082
 40
1.0
 40
1.0
 40
1.0
 40
1.0
 10
26.1124927924
 20
41.5057737593
 30
0.0
 10
26.0460617163
 20
41.5903048089
 30
0.0
 10
25.919030045
 20
41.7965790668
 30
0.0
 10
25.7530465456
 20
42.1623218033
 30
0.0
 10
25.5915856106
 20
42.6163682184
 30
0.0
 10
25.434806019
 20
43.1576282048
 30
0.0
 10
25.2826988907
 20
43.7851087493
 30
0.0
 10
25.0754850616
 20
44.7876542906
 30
0.0
 10
24.9447184773
 20
45.5857765094
 30
0.0
 10
24.8618380134
 20
46.1455392203
 30
0.0
  0
SPLINE
  5
3B5
100
AcDbEntity
  8
0
100
AcDbSpline
 62
7
  6
CONTINUOUS
 70
0
 71
3
 72
8
 73
4
 74
0
 42
0.0000001
 43
0.0000001
 44
0.0000000001
 40
0.0
 40
0.0
 40
0.0
 40
0.0
 40
1.0
 40
1.0
 40
1.0
 40
1.0
 10
22.1784033444
 20
42.6600394142
 30
0.0
 10
23.4911048232
 20
42.2740571146
 30
0.0
 10
24.8044583649
 20
41.890294944
 30
0.0
 10
26.1171882276
 20
41.5044091888
 30
0.0
  0
SPLINE
  5
3B6
100
AcDbEntity
  8
0
100
AcDbSpline
 62
7
  6
CONTINUOUS
 70
0
 71
3
 72
24
 73
20
 74
0
 42
0.0000001
 43
0.0000001
 44
0.0000000001
 40
0.0
 40
0.0
 40
0.0
 40
0.0
 40
0.062977956
 40
0.0938609654
 40
0.123777649
 40
0.1807505081
 40
0.2348212475
 40
0.3379842898
 40
0.440672307
 40
0.5501832685
 40
0.6097832649
 40
0.6739756102
 40
0.74347367
 40
0.7805230266
 40
0.8195434776
 40
0.8609190886
 40
0.9048762634
 40
0.9512840756
 40
1.0
 40
1.0
 40
1.0
 40
1.0
 10
45.961301489
 20
41.4127336657
 30
0.0
 10
45.5060245768
 20
41.4232744983
 30
0.0
 10
44.8278979495
 20
41.4579266667
 30
0.0
 10
43.935419147
 20
41.5255500567
 30
0.0
 10
43.0869719013
 20
41.599207501
 30
0.0
 10
42.0730119373
 20
41.7046985081
 30
0.0
 10
40.5376466132
 20
41.9107745043
 30
0.0
 10
38.6886891138
 20
42.2593386056
 30
0.0
 10
36.4851241311
 20
42.8521931628
 30
0.0
 10
34.6116957351
 20
43.4466398252
 30
0.0
 10
33.0027572689
 20
43.9539965871
 30
0.0
 10
31.6646666327
 20
44.3579948876
 30
0.0
 10
30.4773466061
 20
44.6967325578
 30
0.0
 10
29.461344922
 20
44.9719922679
 30
0.0
 10
28.6390925501
 20
45.1845571456
 30
0.0
 10
27.765376639
 20
45.3972662598
 30
0.0
 10
26.8374912409
 20
45.612982137
 30
0.0
 10
25.8611962373
 20
45.8546821439
 30
0.0
 10
25.1989785131
 20
46.0415806717
 30
0.0
 10
24.8623546197
 20
46.1453967487
 30
0.0
  0
SPLINE
  5
3B7
100
AcDbEntity
  8
0
100
AcDbSpline
 62
7
  6
CONTINUOUS
 70
0
 71
3
 72
23
 73
19
 74
0
 42
0.0000001
 43
0.0000001
 44
0.0000000001
 40
0.0
 40
0.0
 40
0.0
 40
0.0
 40
0.0012775697
 40
0.0043677412
 40
0.0093974472
 40
0.01638593
 40
0.0253376025
 40
0.0362526874
 40
0.0639664595
 40
0.0995090719
 40
0.1428574294
 40
0.1939867778
 40
0.2528715869
 40
0.3194859154
 40
0.3938035838
 40
0.5654434774
 40
0.7675797503
 40
1.0
 40
1.0
 40
1.0
 40
1.0
 10
45.9680727282
 20
38.1617079281
 30
0.0
 10
45.9666885917
 20
38.1617610384
 30
0.0
 10
45.9646169326
 20
38.1676145989
 30
0.0
 10
45.9628077807
 20
38.1764066319
 30
0.0
 10
45.9606617998
 20
38.193327014
 30
0.0
 10
45.9587607783
 20
38.2156938734
 30
0.0
 10
45.956904305
 20
38.2448651046
 30
0.0
 10
45.9544388167
 20
38.2963416667
 30
0.0
 10
45.9518976613
 20
38.3767578067
 30
0.0
 10
45.9495534361
 20
38.4923018446
 30
0.0
 10
45.9477672132
 20
38.6332665832
 30
0.0
 10
45.9465435242
 20
38.7995380006
 30
0.0
 10
45.9458918646
 20
38.9910404508
 30
0.0
 10
45.9458133543
 20
39.2076840573
 30
0.0
 10
45.9465126995
 20
39.5465775395
 30
0.0
 10
45.9489874871
 20
40.0324004377
 30
0.0
 10
45.954079945
 20
40.6896259614
 30
0.0
 10
45.9586677175
 20
41.1607548529
 30
0.0
 10
45.961301489
 20
41.4127336657
 30
0.0
  0
ELLIPSE
  5
3B8
100
AcDbEntity
  8
0
100
AcDbEllipse
 62
7
  6
CONTINUOUS
 10
79.5487514335
 20
82.4451581649
 30
0.0
 11
1.4977641101
 21
-0.0266756277
 31
0.0
 40
0.6675513042
 41
-1.5657320179
 42
-0.5028141335
  0
ELLIPSE
  5
3B9
100
AcDbEntity
  8
0
100
AcDbEllipse
 62
7
  6
CONTINUOUS
 10
78.666959107
 20
44.3576770699
 30
0.0
 11
1.4973938687
 21
-0.0426675593
 31
0.0
 40
0.6675513042
 41
0.5028141335
 42
1.5657320179
  0
ELLIPSE
  5
3BA
100
AcDbEntity
  8
0
100
AcDbEllipse
 62
7
  6
CONTINUOUS
 10
68.1026236195
 20
49.1523226205
 30
0.0
 11
19.4000034175
 21
-0.4491442767
 31
0.0
 40
0.2576628684
 41
3.1415926536
 42
3.1727466761
  0
ELLIPSE
  5
3BB
100
AcDbEntity
  8
0
100
AcDbEllipse
 62
7
  6
CONTINUOUS
 10
68.773844875
 20
78.1445536838
 30
0.0
 11
19.4000034175
 21
-0.4491442767
 31
0.0
 40
0.2576628684
 41
3.1104386311
 42
3.1415926536
  0
ENDSEC
  0
SECTION
  2
OBJECTS
  0
DICTIONARY
  5
C
100
AcDbDictionary
280
0
281
1
  3
ACAD_GROUP
350
D
  3
ACAD_MLINESTYLE
350
17
  3
ACAD_LAYOUT
350
1A
  3
ACAD_PLOTSETTINGS
350
19
  3
ACAD_PLOTSTYLENAME
350
E
  0
DICTIONARY
  5
D
102
{ACAD_REACTORS
330
C
102
}
100
AcDbDictionary
280
0
281
1
  0
ACDBDICTIONARYWDFLT
  5
E
102
{ACAD_REACTORS
330
C
102
}
100
AcDbDictionary
281
1
  3
Normal
350
F
100
AcDbDictionaryWithDefault
340
F
  0
DICTIONARY
  5
17
102
{ACAD_REACTORS
330
C
102
}
100
AcDbDictionary
280
0
281
1
  3
Standard
350
18
  0
DICTIONARY
  5
19
102
{ACAD_REACTORS
330
C
102
}
100
AcDbDictionary
281
1
  0
DICTIONARY
  5
1A
102
{ACAD_REACTORS
330
C
102
}
100
AcDbDictionary
281
1
  3
Model
350
3BC
  3
Layout1
350
3BD
  0
ACDBPLACEHOLDER
  5
F
102
{ACAD_REACTORS
330
E
102
}
  0
MLINESTYLE
  5
18
102
{ACAD_REACTORS
330
17
102
}
100
AcDbMlineStyle
  2
STANDARD
 70
0
  3

 62
256
 51
90.0
 52
90.0
 71
2
 49
0.5
 62
256
  6
BYLAYER
 49
-0.5
 62
256
  6
BYLAYER
  0
LAYOUT
  5
3BC
102
{ACAD_REACTORS
330
1A
102
}
100
AcDbPlotSettings
  1

  2
none_device
  4

  6

 40
0.0
 41
0.0
 42
0.0
 43
0.0
 44
210.0
 45
297.0
 46
0.0
 47
0.0
 48
0.0
 49
0.0
140
0.0
141
0.0
142
1.0
143
1.0
 70
1024
 72
1
 73
0
 74
0
  7

 75
0
147
1.0
148
0.0
149
0.0
100
AcDbLayout
  1
Model
 70
0
 71
0
 10
0.0
 20
0.0
 11
210.0
 21
297.0
 12
0.0
 22
0.0
 32
0.0
 14
0.0
 24
0.0
 34
0.0
 15
0.0
 25
0.0
 35
0.0
146
0.0
 13
0.0
 23
0.0
 33
0.0
 16
1.0
 26
0.0
 36
0.0
 17
0.0
 27
1.0
 37
0.0
 76
0
330
210
345
0
346
0
  0
LAYOUT
  5
3BD
102
{ACAD_REACTORS
330
1A
102
}
100
AcDbPlotSettings
  1

  2
none_device
  4

  6

 40
0.0
 41
0.0
 42
0.0
 43
0.0
 44
210.0
 45
297.0
 46
0.0
 47
0.0
 48
0.0
 49
0.0
140
0.0
141
0.0
142
1.0
143
1.0
 70
0
 72
1
 73
0
 74
0
  7

 75
0
147
1.0
148
0.0
149
0.0
100
AcDbLayout
  1
Layout1
 70
0
 71
1
 10
0.0
 20
0.0
 11
210.0
 21
297.0
 12
0.0
 22
0.0
 32
0.0
 14
0.0
 24
0.0
 34
0.0
 15
0.0
 25
0.0
 35
0.0
146
0.0
 13
0.0
 23
0.0
 33
0.0
 16
1.0
 26
0.0
 36
0.0
 17
0.0
 27
1.0
 37
0.0
 76
0
330
211
345
0
346
0
  0
ENDSEC
  0
EOF
