999
DXF file: C:\Users\sesa63760\Dev\_Creo\CAD\MCADID0004878_3D-CAD\drw0001_6.dxf
999
Pro/ENGINEER 2019471 by Parametric Technology Corporation
  0
SECTION
  2
HEADER
  9
$ACADVER
  1
AC1024
  9
$DWGCODEPAGE
  3
ANSI_1252
  9
$EXTMAX
 10
60.6475903165
 20
85.7730205904
 30
0.0
  9
$EXTMIN
 10
0.0
 20
0.0
 30
0.0
  9
$LIMMIN
 10
0.0
 20
0.0
  9
$LIMMAX
 10
60.6475903165
 20
85.7730205904
  9
$VIEWCTR
 10
30.3237951582
 20
42.8865102952
  9
$VIEWSIZE
 40
85.7730205904
  9
$CLAYER
  8
0
  9
$LTSCALE
 40
5.5911302311
  9
$CELTYPE
  6
BYLAYER
  9
$DIMSCALE
 40
1.0
  9
$DIMASZ
 40
0.7219951228
  9
$DIMEXO
 40
1.0
  9
$DIMDLI
 40
3.8629627051
  9
$DIMEXE
 40
1.0
  9
$DIMCEN
 40
0.9149122196
  9
$DIMLFAC
 40
1.0
  9
$DIMBLK
  1
_FILLED
  9
$DIMALT
 70
0
  9
$DIMALTF
 40
0.0393700787
  9
$DIMTXT
 40
1.0107931719
  9
$DIMTOL
 70
1
  9
$DIMLIM
 70
0
  9
$DIMTFAC
 40
1.0
  9
$DIMTP
 40
0.01
  9
$DIMTM
 40
0.01
  9
$DIMGAP
 40
0.625
  9
$DIMDSEP
 70
46
  9
$AUNITS
 70
0
  9
$PDMODE
 70
3
  9
$PDSIZE
 40
0.3125
  9
$HANDSEED
  5
5FF
  9
$TILEMODE
 70
1
  9
$MEASUREMENT
 70
1
  9
$INSUNITS
 70
4
  0
ENDSEC
  0
SECTION
  2
CLASSES
  0
CLASS
  1
ACDBDICTIONARYWDFLT
  2
AcDbDictionaryWithDefault
  3
AutoCAD 2000
 90
0
 91
1
280
0
281
0
  0
CLASS
  1
ACDBPLACEHOLDER
  2
AcDbPlaceHolder
  3
AutoCAD 2000
 90
0
 91
1
280
0
281
0
  0
CLASS
  1
LAYOUT
  2
AcDbLayout
  3
AutoCAD 2000
 90
0
 91
0
280
0
281
0
  0
ENDSEC
  0
SECTION
  2
TABLES
  0
TABLE
  2
VPORT
  5
8
100
AcDbSymbolTable
 70
2
  0
VPORT
  5
1F4
100
AcDbSymbolTableRecord
100
AcDbViewportTableRecord
  2
*ACTIVE
 70
0
 10
0.0
 20
0.0
 11
1.0
 21
1.0
 12
30.3237951582
 22
42.8865102952
 13
0.0
 23
0.0
 14
1.0
 24
1.0
 15
0.0
 25
0.0
 16
0.0
 26
0.0
 36
1.0
 17
0.0
 27
0.0
 37
0.0
 40
85.7730205904
 41
0.7070707071
 42
50.0
 43
0.0
 44
0.0
 50
0.0
 51
0.0
 71
0
 72
100
 73
1
 74
1
 75
0
 76
0
 77
0
 78
0
  0
ENDTAB
  0
TABLE
  2
LTYPE
  5
5
100
AcDbSymbolTable
 70
6
  0
LTYPE
  5
14
100
AcDbSymbolTableRecord
100
AcDbLinetypeTableRecord
  2
BYBLOCK
 70
0
  3

 72
65
 73
0
 40
0.0
  0
LTYPE
  5
15
100
AcDbSymbolTableRecord
100
AcDbLinetypeTableRecord
  2
BYLAYER
 70
0
  3

 72
65
 73
0
 40
0.0
  0
LTYPE
  5
16
100
AcDbSymbolTableRecord
100
AcDbLinetypeTableRecord
  2
CONTINUOUS
 70
64
  3
Solid line
 72
65
 73
0
 40
0.0
  0
LTYPE
  5
1F5
100
AcDbSymbolTableRecord
100
AcDbLinetypeTableRecord
  2
CENTER
 70
64
  3
____ _ ____ _ ____ _ ____ _ ____ _ ____ _ ____
 72
65
 73
4
 40
0.6
 49
0.375
 74
0
 49
-0.075
 74
0
 49
0.075
 74
0
 49
-0.075
 74
0
  0
LTYPE
  5
1F6
100
AcDbSymbolTableRecord
100
AcDbLinetypeTableRecord
  2
HIDDEN
 70
64
  3
- - - - - - - - - - - - - - - - - - - -
 72
65
 73
2
 40
0.2
 49
0.1
 74
0
 49
-0.1
 74
0
  0
LTYPE
  5
1F7
100
AcDbSymbolTableRecord
100
AcDbLinetypeTableRecord
  2
PHANTOM
 70
64
  3
_____ _ _ _____ _ _ _____ _ _ _____
 72
65
 73
6
 40
0.8
 49
0.45
 74
0
 49
-0.05
 74
0
 49
0.1
 74
0
 49
-0.05
 74
0
 49
0.1
 74
0
 49
-0.05
 74
0
  0
LTYPE
  5
1F8
100
AcDbSymbolTableRecord
100
AcDbLinetypeTableRecord
  2
DOT
 70
64
  3
. . . . . . . . . . . . . . . . . . . .
 72
65
 73
2
 40
0.2
 49
0.1
 74
0
 49
-0.1
 74
0
  0
LTYPE
  5
1F9
100
AcDbSymbolTableRecord
100
AcDbLinetypeTableRecord
  2
DASHED
 70
64
  3
- - - - - - - - - - - - - - - - - - - -
 72
65
 73
2
 40
0.2
 49
0.1
 74
0
 49
-0.1
 74
0
  0
ENDTAB
  0
TABLE
  2
LAYER
  5
2
100
AcDbSymbolTable
 70
36
  0
LAYER
  5
10
100
AcDbSymbolTableRecord
100
AcDbLayerTableRecord
  2
0
 70
0
 62
7
  6
CONTINUOUS
370
-3
390
F
  0
LAYER
  5
1FA
100
AcDbSymbolTableRecord
100
AcDbLayerTableRecord
  2
DEFAULT_1
 70
0
 62
7
  6
CENTER
370
-3
390
F
  0
LAYER
  5
1FB
100
AcDbSymbolTableRecord
100
AcDbLayerTableRecord
  2
DEFAULT_2
 70
0
 62
7
  6
HIDDEN
370
-3
390
F
  0
LAYER
  5
1FC
100
AcDbSymbolTableRecord
100
AcDbLayerTableRecord
  2
DEFAULT_3
 70
0
 62
7
  6
PHANTOM
370
-3
390
F
  0
LAYER
  5
1FD
100
AcDbSymbolTableRecord
100
AcDbLayerTableRecord
  2
00_COMPONENTS
 70
0
 62
7
  6
CONTINUOUS
370
-3
390
F
  0
LAYER
  5
1FE
100
AcDbSymbolTableRecord
100
AcDbLayerTableRecord
  2
01_1_DEFAULT_DATUMS
 70
0
 62
7
  6
CONTINUOUS
370
-3
390
F
  0
LAYER
  5
1FF
100
AcDbSymbolTableRecord
100
AcDbLayerTableRecord
  2
01_PLANES
 70
0
 62
7
  6
CONTINUOUS
370
-3
390
F
  0
LAYER
  5
200
100
AcDbSymbolTableRecord
100
AcDbLayerTableRecord
  2
02_COORD_SYS
 70
0
 62
7
  6
CONTINUOUS
370
-3
390
F
  0
LAYER
  5
201
100
AcDbSymbolTableRecord
100
AcDbLayerTableRecord
  2
03_AXES
 70
0
 62
7
  6
CONTINUOUS
370
-3
390
F
  0
LAYER
  5
202
100
AcDbSymbolTableRecord
100
AcDbLayerTableRecord
  2
04_POINTS
 70
0
 62
7
  6
CONTINUOUS
370
-3
390
F
  0
LAYER
  5
203
100
AcDbSymbolTableRecord
100
AcDbLayerTableRecord
  2
05_CURVES
 70
0
 62
7
  6
CONTINUOUS
370
-3
390
F
  0
LAYER
  5
204
100
AcDbSymbolTableRecord
100
AcDbLayerTableRecord
  2
06_SURFS
 70
0
 62
7
  6
CONTINUOUS
370
-3
390
F
  0
LAYER
  5
205
100
AcDbSymbolTableRecord
100
AcDbLayerTableRecord
  2
07_COSMETICS
 70
0
 62
7
  6
CONTINUOUS
370
-3
390
F
  0
LAYER
  5
206
100
AcDbSymbolTableRecord
100
AcDbLayerTableRecord
  2
10_NOTES
 70
0
 62
7
  6
CONTINUOUS
370
-3
390
F
  0
LAYER
  5
207
100
AcDbSymbolTableRecord
100
AcDbLayerTableRecord
  2
11_NOTES_PUB
 70
0
 62
7
  6
CONTINUOUS
370
-3
390
F
  0
LAYER
  5
208
100
AcDbSymbolTableRecord
100
AcDbLayerTableRecord
  2
13_REF_GTOL
 70
0
 62
7
  6
CONTINUOUS
370
-3
390
F
  0
LAYER
  5
209
100
AcDbSymbolTableRecord
100
AcDbLayerTableRecord
  2
16_MISC
 70
0
 62
7
  6
CONTINUOUS
370
-3
390
F
  0
LAYER
  5
20A
100
AcDbSymbolTableRecord
100
AcDbLayerTableRecord
  2
17_NO_PRINT
 70
0
 62
7
  6
CONTINUOUS
370
-3
390
F
  0
LAYER
  5
20B
100
AcDbSymbolTableRecord
100
AcDbLayerTableRecord
  2
18_DATUM_CAMS_JOINTS
 70
0
 62
7
  6
CONTINUOUS
370
-3
390
F
  0
LAYER
  5
20C
100
AcDbSymbolTableRecord
100
AcDbLayerTableRecord
  2
19_DATUM_FUNCTIONAL
 70
0
 62
7
  6
CONTINUOUS
370
-3
390
F
  0
LAYER
  5
20D
100
AcDbSymbolTableRecord
100
AcDbLayerTableRecord
  2
20_DATUM_KINEMATIC_SCHEME
 70
0
 62
7
  6
CONTINUOUS
370
-3
390
F
  0
ENDTAB
  0
TABLE
  2
STYLE
  5
3
100
AcDbSymbolTable
 70
1
  0
STYLE
  5
11
100
AcDbSymbolTableRecord
100
AcDbTextStyleTableRecord
  2
STANDARD
 70
0
 40
0.0
 41
1.0
 50
0.0
 71
0
 42
0.2
  3
ARIAL.TTF
  4

  0
STYLE
  5
20E
100
AcDbSymbolTableRecord
100
AcDbTextStyleTableRecord
  2
TEXTSTYLE_1
 70
0
 40
0.0
 41
0.8
 50
0.0
 71
0
 42
0.2
  3
gdt
  4

  0
ENDTAB
  0
TABLE
  2
VIEW
  5
6
100
AcDbSymbolTable
 70
0
  0
ENDTAB
  0
TABLE
  2
UCS
  5
7
100
AcDbSymbolTable
 70
0
  0
ENDTAB
  0
TABLE
  2
APPID
  5
9
100
AcDbSymbolTable
 70
1
  0
APPID
  5
20F
100
AcDbSymbolTableRecord
100
AcDbRegAppTableRecord
  2
ACAD
 70
0
  0
ENDTAB
  0
TABLE
  2
BLOCK_RECORD
  5
1
100
AcDbSymbolTable
 70
0
  0
BLOCK_RECORD
  5
210
100
AcDbSymbolTableRecord
100
AcDbBlockTableRecord
  2
*Model_Space
  0
BLOCK_RECORD
  5
211
100
AcDbSymbolTableRecord
100
AcDbBlockTableRecord
  2
*Paper_Space
  0
BLOCK_RECORD
  5
212
100
AcDbSymbolTableRecord
100
AcDbBlockTableRecord
  2
_FILLED
  0
ENDTAB
  0
TABLE
  2
DIMSTYLE
  5
A
100
AcDbSymbolTable
 70
1
100
AcDbDimStyleTable
 71
0
  0
DIMSTYLE
105
213
100
AcDbSymbolTableRecord
100
AcDbDimStyleTableRecord
  2
STANDARD
 70
0
  3

  4

 40
1.0
 41
0.7219951228
 42
1.0
 43
0.38
 44
1.0
 45
0.0
 46
0.0
 47
0.01
 48
0.01
140
1.0107931719
141
0.09
142
0.0
143
25.4
144
1.0
145
0.0
146
1.0
147
0.625
 71
1
 72
0
 73
0
 74
0
 75
0
 76
0
 77
1
 78
8
 79
2
170
0
171
1
172
0
173
0
174
0
175
0
176
0
177
0
178
0
270
2
179
2
271
2
272
2
273
2
274
2
275
0
280
0
281
0
282
0
283
1
284
8
285
0
286
0
287
3
288
0
340
11
278
46
341
212
342
212
343
212
344
212
  0
ENDTAB
  0
ENDSEC
  0
SECTION
  2
BLOCKS
  0
BLOCK
  5
20
100
AcDbEntity
  8
0
100
AcDbBlockBegin
  2
*Model_Space
 70
0
 10
0.0
 20
0.0
 30
0.0
  3
*Model_Space
  1

  0
ENDBLK
  5
21
100
AcDbEntity
  8
0
100
AcDbBlockEnd
  0
BLOCK
  5
1C
100
AcDbEntity
  8
0
100
AcDbBlockBegin
  2
*Paper_Space
 70
0
 10
0.0
 20
0.0
 30
0.0
  3
*Paper_Space
  1

  0
ENDBLK
  5
1D
100
AcDbEntity
  8
0
100
AcDbBlockEnd
  0
BLOCK
  5
214
100
AcDbEntity
  8
0
100
AcDbBlockBegin
  2
_FILLED
 70
64
 10
0.0
 20
0.0
  3
_FILLED
  1

  0
SOLID
  5
215
100
AcDbEntity
  8
0
  6
BYBLOCK
 62
0
100
AcDbTrace
 10
0.0
 20
0.0
 11
-1.0
 21
0.25
 12
-1.0
 22
-0.25
 13
-1.0
 23
-0.25
  0
ENDBLK
  5
216
100
AcDbEntity
  8
0
  6
BYBLOCK
 62
0
100
AcDbBlockEnd
  0
ENDSEC
  0
SECTION
  2
ENTITIES
  0
LINE
  5
217
100
AcDbEntity
  8
0
100
AcDbLine
 62
7
  6
BYLAYER
 10
36.6030843603
 20
7.1367278385
 11
31.3987210926
 21
7.0913100483
  0
LINE
  5
218
100
AcDbEntity
  8
0
100
AcDbLine
 62
7
  6
BYLAYER
 10
31.2987210926
 20
7.0904373615
 11
30.8487210926
 21
7.086510271
  0
LINE
  5
219
100
AcDbEntity
  8
0
100
AcDbLine
 62
7
  6
BYLAYER
 10
36.6030843603
 20
7.5327569129
 11
31.3987210926
 21
7.4873391228
  0
LINE
  5
21A
100
AcDbEntity
  8
0
100
AcDbLine
 62
7
  6
BYLAYER
 10
30.8487210901
 20
7.4825393454
 11
31.2987210926
 21
7.486466436
  0
LINE
  5
21B
100
AcDbEntity
  8
0
100
AcDbLine
 62
7
  6
BYLAYER
 10
35.0387210926
 20
8.086510271
 11
30.8487210926
 21
8.049944695
  0
LINE
  5
21C
100
AcDbEntity
  8
0
100
AcDbLine
 62
7
  6
BYLAYER
 10
30.8487210926
 20
8.949944695
 11
24.5987210926
 21
8.8954017713
  0
LINE
  5
21D
100
AcDbEntity
  8
0
100
AcDbLine
 62
7
  6
BYLAYER
 10
26.7237210926
 20
8.145010271
 11
27.8487210926
 21
8.145010271
  0
LINE
  5
21E
100
AcDbEntity
  8
0
100
AcDbLine
 62
7
  6
BYLAYER
 10
28.0487210926
 20
8.145010271
 11
33.6487210926
 21
8.145010271
  0
LINE
  5
21F
100
AcDbEntity
  8
0
100
AcDbLine
 62
7
  6
BYLAYER
 10
33.8487210926
 20
8.145010271
 11
34.9737210926
 21
8.145010271
  0
LINE
  5
220
100
AcDbEntity
  8
0
100
AcDbLine
 62
7
  6
BYLAYER
 10
30.8487210926
 20
7.086510271
 11
25.0943578249
 21
7.1367278385
  0
LINE
  5
221
100
AcDbEntity
  8
0
100
AcDbLine
 62
7
  6
BYLAYER
 10
30.8487213128
 20
7.4825393435
 11
25.0943578249
 21
7.5327569129
  0
LINE
  5
222
100
AcDbEntity
  8
0
100
AcDbLine
 62
7
  6
BYLAYER
 10
30.8487210926
 20
8.049944695
 11
26.6587210926
 21
8.086510271
  0
LINE
  5
223
100
AcDbEntity
  8
0
100
AcDbLine
 62
7
  6
BYLAYER
 10
37.0987210926
 20
8.8954017713
 11
31.3987210926
 21
8.9451449177
  0
LINE
  5
224
100
AcDbEntity
  8
0
100
AcDbLine
 62
7
  6
BYLAYER
 10
30.8487210926
 20
8.949944695
 11
31.3987210926
 21
8.9451449177
  0
LINE
  5
225
100
AcDbEntity
  8
0
100
AcDbLine
 62
7
  6
BYLAYER
 10
27.6487230509
 20
10.893510271
 11
27.8487210926
 21
10.893510271
  0
LINE
  5
226
100
AcDbEntity
  8
0
100
AcDbLine
 62
7
  6
BYLAYER
 10
27.8487210926
 20
10.893510271
 11
28.0487230547
 21
10.893510271
  0
LINE
  5
227
100
AcDbEntity
  8
0
100
AcDbLine
 62
7
  6
BYLAYER
 10
33.6487191305
 20
10.893510272
 11
33.8487210926
 21
10.8935102721
  0
LINE
  5
228
100
AcDbEntity
  8
0
100
AcDbLine
 62
7
  6
BYLAYER
 10
33.8487210926
 20
10.8935102687
 11
34.0487191343
 21
10.8935102689
  0
LWPOLYLINE
  5
229
100
AcDbEntity
  8
0
100
AcDbPolyline
 62
7
  6
BYLAYER
 90
8
 70
0
 10
30.8073194682
 20
8.3968534532
 10
29.7506854454
 20
8.6505544065
 10
28.895012605
 20
9.3366959529
 10
28.412551568
 20
10.3352004269
 10
28.4109495342
 20
11.4508293227
 10
28.8921839805
 20
12.4527726924
 10
29.7492254988
 20
13.1417516533
 10
30.8070544317
 20
13.3961626196
  0
LINE
  5
22A
100
AcDbEntity
  8
0
100
AcDbLine
 62
7
  6
BYLAYER
 10
31.3987210926
 20
13.9516998828
 11
36.6030843826
 21
13.9911080174
  0
LINE
  5
22B
100
AcDbEntity
  8
0
100
AcDbLine
 62
7
  6
BYLAYER
 10
27.5987210926
 20
11.736510271
 11
24.5987210926
 21
11.736510271
  0
LINE
  5
22C
100
AcDbEntity
  8
0
100
AcDbLine
 62
7
  6
BYLAYER
 10
34.9737210926
 20
13.645010271
 11
26.7237210926
 21
13.645010271
  0
LINE
  5
22D
100
AcDbEntity
  8
0
100
AcDbLine
 62
7
  6
BYLAYER
 10
27.1987210926
 20
13.736510271
 11
26.2133658121
 21
13.736510271
  0
LINE
  5
22E
100
AcDbEntity
  8
0
100
AcDbLine
 62
7
  6
BYLAYER
 10
37.0987210926
 20
13.986510271
 11
34.0987210926
 21
13.986510271
  0
LINE
  5
22F
100
AcDbEntity
  8
0
100
AcDbLine
 62
7
  6
BYLAYER
 10
31.2987210926
 20
13.9482512094
 11
25.09435783
 21
13.9578755399
  0
LINE
  5
230
100
AcDbEntity
  8
0
100
AcDbLine
 62
7
  6
BYLAYER
 10
37.0987210926
 20
11.936510271
 11
34.0987210926
 21
11.9626908744
  0
LINE
  5
231
100
AcDbEntity
  8
0
100
AcDbLine
 62
7
  6
BYLAYER
 10
27.1987210926
 20
71.236510271
 11
26.2133658121
 21
70.6617196908
  0
LINE
  5
232
100
AcDbEntity
  8
0
100
AcDbLine
 62
7
  6
BYLAYER
 10
26.2047976541
 20
70.6567215986
 11
26.2133658121
 21
70.6617196908
  0
LINE
  5
233
100
AcDbEntity
  8
0
100
AcDbLine
 62
7
  6
BYLAYER
 10
31.0469757855
 20
15.8382480289
 11
35.0387210926
 21
15.8730834625
  0
LINE
  5
234
100
AcDbEntity
  8
0
100
AcDbLine
 62
7
  6
BYLAYER
 10
37.0987210926
 20
16.036510271
 11
34.0987210926
 21
16.0103296677
  0
LINE
  5
235
100
AcDbEntity
  8
0
100
AcDbLine
 62
7
  6
BYLAYER
 10
33.5943578394
 20
16.0604710799
 11
32.9004610481
 21
16.0544155344
  0
LINE
  5
236
100
AcDbEntity
  8
0
100
AcDbLine
 62
7
  6
BYLAYER
 10
32.9004664138
 20
16.0544155812
 11
31.0469757852
 21
16.0382404135
  0
LINE
  5
237
100
AcDbEntity
  8
0
100
AcDbLine
 62
7
  6
BYLAYER
 10
35.0387210926
 20
16.0730758471
 11
35.9004663997
 21
16.0805961844
  0
LINE
  5
238
100
AcDbEntity
  8
0
100
AcDbLine
 62
7
  6
BYLAYER
 10
35.9004663997
 20
16.280588569
 11
35.0387210926
 21
16.2730682317
  0
LINE
  5
239
100
AcDbEntity
  8
0
100
AcDbLine
 62
7
  6
BYLAYER
 10
35.0387210926
 20
16.0730758471
 11
33.5943582493
 21
16.0608163019
  0
LINE
  5
23A
100
AcDbEntity
  8
0
100
AcDbLine
 62
7
  6
BYLAYER
 10
33.5943576848
 20
16.508484552
 11
35.9004663982
 21
16.5216916528
  0
LINE
  5
23B
100
AcDbEntity
  8
0
100
AcDbLine
 62
7
  6
BYLAYER
 10
27.1987210926
 20
14.236510271
 11
26.2133658121
 21
14.236510271
  0
LINE
  5
23C
100
AcDbEntity
  8
0
100
AcDbLine
 62
7
  6
BYLAYER
 10
27.5987210926
 20
16.236510271
 11
24.5987210926
 21
16.236510271
  0
LINE
  5
23D
100
AcDbEntity
  8
0
100
AcDbLine
 62
7
  6
BYLAYER
 10
28.1030843603
 20
16.5084845516
 11
25.7474121103
 21
16.5219755031
  0
LINE
  5
23E
100
AcDbEntity
  8
0
100
AcDbLine
 62
7
  6
BYLAYER
 10
26.6587210926
 20
15.8730834625
 11
30.6504663997
 21
15.8382480289
  0
LINE
  5
23F
100
AcDbEntity
  8
0
100
AcDbLine
 62
7
  6
BYLAYER
 10
28.7969806316
 20
16.0544155388
 11
28.1030828236
 21
16.0604710932
  0
LINE
  5
240
100
AcDbEntity
  8
0
100
AcDbLine
 62
7
  6
BYLAYER
 10
30.6504663997
 20
16.0382404135
 11
28.7969806316
 21
16.0544155388
  0
LINE
  5
241
100
AcDbEntity
  8
0
100
AcDbLine
 62
7
  6
BYLAYER
 10
28.1030828236
 20
16.0604710932
 11
26.6587210926
 21
16.0730758471
  0
LINE
  5
242
100
AcDbEntity
  8
0
100
AcDbLine
 62
7
  6
BYLAYER
 10
25.7474121123
 20
16.0810287201
 11
26.6587210926
 21
16.0730758471
  0
LINE
  5
243
100
AcDbEntity
  8
0
100
AcDbLine
 62
7
  6
BYLAYER
 10
26.6587210926
 20
16.2730682317
 11
25.7474121123
 21
16.2810211047
  0
LWPOLYLINE
  5
244
100
AcDbEntity
  8
0
100
AcDbPolyline
 62
7
  6
BYLAYER
 90
7
 70
0
 10
31.3987217791
 20
13.3352633259
 10
32.3946967625
 20
12.8611863844
 10
33.0964195081
 20
11.9909730448
 10
33.3487192086
 20
10.893440987
 10
33.0941319022
 20
9.797361814
 10
32.3927340973
 20
8.9302915084
 10
31.3987217165
 20
8.4577577173
  0
LINE
  5
245
100
AcDbEntity
  8
0
100
AcDbLine
 62
7
  6
BYLAYER
 10
27.1987210926
 20
14.536510271
 11
26.2133658121
 21
15.1113008513
  0
LINE
  5
246
100
AcDbEntity
  8
0
100
AcDbLine
 62
7
  6
BYLAYER
 10
26.2047976541
 20
15.1162989435
 11
26.2133658121
 21
15.1113008513
  0
LINE
  5
247
100
AcDbEntity
  8
0
100
AcDbLine
 62
7
  6
BYLAYER
 10
32.6945905359
 20
17.4402722272
 11
29.6954676465
 21
16.8154549586
  0
LINE
  5
248
100
AcDbEntity
  8
0
100
AcDbLine
 62
7
  6
BYLAYER
 10
29.6546524738
 20
17.0112459754
 11
32.6546524738
 21
17.6362459754
  0
LINE
  5
249
100
AcDbEntity
  8
0
100
AcDbLine
 62
7
  6
BYLAYER
 10
29.6138616289
 20
17.2070420606
 11
32.6138616229
 21
17.8320420594
  0
LINE
  5
24A
100
AcDbEntity
  8
0
100
AcDbLine
 62
7
  6
BYLAYER
 10
35.9004663984
 20
16.8805963298
 11
33.5943577943
 21
16.8604712249
  0
LINE
  5
24B
100
AcDbEntity
  8
0
100
AcDbLine
 62
7
  6
BYLAYER
 10
30.8487210926
 20
17.0550189701
 11
31.2987210926
 21
17.0588863993
  0
LINE
  5
24C
100
AcDbEntity
  8
0
100
AcDbLine
 62
7
  6
BYLAYER
 10
36.6030843604
 20
17.0985739389
 11
31.3987210926
 21
17.0591658044
  0
LINE
  5
24D
100
AcDbEntity
  8
0
100
AcDbLine
 62
7
  6
BYLAYER
 10
33.2487210926
 20
18.005010271
 11
32.7487210926
 21
18.005010271
  0
LINE
  5
24E
100
AcDbEntity
  8
0
100
AcDbLine
 62
7
  6
BYLAYER
 10
28.9487210926
 20
18.005010271
 11
28.4487210926
 21
18.005010271
  0
LINE
  5
24F
100
AcDbEntity
  8
0
100
AcDbLine
 62
7
  6
BYLAYER
 10
28.0487236558
 20
18.479716605
 11
27.8487210926
 21
18.479716605
  0
LINE
  5
250
100
AcDbEntity
  8
0
100
AcDbLine
 62
7
  6
BYLAYER
 10
25.09435783
 20
17.1044736199
 11
30.8487210926
 21
17.0550189702
  0
LINE
  5
251
100
AcDbEntity
  8
0
100
AcDbLine
 62
7
  6
BYLAYER
 10
28.1030845249
 20
16.8604710784
 11
25.7474121602
 21
16.8810287196
  0
LINE
  5
252
100
AcDbEntity
  8
0
100
AcDbLine
 62
7
  6
BYLAYER
 10
33.3057457839
 20
20.4457460204
 11
32.51291896
 21
20.2654747154
  0
LINE
  5
253
100
AcDbEntity
  8
0
100
AcDbLine
 62
7
  6
BYLAYER
 10
33.3057449043
 20
19.8098583067
 11
30.8487223561
 21
19.7769501153
  0
LINE
  5
254
100
AcDbEntity
  8
0
100
AcDbLine
 62
7
  6
BYLAYER
 10
33.3974005381
 20
20.5650537912
 11
30.8487210926
 21
20.5407798165
  0
LINE
  5
255
100
AcDbEntity
  8
0
100
AcDbLine
 62
7
  6
BYLAYER
 10
36.5987204536
 20
21.2175016553
 11
31.3987208501
 21
21.1709000545
  0
LINE
  5
256
100
AcDbEntity
  8
0
100
AcDbLine
 62
7
  6
BYLAYER
 10
30.8487210924
 20
20.6714136704
 11
31.2987210912
 21
20.6753979694
  0
LINE
  5
257
100
AcDbEntity
  8
0
100
AcDbLine
 62
7
  6
BYLAYER
 10
31.3987210901
 20
20.6762833285
 11
36.6030843536
 21
20.7223327663
  0
LINE
  5
258
100
AcDbEntity
  8
0
100
AcDbLine
 62
7
  6
BYLAYER
 10
33.3973985498
 20
19.5925736644
 11
30.997412102
 21
19.5751510592
  0
LINE
  5
259
100
AcDbEntity
  8
0
100
AcDbLine
 62
7
  6
BYLAYER
 10
33.3973945877
 20
19.4183784799
 11
30.997412102
 21
19.4013892862
  0
LINE
  5
25A
100
AcDbEntity
  8
0
100
AcDbLine
 62
7
  6
BYLAYER
 10
33.8487210926
 20
19.1047166053
 11
33.6487176473
 21
19.1047166053
  0
LINE
  5
25B
100
AcDbEntity
  8
0
100
AcDbLine
 62
7
  6
BYLAYER
 10
33.2487210926
 20
19.505010271
 11
32.7487210926
 21
19.505010271
  0
LINE
  5
25C
100
AcDbEntity
  8
0
100
AcDbLine
 62
7
  6
BYLAYER
 10
28.9487210926
 20
19.505010271
 11
28.4487210926
 21
19.505010271
  0
LINE
  5
25D
100
AcDbEntity
  8
0
100
AcDbLine
 62
7
  6
BYLAYER
 10
33.2487210926
 20
20.545010271
 11
32.7487210926
 21
20.545010271
  0
LINE
  5
25E
100
AcDbEntity
  8
0
100
AcDbLine
 62
7
  6
BYLAYER
 10
28.9487210926
 20
20.545010271
 11
28.4487210926
 21
20.545010271
  0
LINE
  5
25F
100
AcDbEntity
  8
0
100
AcDbLine
 62
7
  6
BYLAYER
 10
27.7468112821
 20
20.2842534284
 11
32.51291896
 21
20.2654747154
  0
LINE
  5
260
100
AcDbEntity
  8
0
100
AcDbLine
 62
7
  6
BYLAYER
 10
25.0943578466
 20
20.7223343978
 11
30.8487210011
 21
20.6714155345
  0
LINE
  5
261
100
AcDbEntity
  8
0
100
AcDbLine
 62
7
  6
BYLAYER
 10
30.8515781271
 20
21.166001956
 11
25.0987188631
 21
21.2174743593
  0
LINE
  5
262
100
AcDbEntity
  8
0
100
AcDbLine
 62
7
  6
BYLAYER
 10
30.8482544974
 20
20.4726780258
 11
33.3057457839
 21
20.4457460204
  0
LINE
  5
263
100
AcDbEntity
  8
0
100
AcDbLine
 62
7
  6
BYLAYER
 10
30.8487223664
 20
19.6907180872
 11
33.3974005111
 21
19.6587186022
  0
LWPOLYLINE
  5
264
100
AcDbEntity
  8
0
100
AcDbPolyline
 62
7
  6
BYLAYER
 90
8
 70
0
 10
28.2947620953
 20
16.8204560452
 10
28.4050288073
 20
16.7556821142
 10
28.4815157448
 20
16.6821576157
 10
28.5334200022
 20
16.6075491325
 10
28.5669902549
 20
16.53577343
 10
28.5867253736
 20
16.4693603935
 10
28.596234955
 20
16.4102995174
 10
28.598721256
 20
16.3604882411
  0
LINE
  5
265
100
AcDbEntity
  8
0
100
AcDbLine
 62
7
  6
BYLAYER
 10
33.3057457839
 20
22.4153615264
 11
32.51291896
 21
22.2350902214
  0
LINE
  5
266
100
AcDbEntity
  8
0
100
AcDbLine
 62
7
  6
BYLAYER
 10
33.3057456846
 20
21.7794731071
 11
30.8482545744
 21
21.746596109
  0
LINE
  5
267
100
AcDbEntity
  8
0
100
AcDbLine
 62
7
  6
BYLAYER
 10
30.8487210926
 20
23.6664470156
 11
33.3974005381
 21
23.6984455964
  0
LINE
  5
268
100
AcDbEntity
  8
0
100
AcDbLine
 62
7
  6
BYLAYER
 10
30.8482544978
 20
22.8844859289
 11
33.3057457804
 21
22.9114179424
  0
LINE
  5
269
100
AcDbEntity
  8
0
100
AcDbLine
 62
7
  6
BYLAYER
 10
33.4504666334
 20
22.4645142124
 11
31.0469764635
 21
22.4390156338
  0
LINE
  5
26A
100
AcDbEntity
  8
0
100
AcDbLine
 62
7
  6
BYLAYER
 10
31.0465796896
 20
22.6043651093
 11
33.450119827
 21
22.6297964193
  0
LINE
  5
26B
100
AcDbEntity
  8
0
100
AcDbLine
 62
7
  6
BYLAYER
 10
30.9974121123
 20
22.7012689114
 11
33.3974005381
 21
22.7261823007
  0
LINE
  5
26C
100
AcDbEntity
  8
0
100
AcDbLine
 62
7
  6
BYLAYER
 10
33.3974005381
 20
22.5346692972
 11
30.8487210926
 21
22.5103956758
  0
LINE
  5
26D
100
AcDbEntity
  8
0
100
AcDbLine
 62
7
  6
BYLAYER
 10
35.9004663941
 20
22.6541376837
 11
33.6056527493
 21
22.6344153965
  0
LINE
  5
26E
100
AcDbEntity
  8
0
100
AcDbLine
 62
7
  6
BYLAYER
 10
33.4504663997
 20
22.5761770556
 11
31.0469757855
 21
22.5591630282
  0
LINE
  5
26F
100
AcDbEntity
  8
0
100
AcDbLine
 62
7
  6
BYLAYER
 10
27.7468108457
 20
23.0729105318
 11
32.51291896
 21
23.0916892465
  0
LINE
  5
270
100
AcDbEntity
  8
0
100
AcDbLine
 62
7
  6
BYLAYER
 10
25.7474122491
 20
21.6115470715
 11
30.65046642
 21
21.6121355983
  0
LINE
  5
271
100
AcDbEntity
  8
0
100
AcDbLine
 62
7
  6
BYLAYER
 10
33.2487210926
 20
22.045010271
 11
32.7487210926
 21
22.045010271
  0
LINE
  5
272
100
AcDbEntity
  8
0
100
AcDbLine
 62
7
  6
BYLAYER
 10
28.9487210926
 20
22.045010271
 11
28.4487210926
 21
22.045010271
  0
LINE
  5
273
100
AcDbEntity
  8
0
100
AcDbLine
 62
7
  6
BYLAYER
 10
33.2487210926
 20
23.085010271
 11
32.7487210926
 21
23.085010271
  0
LINE
  5
274
100
AcDbEntity
  8
0
100
AcDbLine
 62
7
  6
BYLAYER
 10
28.9487210926
 20
23.085010271
 11
28.4487210926
 21
23.085010271
  0
LINE
  5
275
100
AcDbEntity
  8
0
100
AcDbLine
 62
7
  6
BYLAYER
 10
35.900466425
 20
21.6115530214
 11
31.0469757852
 21
21.612135599
  0
LINE
  5
276
100
AcDbEntity
  8
0
100
AcDbLine
 62
7
  6
BYLAYER
 10
27.7468109522
 20
22.2538689357
 11
32.51291896
 21
22.2350902214
  0
LINE
  5
277
100
AcDbEntity
  8
0
100
AcDbLine
 62
7
  6
BYLAYER
 10
30.9942404011
 20
22.4957475296
 11
33.3973945893
 21
22.4787358838
  0
LINE
  5
278
100
AcDbEntity
  8
0
100
AcDbLine
 62
7
  6
BYLAYER
 10
30.9942404044
 20
22.6695092357
 11
33.3973975607
 21
22.6524975689
  0
LINE
  5
279
100
AcDbEntity
  8
0
100
AcDbLine
 62
7
  6
BYLAYER
 10
30.65046642
 20
22.612425392
 11
25.7474122491
 21
22.654563647
  0
LINE
  5
27A
100
AcDbEntity
  8
0
100
AcDbLine
 62
7
  6
BYLAYER
 10
33.3974005381
 20
22.7921101692
 11
30.8487210926
 21
22.8163841426
  0
LINE
  5
27B
100
AcDbEntity
  8
0
100
AcDbLine
 62
7
  6
BYLAYER
 10
33.3973975639
 20
22.7229167468
 11
30.8487210071
 21
22.7486830811
  0
LINE
  5
27C
100
AcDbEntity
  8
0
100
AcDbLine
 62
7
  6
BYLAYER
 10
30.8487209572
 20
22.627008153
 11
33.3973985494
 21
22.6008138257
  0
LINE
  5
27D
100
AcDbEntity
  8
0
100
AcDbLine
 62
7
  6
BYLAYER
 10
30.8481167351
 20
22.4422946449
 11
33.3057457839
 21
22.4153615264
  0
LINE
  5
27E
100
AcDbEntity
  8
0
100
AcDbLine
 62
7
  6
BYLAYER
 10
30.8487210926
 20
21.6603324524
 11
33.3974005381
 21
21.6283338723
  0
LINE
  5
27F
100
AcDbEntity
  8
0
100
AcDbLine
 62
7
  6
BYLAYER
 10
33.3057456829
 20
23.5473063599
 11
30.8482545719
 21
23.5801833665
  0
LWPOLYLINE
  5
280
100
AcDbEntity
  8
0
100
AcDbPolyline
 62
7
  6
BYLAYER
 90
5
 70
0
 10
30.8489362492
 20
22.750966646
 10
28.8477174149
 20
22.8319991156
 10
27.2913407248
 20
23.0069689425
 10
26.2670627402
 20
23.2365865509
 10
25.8608848584
 20
23.4395489504
  0
LINE
  5
281
100
AcDbEntity
  8
0
100
AcDbLine
 62
7
  6
BYLAYER
 10
30.8487210926
 20
25.6360625216
 11
33.3974005381
 21
25.6680611024
  0
LINE
  5
282
100
AcDbEntity
  8
0
100
AcDbLine
 62
7
  6
BYLAYER
 10
30.8482544978
 20
24.8541014349
 11
33.3057457804
 21
24.8810334484
  0
LINE
  5
283
100
AcDbEntity
  8
0
100
AcDbLine
 62
7
  6
BYLAYER
 10
33.8469757855
 20
26.0186355861
 11
35.9004663997
 21
26.0335122226
  0
LINE
  5
284
100
AcDbEntity
  8
0
100
AcDbLine
 62
7
  6
BYLAYER
 10
31.0464113898
 20
26.1651353086
 11
33.4498770076
 21
26.1809432542
  0
LINE
  5
285
100
AcDbEntity
  8
0
100
AcDbLine
 62
7
  6
BYLAYER
 10
27.7468108455
 20
25.0425260378
 11
32.51291896
 21
25.0613047526
  0
LINE
  5
286
100
AcDbEntity
  8
0
100
AcDbLine
 62
7
  6
BYLAYER
 10
33.2487210926
 20
24.585010271
 11
32.7487210926
 21
24.585010271
  0
LINE
  5
287
100
AcDbEntity
  8
0
100
AcDbLine
 62
7
  6
BYLAYER
 10
28.9487210926
 20
24.585010271
 11
28.4487210926
 21
24.585010271
  0
LINE
  5
288
100
AcDbEntity
  8
0
100
AcDbLine
 62
7
  6
BYLAYER
 10
33.2487210926
 20
25.625010271
 11
32.7487210926
 21
25.625010271
  0
LINE
  5
289
100
AcDbEntity
  8
0
100
AcDbLine
 62
7
  6
BYLAYER
 10
28.9487210926
 20
25.625010271
 11
28.4487210926
 21
25.625010271
  0
LINE
  5
28A
100
AcDbEntity
  8
0
100
AcDbLine
 62
7
  6
BYLAYER
 10
30.850029972
 20
25.9264334826
 11
33.3973975631
 21
25.908400967
  0
LINE
  5
28B
100
AcDbEntity
  8
0
100
AcDbLine
 62
7
  6
BYLAYER
 10
33.3973985498
 20
25.7342058036
 11
30.8487204461
 21
25.7526753543
  0
LINE
  5
28C
100
AcDbEntity
  8
0
100
AcDbLine
 62
7
  6
BYLAYER
 10
30.6504666795
 20
25.9983503537
 11
25.7474120967
 21
26.0338715438
  0
LINE
  5
28D
100
AcDbEntity
  8
0
100
AcDbLine
 62
7
  6
BYLAYER
 10
33.3974005381
 20
24.7617256753
 11
30.8487210926
 21
24.7859996486
  0
LINE
  5
28E
100
AcDbEntity
  8
0
100
AcDbLine
 62
7
  6
BYLAYER
 10
33.3974005381
 20
25.9788200479
 11
30.997434122
 21
26.0030829686
  0
LINE
  5
28F
100
AcDbEntity
  8
0
100
AcDbLine
 62
7
  6
BYLAYER
 10
33.3057456829
 20
25.5169218659
 11
30.8482545719
 21
25.5497988726
  0
LWPOLYLINE
  5
290
100
AcDbEntity
  8
0
100
AcDbPolyline
 62
7
  6
BYLAYER
 90
4
 70
0
 10
28.8487210926
 20
24.39475936
 10
27.2656937294
 20
24.5739397144
 10
26.250495249
 20
24.8049516077
 10
25.8607753981
 20
25.0025092031
  0
LINE
  5
291
100
AcDbEntity
  8
0
100
AcDbLine
 62
7
  6
BYLAYER
 10
33.3057457804
 20
22.9114179424
 11
32.51291896
 21
23.0916892465
  0
LINE
  5
292
100
AcDbEntity
  8
0
100
AcDbLine
 62
7
  6
BYLAYER
 10
33.3057457804
 20
24.8810334484
 11
32.51291896
 21
25.0613047525
  0
LINE
  5
293
100
AcDbEntity
  8
0
100
AcDbLine
 62
7
  6
BYLAYER
 10
33.3057458916
 20
19.8098575604
 11
32.51291896
 21
20.2654747154
  0
LINE
  5
294
100
AcDbEntity
  8
0
100
AcDbLine
 62
7
  6
BYLAYER
 10
33.3057456846
 20
21.7794731071
 11
32.51291896
 21
22.2350902214
  0
LINE
  5
295
100
AcDbEntity
  8
0
100
AcDbLine
 62
7
  6
BYLAYER
 10
33.2487210926
 20
27.125010271
 11
32.7487210926
 21
27.125010271
  0
LINE
  5
296
100
AcDbEntity
  8
0
100
AcDbLine
 62
7
  6
BYLAYER
 10
28.9487210926
 20
27.125010271
 11
28.4487210926
 21
27.125010271
  0
LINE
  5
297
100
AcDbEntity
  8
0
100
AcDbLine
 62
7
  6
BYLAYER
 10
33.2487210926
 20
28.165010271
 11
32.7487210926
 21
28.165010271
  0
LINE
  5
298
100
AcDbEntity
  8
0
100
AcDbLine
 62
7
  6
BYLAYER
 10
28.9487210926
 20
28.165010271
 11
28.4487210926
 21
28.165010271
  0
LINE
  5
299
100
AcDbEntity
  8
0
100
AcDbLine
 62
7
  6
BYLAYER
 10
30.6504664028
 20
31.0764711011
 11
25.7474121058
 21
31.0257238913
  0
LINE
  5
29A
100
AcDbEntity
  8
0
100
AcDbLine
 62
7
  6
BYLAYER
 10
33.2487210926
 20
29.665010271
 11
32.7487210926
 21
29.665010271
  0
LINE
  5
29B
100
AcDbEntity
  8
0
100
AcDbLine
 62
7
  6
BYLAYER
 10
28.9487210926
 20
29.665010271
 11
28.4487210926
 21
29.665010271
  0
LINE
  5
29C
100
AcDbEntity
  8
0
100
AcDbLine
 62
7
  6
BYLAYER
 10
33.2487210926
 20
30.705010271
 11
32.7487210926
 21
30.705010271
  0
LINE
  5
29D
100
AcDbEntity
  8
0
100
AcDbLine
 62
7
  6
BYLAYER
 10
28.9487210926
 20
30.705010271
 11
28.4487210926
 21
30.705010271
  0
LINE
  5
29E
100
AcDbEntity
  8
0
100
AcDbLine
 62
7
  6
BYLAYER
 10
35.9004663879
 20
31.0262318867
 11
31.0469757878
 21
31.0764711026
  0
LWPOLYLINE
  5
29F
100
AcDbEntity
  8
0
100
AcDbPolyline
 62
7
  6
BYLAYER
 90
3
 70
0
 10
25.858447824
 20
25.0051982906
 10
25.8491661901
 20
25.020116102
 10
25.8487296738
 20
25.0176852561
  0
LINE
  5
2A0
100
AcDbEntity
  8
0
100
AcDbLine
 62
7
  6
BYLAYER
 10
30.6508111635
 20
31.5243449432
 11
25.747195534
 21
31.4738227738
  0
LINE
  5
2A1
100
AcDbEntity
  8
0
100
AcDbLine
 62
7
  6
BYLAYER
 10
25.747412487
 20
31.4663937175
 11
30.6504663449
 21
31.5149279114
  0
LINE
  5
2A2
100
AcDbEntity
  8
0
100
AcDbLine
 62
7
  6
BYLAYER
 10
30.6504663997
 20
31.4847801285
 11
25.7474122999
 21
31.4419918236
  0
LINE
  5
2A3
100
AcDbEntity
  8
0
100
AcDbLine
 62
7
  6
BYLAYER
 10
33.2487210926
 20
32.205010271
 11
32.7487210926
 21
32.205010271
  0
LINE
  5
2A4
100
AcDbEntity
  8
0
100
AcDbLine
 62
7
  6
BYLAYER
 10
28.9487210926
 20
32.205010271
 11
28.4487210926
 21
32.205010271
  0
LINE
  5
2A5
100
AcDbEntity
  8
0
100
AcDbLine
 62
7
  6
BYLAYER
 10
33.2487210926
 20
33.245010271
 11
32.7487210926
 21
33.245010271
  0
LINE
  5
2A6
100
AcDbEntity
  8
0
100
AcDbLine
 62
7
  6
BYLAYER
 10
28.9487210926
 20
33.245010271
 11
28.4487210926
 21
33.245010271
  0
LINE
  5
2A7
100
AcDbEntity
  8
0
100
AcDbLine
 62
7
  6
BYLAYER
 10
31.0469757855
 20
31.4847801285
 11
35.9004663213
 21
31.4424243583
  0
LINE
  5
2A8
100
AcDbEntity
  8
0
100
AcDbLine
 62
7
  6
BYLAYER
 10
31.0469754122
 20
31.5149195669
 11
35.900466412
 21
31.4668883339
  0
LINE
  5
2A9
100
AcDbEntity
  8
0
100
AcDbLine
 62
7
  6
BYLAYER
 10
35.9007579258
 20
31.4743278856
 11
31.0466310672
 21
31.5243445941
  0
LINE
  5
2AA
100
AcDbEntity
  8
0
100
AcDbLine
 62
7
  6
BYLAYER
 10
35.6987210926
 20
69.986510271
 11
35.5829277675
 21
69.7859503487
  0
LINE
  5
2AB
100
AcDbEntity
  8
0
100
AcDbLine
 62
7
  6
BYLAYER
 10
33.2487210926
 20
34.745010271
 11
32.7487210926
 21
34.745010271
  0
LINE
  5
2AC
100
AcDbEntity
  8
0
100
AcDbLine
 62
7
  6
BYLAYER
 10
28.9487210926
 20
34.745010271
 11
28.4487210926
 21
34.745010271
  0
LINE
  5
2AD
100
AcDbEntity
  8
0
100
AcDbLine
 62
7
  6
BYLAYER
 10
33.2487210926
 20
35.785010271
 11
32.7487210926
 21
35.785010271
  0
LINE
  5
2AE
100
AcDbEntity
  8
0
100
AcDbLine
 62
7
  6
BYLAYER
 10
28.9487210926
 20
35.785010271
 11
28.4487210926
 21
35.785010271
  0
LINE
  5
2AF
100
AcDbEntity
  8
0
100
AcDbLine
 62
7
  6
BYLAYER
 10
35.6987210926
 20
15.786510271
 11
35.5829277675
 21
15.9870701934
  0
LINE
  5
2B0
100
AcDbEntity
  8
0
100
AcDbLine
 62
7
  6
BYLAYER
 10
24.5987210926
 20
78.1363117859
 11
24.5987210926
 21
7.6367088
  0
LINE
  5
2B1
100
AcDbEntity
  8
0
100
AcDbLine
 62
7
  6
BYLAYER
 10
25.0943578248
 20
20.7223324789
 11
25.0943578248
 21
7.5327569129
  0
LINE
  5
2B2
100
AcDbEntity
  8
0
100
AcDbLine
 62
7
  6
BYLAYER
 10
25.5987210926
 20
69.5419975335
 11
25.5987210926
 21
16.2310230085
  0
LINE
  5
2B3
100
AcDbEntity
  8
0
100
AcDbLine
 62
7
  6
BYLAYER
 10
25.7474121123
 20
16.2810211047
 11
25.7474121123
 21
69.4919994374
  0
LINE
  5
2B4
100
AcDbEntity
  8
0
100
AcDbLine
 62
7
  6
BYLAYER
 10
25.8487210926
 20
25.0187460483
 11
25.8487210926
 21
18.1826749083
  0
LINE
  5
2B5
100
AcDbEntity
  8
0
100
AcDbLine
 62
7
  6
BYLAYER
 10
26.0305197101
 20
71.536510271
 11
26.0305197101
 21
71.4123445323
  0
LINE
  5
2B6
100
AcDbEntity
  8
0
100
AcDbLine
 62
7
  6
BYLAYER
 10
26.0305197101
 20
42.636510271
 11
26.0305197101
 21
42.5123445323
  0
LINE
  5
2B7
100
AcDbEntity
  8
0
100
AcDbLine
 62
7
  6
BYLAYER
 10
26.0305197101
 20
13.736510271
 11
26.0305197101
 21
13.6123445323
  0
LINE
  5
2B8
100
AcDbEntity
  8
0
100
AcDbLine
 62
7
  6
BYLAYER
 10
25.7427683438
 20
68.7425386585
 11
25.7429951288
 21
69.4851433169
  0
LINE
  5
2B9
100
AcDbEntity
  8
0
100
AcDbLine
 62
7
  6
BYLAYER
 10
25.0987151513
 20
21.2174743921
 11
25.0943641051
 21
20.7223343424
  0
LINE
  5
2BA
100
AcDbEntity
  8
0
100
AcDbLine
 62
7
  6
BYLAYER
 10
29.6138611002
 20
68.5629759733
 11
29.6546524738
 21
68.7587745666
  0
LINE
  5
2BB
100
AcDbEntity
  8
0
100
AcDbLine
 62
7
  6
BYLAYER
 10
33.2487210926
 20
37.285010271
 11
32.7487210926
 21
37.285010271
  0
LINE
  5
2BC
100
AcDbEntity
  8
0
100
AcDbLine
 62
7
  6
BYLAYER
 10
28.9487210926
 20
37.285010271
 11
28.4487210926
 21
37.285010271
  0
LINE
  5
2BD
100
AcDbEntity
  8
0
100
AcDbLine
 62
7
  6
BYLAYER
 10
33.2487210926
 20
38.325010271
 11
32.7487210926
 21
38.325010271
  0
LINE
  5
2BE
100
AcDbEntity
  8
0
100
AcDbLine
 62
7
  6
BYLAYER
 10
28.9487210926
 20
38.325010271
 11
28.4487210926
 21
38.325010271
  0
LINE
  5
2BF
100
AcDbEntity
  8
0
100
AcDbLine
 62
7
  6
BYLAYER
 10
29.6546524801
 20
17.0112459767
 11
29.6138611056
 21
17.2070445699
  0
LINE
  5
2C0
100
AcDbEntity
  8
0
100
AcDbLine
 62
7
  6
BYLAYER
 10
26.6587210926
 20
69.8999370796
 11
26.6587210926
 21
69.699944695
  0
LINE
  5
2C1
100
AcDbEntity
  8
0
100
AcDbLine
 62
7
  6
BYLAYER
 10
26.6587210926
 20
16.0730758471
 11
26.6587210926
 21
15.8730834625
  0
LINE
  5
2C2
100
AcDbEntity
  8
0
100
AcDbLine
 62
7
  6
BYLAYER
 10
26.6587210926
 20
69.4999523104
 11
26.6587210926
 21
16.2730682317
  0
LINE
  5
2C3
100
AcDbEntity
  8
0
100
AcDbLine
 62
7
  6
BYLAYER
 10
26.6587210926
 20
8.086510271
 11
26.6587210926
 21
15.8730834625
  0
LINE
  5
2C4
100
AcDbEntity
  8
0
100
AcDbLine
 62
7
  6
BYLAYER
 10
26.6587210926
 20
16.0730758471
 11
26.6587210926
 21
16.2730682317
  0
LINE
  5
2C5
100
AcDbEntity
  8
0
100
AcDbLine
 62
7
  6
BYLAYER
 10
26.6587210926
 20
69.4999523104
 11
26.6587210926
 21
69.699944695
  0
LINE
  5
2C6
100
AcDbEntity
  8
0
100
AcDbLine
 62
7
  6
BYLAYER
 10
26.6587210926
 20
69.8999370796
 11
26.6587210926
 21
77.686510271
  0
LINE
  5
2C7
100
AcDbEntity
  8
0
100
AcDbLine
 62
7
  6
BYLAYER
 10
26.7007218932
 20
11.986510271
 11
26.7007218932
 21
13.986510271
  0
LINE
  5
2C8
100
AcDbEntity
  8
0
100
AcDbLine
 62
7
  6
BYLAYER
 10
26.7007218932
 20
40.886510271
 11
26.7007218932
 21
42.886510271
  0
LINE
  5
2C9
100
AcDbEntity
  8
0
100
AcDbLine
 62
7
  6
BYLAYER
 10
26.7007218932
 20
69.786510271
 11
26.7007218932
 21
71.786510271
  0
LINE
  5
2CA
100
AcDbEntity
  8
0
100
AcDbLine
 62
7
  6
BYLAYER
 10
26.7237210926
 20
77.625010271
 11
26.7237210926
 21
8.145010271
  0
LINE
  5
2CB
100
AcDbEntity
  8
0
100
AcDbLine
 62
7
  6
BYLAYER
 10
27.1987210926
 20
72.036510271
 11
27.1987210926
 21
71.536510271
  0
LINE
  5
2CC
100
AcDbEntity
  8
0
100
AcDbLine
 62
7
  6
BYLAYER
 10
27.1987210926
 20
14.236510271
 11
27.1987210926
 21
13.736510271
  0
LINE
  5
2CD
100
AcDbEntity
  8
0
100
AcDbLine
 62
7
  6
BYLAYER
 10
27.1987210926
 20
42.636510271
 11
27.1987210926
 21
43.136510271
  0
LINE
  5
2CE
100
AcDbEntity
  8
0
100
AcDbLine
 62
7
  6
BYLAYER
 10
27.5987210926
 20
11.736510271
 11
27.5987210926
 21
16.236510271
  0
LINE
  5
2CF
100
AcDbEntity
  8
0
100
AcDbLine
 62
7
  6
BYLAYER
 10
27.5987210926
 20
40.636510271
 11
27.5987210926
 21
45.136510271
  0
LINE
  5
2D0
100
AcDbEntity
  8
0
100
AcDbLine
 62
7
  6
BYLAYER
 10
27.5987210926
 20
69.536510271
 11
27.5987210926
 21
74.036510271
  0
LINE
  5
2D1
100
AcDbEntity
  8
0
100
AcDbLine
 62
7
  6
BYLAYER
 10
27.6487210926
 20
77.625010271
 11
27.6487210926
 21
74.8765102732
  0
LINE
  5
2D2
100
AcDbEntity
  8
0
100
AcDbLine
 62
7
  6
BYLAYER
 10
27.6487210926
 20
10.893510271
 11
27.6487210926
 21
8.145010271
  0
LINE
  5
2D3
100
AcDbEntity
  8
0
100
AcDbLine
 62
7
  6
BYLAYER
 10
27.6487210926
 20
18.4797414492
 11
27.6487210926
 21
67.2902790929
  0
LINE
  5
2D4
100
AcDbEntity
  8
0
100
AcDbLine
 62
7
  6
BYLAYER
 10
27.8487210926
 20
67.290303937
 11
27.8487210926
 21
18.479716605
  0
LINE
  5
2D5
100
AcDbEntity
  8
0
100
AcDbLine
 62
7
  6
BYLAYER
 10
27.8487210926
 20
8.145010271
 11
27.8487210926
 21
10.8935102697
  0
LINE
  5
2D6
100
AcDbEntity
  8
0
100
AcDbLine
 62
7
  6
BYLAYER
 10
27.8487210926
 20
74.876510273
 11
27.8487210926
 21
77.625010271
  0
LINE
  5
2D7
100
AcDbEntity
  8
0
100
AcDbLine
 62
7
  6
BYLAYER
 10
28.0487210926
 20
77.625010271
 11
28.0487210926
 21
74.8765266738
  0
LINE
  5
2D8
100
AcDbEntity
  8
0
100
AcDbLine
 62
7
  6
BYLAYER
 10
28.0487210926
 20
18.479716605
 11
28.0487210926
 21
67.2903039309
  0
LINE
  5
2D9
100
AcDbEntity
  8
0
100
AcDbLine
 62
7
  6
BYLAYER
 10
28.0487220736
 20
10.893510271
 11
28.0487210926
 21
8.145010271
  0
LINE
  5
2DA
100
AcDbEntity
  8
0
100
AcDbLine
 62
7
  6
BYLAYER
 10
28.1030843603
 20
16.276536022
 11
28.1030843603
 21
16.5084845516
  0
LINE
  5
2DB
100
AcDbEntity
  8
0
100
AcDbLine
 62
7
  6
BYLAYER
 10
28.1030844415
 20
68.712549463
 11
28.1030844415
 21
68.9365408897
  0
LINE
  5
2DC
100
AcDbEntity
  8
0
100
AcDbLine
 62
7
  6
BYLAYER
 10
28.1030844415
 20
68.9365408897
 11
28.1030843603
 21
69.4964845201
  0
LINE
  5
2DD
100
AcDbEntity
  8
0
100
AcDbLine
 62
7
  6
BYLAYER
 10
28.1030845249
 20
16.8604710784
 11
28.1030845249
 21
16.508484415
  0
LINE
  5
2DE
100
AcDbEntity
  8
0
100
AcDbLine
 62
7
  6
BYLAYER
 10
28.4487210926
 20
18.005010271
 11
28.4487210926
 21
19.505010271
  0
LINE
  5
2DF
100
AcDbEntity
  8
0
100
AcDbLine
 62
7
  6
BYLAYER
 10
28.4487210926
 20
20.545010271
 11
28.4487210926
 21
22.045010271
  0
LINE
  5
2E0
100
AcDbEntity
  8
0
100
AcDbLine
 62
7
  6
BYLAYER
 10
28.4487210926
 20
23.085010271
 11
28.4487210926
 21
24.585010271
  0
LINE
  5
2E1
100
AcDbEntity
  8
0
100
AcDbLine
 62
7
  6
BYLAYER
 10
28.4487210926
 20
25.625010271
 11
28.4487210926
 21
27.125010271
  0
LINE
  5
2E2
100
AcDbEntity
  8
0
100
AcDbLine
 62
7
  6
BYLAYER
 10
28.4487210926
 20
28.165010271
 11
28.4487210926
 21
29.665010271
  0
LINE
  5
2E3
100
AcDbEntity
  8
0
100
AcDbLine
 62
7
  6
BYLAYER
 10
28.4487210926
 20
30.705010271
 11
28.4487210926
 21
32.205010271
  0
LINE
  5
2E4
100
AcDbEntity
  8
0
100
AcDbLine
 62
7
  6
BYLAYER
 10
28.4487210926
 20
33.245010271
 11
28.4487210926
 21
34.745010271
  0
LINE
  5
2E5
100
AcDbEntity
  8
0
100
AcDbLine
 62
7
  6
BYLAYER
 10
28.4487210926
 20
35.785010271
 11
28.4487210926
 21
37.285010271
  0
LINE
  5
2E6
100
AcDbEntity
  8
0
100
AcDbLine
 62
7
  6
BYLAYER
 10
28.4487210926
 20
38.325010271
 11
28.4487210926
 21
39.825010271
  0
LINE
  5
2E7
100
AcDbEntity
  8
0
100
AcDbLine
 62
7
  6
BYLAYER
 10
28.4487210926
 20
40.865010271
 11
28.4487210926
 21
42.365010271
  0
LINE
  5
2E8
100
AcDbEntity
  8
0
100
AcDbLine
 62
7
  6
BYLAYER
 10
28.4487210926
 20
43.405010271
 11
28.4487210926
 21
44.905010271
  0
LINE
  5
2E9
100
AcDbEntity
  8
0
100
AcDbLine
 62
7
  6
BYLAYER
 10
28.4487210926
 20
45.945010271
 11
28.4487210926
 21
47.445010271
  0
LINE
  5
2EA
100
AcDbEntity
  8
0
100
AcDbLine
 62
7
  6
BYLAYER
 10
28.4487210926
 20
48.485010271
 11
28.4487210926
 21
49.985010271
  0
LINE
  5
2EB
100
AcDbEntity
  8
0
100
AcDbLine
 62
7
  6
BYLAYER
 10
28.4487210926
 20
51.025010271
 11
28.4487210926
 21
52.525010271
  0
LINE
  5
2EC
100
AcDbEntity
  8
0
100
AcDbLine
 62
7
  6
BYLAYER
 10
28.4487210926
 20
53.565010271
 11
28.4487210926
 21
55.065010271
  0
LINE
  5
2ED
100
AcDbEntity
  8
0
100
AcDbLine
 62
7
  6
BYLAYER
 10
28.4487210926
 20
56.105010271
 11
28.4487210926
 21
57.605010271
  0
LINE
  5
2EE
100
AcDbEntity
  8
0
100
AcDbLine
 62
7
  6
BYLAYER
 10
28.4487210926
 20
58.645010271
 11
28.4487210926
 21
60.145010271
  0
LINE
  5
2EF
100
AcDbEntity
  8
0
100
AcDbLine
 62
7
  6
BYLAYER
 10
28.4487210926
 20
61.185010271
 11
28.4487210926
 21
62.685010271
  0
LINE
  5
2F0
100
AcDbEntity
  8
0
100
AcDbLine
 62
7
  6
BYLAYER
 10
28.4487210926
 20
63.725010271
 11
28.4487210926
 21
65.225010271
  0
LINE
  5
2F1
100
AcDbEntity
  8
0
100
AcDbLine
 62
7
  6
BYLAYER
 10
28.4487210926
 20
66.265010271
 11
28.4487210926
 21
67.765010271
  0
LINE
  5
2F2
100
AcDbEntity
  8
0
100
AcDbLine
 62
7
  6
BYLAYER
 10
28.5987210926
 20
69.3271642887
 11
28.5987210926
 21
69.2125304238
  0
LINE
  5
2F3
100
AcDbEntity
  8
0
100
AcDbLine
 62
7
  6
BYLAYER
 10
28.5987210926
 20
69.5186125764
 11
28.5987210926
 21
69.3271642887
  0
LINE
  5
2F4
100
AcDbEntity
  8
0
100
AcDbLine
 62
7
  6
BYLAYER
 10
28.5987210926
 20
16.2544079657
 11
28.5987210926
 21
16.3604901183
  0
LINE
  5
2F5
100
AcDbEntity
  8
0
100
AcDbLine
 62
7
  6
BYLAYER
 10
32.6546524735
 20
68.1337745667
 11
32.6138609244
 21
67.9379751307
  0
LINE
  5
2F6
100
AcDbEntity
  8
0
100
AcDbLine
 62
7
  6
BYLAYER
 10
30.6504663997
 20
39.6347801285
 11
25.7474122773
 21
39.5919918234
  0
LINE
  5
2F7
100
AcDbEntity
  8
0
100
AcDbLine
 62
7
  6
BYLAYER
 10
25.7474120282
 20
40.2301831068
 11
28.2957302635
 21
40.2524219432
  0
LINE
  5
2F8
100
AcDbEntity
  8
0
100
AcDbLine
 62
7
  6
BYLAYER
 10
25.7474122773
 20
40.0441494822
 11
29.0943578249
 21
40.0693491202
  0
LINE
  5
2F9
100
AcDbEntity
  8
0
100
AcDbLine
 62
7
  6
BYLAYER
 10
29.0943578249
 20
39.1306066211
 11
25.7474121002
 21
39.1252086149
  0
LINE
  5
2FA
100
AcDbEntity
  8
0
100
AcDbLine
 62
7
  6
BYLAYER
 10
33.2487210926
 20
39.825010271
 11
32.7487210926
 21
39.825010271
  0
LINE
  5
2FB
100
AcDbEntity
  8
0
100
AcDbLine
 62
7
  6
BYLAYER
 10
28.9487210926
 20
39.825010271
 11
28.4487210926
 21
39.825010271
  0
LINE
  5
2FC
100
AcDbEntity
  8
0
100
AcDbLine
 62
7
  6
BYLAYER
 10
27.5987210926
 20
40.636510271
 11
24.5987210926
 21
40.636510271
  0
LINE
  5
2FD
100
AcDbEntity
  8
0
100
AcDbLine
 62
7
  6
BYLAYER
 10
33.2969757855
 20
38.9899348285
 11
35.9004664481
 21
38.9857675917
  0
LINE
  5
2FE
100
AcDbEntity
  8
0
100
AcDbLine
 62
7
  6
BYLAYER
 10
33.2969757565
 20
40.0161256089
 11
35.9004663747
 21
39.9961901869
  0
LINE
  5
2FF
100
AcDbEntity
  8
0
100
AcDbLine
 62
7
  6
BYLAYER
 10
33.2969757855
 20
39.615144676
 11
35.9004663747
 21
39.5924243578
  0
LINE
  5
300
100
AcDbEntity
  8
0
100
AcDbLine
 62
7
  6
BYLAYER
 10
35.9004664481
 20
40.17464587
 11
33.2969757855
 21
40.1973661888
  0
LINE
  5
301
100
AcDbEntity
  8
0
100
AcDbLine
 62
7
  6
BYLAYER
 10
32.6138609203
 20
17.8320454322
 11
32.6546524738
 21
17.6362459754
  0
LINE
  5
302
100
AcDbEntity
  8
0
100
AcDbLine
 62
7
  6
BYLAYER
 10
28.7969757868
 20
16.1645142177
 11
28.7969757868
 21
16.054415581
  0
LINE
  5
303
100
AcDbEntity
  8
0
100
AcDbLine
 62
7
  6
BYLAYER
 10
28.8487210926
 20
24.3948409136
 11
28.8487210923
 21
18.8730723737
  0
LINE
  5
304
100
AcDbEntity
  8
0
100
AcDbLine
 62
7
  6
BYLAYER
 10
28.9487210926
 20
67.765010271
 11
28.9487210926
 21
66.265010271
  0
LINE
  5
305
100
AcDbEntity
  8
0
100
AcDbLine
 62
7
  6
BYLAYER
 10
28.9487210926
 20
65.225010271
 11
28.9487210926
 21
63.725010271
  0
LINE
  5
306
100
AcDbEntity
  8
0
100
AcDbLine
 62
7
  6
BYLAYER
 10
28.9487210926
 20
62.685010271
 11
28.9487210926
 21
61.185010271
  0
LINE
  5
307
100
AcDbEntity
  8
0
100
AcDbLine
 62
7
  6
BYLAYER
 10
28.9487210926
 20
60.145010271
 11
28.9487210926
 21
58.645010271
  0
LINE
  5
308
100
AcDbEntity
  8
0
100
AcDbLine
 62
7
  6
BYLAYER
 10
28.9487210926
 20
57.605010271
 11
28.9487210926
 21
56.105010271
  0
LINE
  5
309
100
AcDbEntity
  8
0
100
AcDbLine
 62
7
  6
BYLAYER
 10
28.9487210926
 20
55.065010271
 11
28.9487210926
 21
53.565010271
  0
LINE
  5
30A
100
AcDbEntity
  8
0
100
AcDbLine
 62
7
  6
BYLAYER
 10
28.9487210926
 20
52.525010271
 11
28.9487210926
 21
51.025010271
  0
LINE
  5
30B
100
AcDbEntity
  8
0
100
AcDbLine
 62
7
  6
BYLAYER
 10
28.9487210926
 20
49.985010271
 11
28.9487210926
 21
48.485010271
  0
LINE
  5
30C
100
AcDbEntity
  8
0
100
AcDbLine
 62
7
  6
BYLAYER
 10
28.9487210926
 20
47.445010271
 11
28.9487210926
 21
45.945010271
  0
LINE
  5
30D
100
AcDbEntity
  8
0
100
AcDbLine
 62
7
  6
BYLAYER
 10
28.9487210926
 20
44.905010271
 11
28.9487210926
 21
43.405010271
  0
LINE
  5
30E
100
AcDbEntity
  8
0
100
AcDbLine
 62
7
  6
BYLAYER
 10
28.9487210926
 20
42.365010271
 11
28.9487210926
 21
40.865010271
  0
LINE
  5
30F
100
AcDbEntity
  8
0
100
AcDbLine
 62
7
  6
BYLAYER
 10
28.9487210926
 20
39.825010271
 11
28.9487210926
 21
38.325010271
  0
LINE
  5
310
100
AcDbEntity
  8
0
100
AcDbLine
 62
7
  6
BYLAYER
 10
28.9487210926
 20
37.285010271
 11
28.9487210926
 21
35.785010271
  0
LINE
  5
311
100
AcDbEntity
  8
0
100
AcDbLine
 62
7
  6
BYLAYER
 10
28.9487210926
 20
34.745010271
 11
28.9487210926
 21
33.245010271
  0
LINE
  5
312
100
AcDbEntity
  8
0
100
AcDbLine
 62
7
  6
BYLAYER
 10
28.9487210926
 20
32.205010271
 11
28.9487210926
 21
30.705010271
  0
LINE
  5
313
100
AcDbEntity
  8
0
100
AcDbLine
 62
7
  6
BYLAYER
 10
28.9487210926
 20
29.665010271
 11
28.9487210926
 21
28.165010271
  0
LINE
  5
314
100
AcDbEntity
  8
0
100
AcDbLine
 62
7
  6
BYLAYER
 10
28.9487210926
 20
27.125010271
 11
28.9487210926
 21
25.625010271
  0
LINE
  5
315
100
AcDbEntity
  8
0
100
AcDbLine
 62
7
  6
BYLAYER
 10
28.9487210926
 20
24.585010271
 11
28.9487210926
 21
23.085010271
  0
LINE
  5
316
100
AcDbEntity
  8
0
100
AcDbLine
 62
7
  6
BYLAYER
 10
28.9487210926
 20
22.045010271
 11
28.9487210926
 21
20.545010271
  0
LINE
  5
317
100
AcDbEntity
  8
0
100
AcDbLine
 62
7
  6
BYLAYER
 10
28.9487210926
 20
19.505010271
 11
28.9487210926
 21
18.005010271
  0
LINE
  5
318
100
AcDbEntity
  8
0
100
AcDbLine
 62
7
  6
BYLAYER
 10
29.0943578249
 20
39.1306065166
 11
29.0943578249
 21
40.8356522123
  0
LINE
  5
319
100
AcDbEntity
  8
0
100
AcDbLine
 62
7
  6
BYLAYER
 10
29.0943578249
 20
45.8548374503
 11
29.0943578249
 21
46.1442330227
  0
LINE
  5
31A
100
AcDbEntity
  8
0
100
AcDbLine
 62
7
  6
BYLAYER
 10
29.0943578249
 20
46.4382889596
 11
29.0943578249
 21
47.9031014108
  0
LINE
  5
31B
100
AcDbEntity
  8
0
100
AcDbLine
 62
7
  6
BYLAYER
 10
29.5943577471
 20
40.8170923866
 11
29.5943577471
 21
44.9559281554
  0
LINE
  5
31C
100
AcDbEntity
  8
0
100
AcDbLine
 62
7
  6
BYLAYER
 10
30.6504662625
 20
31.0764712518
 11
30.6504662625
 21
26.5200729787
  0
LINE
  5
31D
100
AcDbEntity
  8
0
100
AcDbLine
 62
7
  6
BYLAYER
 10
30.6504662862
 20
56.3179389066
 11
30.6504662862
 21
56.960164297
  0
LINE
  5
31E
100
AcDbEntity
  8
0
100
AcDbLine
 62
7
  6
BYLAYER
 10
30.6504663226
 20
56.3179389247
 11
30.6504663226
 21
46.413648623
  0
LINE
  5
31F
100
AcDbEntity
  8
0
100
AcDbLine
 62
7
  6
BYLAYER
 10
30.6504663997
 20
22.6124253922
 11
30.6504663997
 21
22.619852162
  0
LINE
  5
320
100
AcDbEntity
  8
0
100
AcDbLine
 62
7
  6
BYLAYER
 10
30.65046642
 20
22.612425392
 11
30.6504663941
 21
16.0382404136
  0
LINE
  5
321
100
AcDbEntity
  8
0
100
AcDbLine
 62
7
  6
BYLAYER
 10
30.6504664265
 20
46.1382404133
 11
30.6504663836
 21
35.257869564
  0
LINE
  5
322
100
AcDbEntity
  8
0
100
AcDbLine
 62
7
  6
BYLAYER
 10
30.6504662441
 20
69.5825867822
 11
30.6504662862
 21
56.960164297
  0
LINE
  5
323
100
AcDbEntity
  8
0
100
AcDbLine
 62
7
  6
BYLAYER
 10
30.6504664564
 20
34.6856662865
 11
30.6504664564
 21
31.4859745035
  0
LINE
  5
324
100
AcDbEntity
  8
0
100
AcDbLine
 62
7
  6
BYLAYER
 10
30.7026649287
 20
19.2802787711
 11
30.7026649287
 21
17.8143677516
  0
LINE
  5
325
100
AcDbEntity
  8
0
100
AcDbLine
 62
7
  6
BYLAYER
 10
30.7026649287
 20
20.9393680274
 11
30.7026649287
 21
22.4052790469
  0
LINE
  5
326
100
AcDbEntity
  8
0
100
AcDbLine
 62
7
  6
BYLAYER
 10
30.8487210926
 20
78.236510271
 11
30.8487210926
 21
76.076510271
  0
LINE
  5
327
100
AcDbEntity
  8
0
100
AcDbLine
 62
7
  6
BYLAYER
 10
30.8487210926
 20
9.696510271
 11
30.8487210926
 21
7.536510271
  0
LINE
  5
328
100
AcDbEntity
  8
0
100
AcDbLine
 62
7
  6
BYLAYER
 10
30.8487210926
 20
7.086510271
 11
30.8487210926
 21
7.536510271
  0
LINE
  5
329
100
AcDbEntity
  8
0
100
AcDbLine
 62
7
  6
BYLAYER
 10
30.8487210926
 20
12.096510271
 11
30.8487210926
 21
73.676510271
  0
LINE
  5
32A
100
AcDbEntity
  8
0
100
AcDbLine
 62
7
  6
BYLAYER
 10
30.9947772565
 20
22.2579857233
 11
30.9947772565
 21
20.9634401588
  0
LINE
  5
32B
100
AcDbEntity
  8
0
100
AcDbLine
 62
7
  6
BYLAYER
 10
30.9947772565
 20
17.838439883
 11
30.9947772565
 21
19.1329854475
  0
LINE
  5
32C
100
AcDbEntity
  8
0
100
AcDbLine
 62
7
  6
BYLAYER
 10
31.0411397892
 20
69.5436181792
 11
31.0411279706
 21
68.9291932333
  0
LINE
  5
32D
100
AcDbEntity
  8
0
100
AcDbLine
 62
7
  6
BYLAYER
 10
31.0469757855
 20
22.5591630282
 11
31.0469757879
 21
22.4807141885
  0
LINE
  5
32E
100
AcDbEntity
  8
0
100
AcDbLine
 62
7
  6
BYLAYER
 10
31.0469757217
 20
31.4847801291
 11
31.0469757217
 21
34.6856662863
  0
LINE
  5
32F
100
AcDbEntity
  8
0
100
AcDbLine
 62
7
  6
BYLAYER
 10
31.0469757852
 20
16.0382404135
 11
31.0469757879
 21
22.4807141885
  0
LINE
  5
330
100
AcDbEntity
  8
0
100
AcDbLine
 62
7
  6
BYLAYER
 10
31.0469757855
 20
22.5591630282
 11
31.0469757855
 21
22.598535348
  0
LINE
  5
331
100
AcDbEntity
  8
0
100
AcDbLine
 62
7
  6
BYLAYER
 10
31.0469758038
 20
35.2578694299
 11
31.0469758038
 21
56.3179389249
  0
LINE
  5
332
100
AcDbEntity
  8
0
100
AcDbLine
 62
7
  6
BYLAYER
 10
31.0469758908
 20
56.960164297
 11
31.0469758908
 21
56.3179389246
  0
LINE
  5
333
100
AcDbEntity
  8
0
100
AcDbLine
 62
7
  6
BYLAYER
 10
31.0469758908
 20
56.960164297
 11
31.0469757855
 21
69.5825914325
  0
LINE
  5
334
100
AcDbEntity
  8
0
100
AcDbLine
 62
7
  6
BYLAYER
 10
31.0469759224
 20
26.5200730948
 11
31.0469759224
 21
31.0764712532
  0
LINE
  5
335
100
AcDbEntity
  8
0
100
AcDbLine
 62
7
  6
BYLAYER
 10
30.6563212302
 20
69.5436120144
 11
30.6562798229
 21
68.9291845402
  0
LINE
  5
336
100
AcDbEntity
  8
0
100
AcDbLine
 62
7
  6
BYLAYER
 10
27.1987210926
 20
42.336510271
 11
26.2133658121
 21
41.7617196908
  0
LINE
  5
337
100
AcDbEntity
  8
0
100
AcDbLine
 62
7
  6
BYLAYER
 10
26.2047976541
 20
41.7567215986
 11
26.2133658121
 21
41.7617196908
  0
LINE
  5
338
100
AcDbEntity
  8
0
100
AcDbLine
 62
7
  6
BYLAYER
 10
33.2487210926
 20
40.865010271
 11
32.7487210926
 21
40.865010271
  0
LINE
  5
339
100
AcDbEntity
  8
0
100
AcDbLine
 62
7
  6
BYLAYER
 10
28.9487210926
 20
40.865010271
 11
28.4487210926
 21
40.865010271
  0
LINE
  5
33A
100
AcDbEntity
  8
0
100
AcDbLine
 62
7
  6
BYLAYER
 10
28.4487210926
 20
42.365010271
 11
28.9487210926
 21
42.365010271
  0
LINE
  5
33B
100
AcDbEntity
  8
0
100
AcDbLine
 62
7
  6
BYLAYER
 10
32.7487210926
 20
42.365010271
 11
33.2487210926
 21
42.365010271
  0
LINE
  5
33C
100
AcDbEntity
  8
0
100
AcDbLine
 62
7
  6
BYLAYER
 10
26.2133658121
 20
42.636510271
 11
27.1987210926
 21
42.636510271
  0
LINE
  5
33D
100
AcDbEntity
  8
0
100
AcDbLine
 62
7
  6
BYLAYER
 10
37.0987210926
 20
42.886510271
 11
34.0987210926
 21
42.886510271
  0
LINE
  5
33E
100
AcDbEntity
  8
0
100
AcDbLine
 62
7
  6
BYLAYER
 10
27.1987210926
 20
43.136510271
 11
26.2133658121
 21
43.136510271
  0
LINE
  5
33F
100
AcDbEntity
  8
0
100
AcDbLine
 62
7
  6
BYLAYER
 10
29.5943577471
 20
40.8170923866
 11
32.6030843167
 21
40.7908356276
  0
LINE
  5
340
100
AcDbEntity
  8
0
100
AcDbLine
 62
7
  6
BYLAYER
 10
37.0987210926
 20
40.836510271
 11
34.0987210926
 21
40.8626908744
  0
LINE
  5
341
100
AcDbEntity
  8
0
100
AcDbLine
 62
7
  6
BYLAYER
 10
27.1987210926
 20
43.436510271
 11
26.2133658121
 21
44.0113008513
  0
LINE
  5
342
100
AcDbEntity
  8
0
100
AcDbLine
 62
7
  6
BYLAYER
 10
26.2047976541
 20
44.0162989435
 11
26.2133658121
 21
44.0113008513
  0
LINE
  5
343
100
AcDbEntity
  8
0
100
AcDbLine
 62
7
  6
BYLAYER
 10
31.2987203059
 20
72.1219686045
 11
31.2987203059
 21
21.1680083465
  0
LINE
  5
344
100
AcDbEntity
  8
0
100
AcDbLine
 62
7
  6
BYLAYER
 10
31.2987210926
 20
17.7658495538
 11
31.2987210926
 21
13.8960935754
  0
LINE
  5
345
100
AcDbEntity
  8
0
100
AcDbLine
 62
7
  6
BYLAYER
 10
31.2987210926
 20
7.0904373615
 11
31.2987210926
 21
8.9460176045
  0
LINE
  5
346
100
AcDbEntity
  8
0
100
AcDbLine
 62
7
  6
BYLAYER
 10
31.2987210926
 20
20.484650128
 11
31.2987210926
 21
20.8851744063
  0
LINE
  5
347
100
AcDbEntity
  8
0
100
AcDbLine
 62
7
  6
BYLAYER
 10
31.2987210926
 20
76.8270029376
 11
31.2987210926
 21
78.6825831805
  0
LINE
  5
348
100
AcDbEntity
  8
0
100
AcDbLine
 62
7
  6
BYLAYER
 10
31.39872083
 20
21.1708726332
 11
31.39872083
 21
72.3344773722
  0
LINE
  5
349
100
AcDbEntity
  8
0
100
AcDbLine
 62
7
  6
BYLAYER
 10
31.3987210926
 20
78.6817104937
 11
31.3987210926
 21
76.8278756244
  0
LINE
  5
34A
100
AcDbEntity
  8
0
100
AcDbLine
 62
7
  6
BYLAYER
 10
31.3987210926
 20
20.9242280556
 11
31.3987210926
 21
20.4839387697
  0
LINE
  5
34B
100
AcDbEntity
  8
0
100
AcDbLine
 62
7
  6
BYLAYER
 10
31.3987210926
 20
8.9451449177
 11
31.3987210926
 21
7.0913100483
  0
LINE
  5
34C
100
AcDbEntity
  8
0
100
AcDbLine
 62
7
  6
BYLAYER
 10
31.3987210926
 20
17.0591658043
 11
31.3987210926
 21
17.808044777
  0
LINE
  5
34D
100
AcDbEntity
  8
0
100
AcDbLine
 62
7
  6
BYLAYER
 10
31.3987210904
 20
13.4986847633
 11
31.3987210926
 21
13.9516998828
  0
LINE
  5
34E
100
AcDbEntity
  8
0
100
AcDbLine
 62
7
  6
BYLAYER
 10
32.6030843167
 20
40.7908356276
 11
32.6030843167
 21
44.9821849144
  0
LINE
  5
34F
100
AcDbEntity
  8
0
100
AcDbLine
 62
7
  6
BYLAYER
 10
32.7487210926
 20
18.005010271
 11
32.7487210926
 21
19.505010271
  0
LINE
  5
350
100
AcDbEntity
  8
0
100
AcDbLine
 62
7
  6
BYLAYER
 10
32.7487210926
 20
20.545010271
 11
32.7487210926
 21
22.045010271
  0
LINE
  5
351
100
AcDbEntity
  8
0
100
AcDbLine
 62
7
  6
BYLAYER
 10
32.7487210926
 20
23.085010271
 11
32.7487210926
 21
24.585010271
  0
LINE
  5
352
100
AcDbEntity
  8
0
100
AcDbLine
 62
7
  6
BYLAYER
 10
32.7487210926
 20
25.625010271
 11
32.7487210926
 21
27.125010271
  0
LINE
  5
353
100
AcDbEntity
  8
0
100
AcDbLine
 62
7
  6
BYLAYER
 10
32.7487210926
 20
28.165010271
 11
32.7487210926
 21
29.665010271
  0
LINE
  5
354
100
AcDbEntity
  8
0
100
AcDbLine
 62
7
  6
BYLAYER
 10
32.7487210926
 20
30.705010271
 11
32.7487210926
 21
32.205010271
  0
LINE
  5
355
100
AcDbEntity
  8
0
100
AcDbLine
 62
7
  6
BYLAYER
 10
32.7487210926
 20
33.245010271
 11
32.7487210926
 21
34.745010271
  0
LINE
  5
356
100
AcDbEntity
  8
0
100
AcDbLine
 62
7
  6
BYLAYER
 10
32.7487210926
 20
35.785010271
 11
32.7487210926
 21
37.285010271
  0
LINE
  5
357
100
AcDbEntity
  8
0
100
AcDbLine
 62
7
  6
BYLAYER
 10
32.7487210926
 20
38.325010271
 11
32.7487210926
 21
39.825010271
  0
LINE
  5
358
100
AcDbEntity
  8
0
100
AcDbLine
 62
7
  6
BYLAYER
 10
32.7487210926
 20
40.865010271
 11
32.7487210926
 21
42.365010271
  0
LINE
  5
359
100
AcDbEntity
  8
0
100
AcDbLine
 62
7
  6
BYLAYER
 10
32.7487210926
 20
43.405010271
 11
32.7487210926
 21
44.905010271
  0
LINE
  5
35A
100
AcDbEntity
  8
0
100
AcDbLine
 62
7
  6
BYLAYER
 10
32.7487210926
 20
45.945010271
 11
32.7487210926
 21
47.445010271
  0
LINE
  5
35B
100
AcDbEntity
  8
0
100
AcDbLine
 62
7
  6
BYLAYER
 10
32.7487210926
 20
48.485010271
 11
32.7487210926
 21
49.985010271
  0
LINE
  5
35C
100
AcDbEntity
  8
0
100
AcDbLine
 62
7
  6
BYLAYER
 10
32.7487210926
 20
51.025010271
 11
32.7487210926
 21
52.525010271
  0
LINE
  5
35D
100
AcDbEntity
  8
0
100
AcDbLine
 62
7
  6
BYLAYER
 10
32.7487210926
 20
53.565010271
 11
32.7487210926
 21
55.065010271
  0
LINE
  5
35E
100
AcDbEntity
  8
0
100
AcDbLine
 62
7
  6
BYLAYER
 10
32.7487210926
 20
56.105010271
 11
32.7487210926
 21
57.605010271
  0
LINE
  5
35F
100
AcDbEntity
  8
0
100
AcDbLine
 62
7
  6
BYLAYER
 10
32.7487210926
 20
58.645010271
 11
32.7487210926
 21
60.145010271
  0
LINE
  5
360
100
AcDbEntity
  8
0
100
AcDbLine
 62
7
  6
BYLAYER
 10
32.7487210926
 20
61.185010271
 11
32.7487210926
 21
62.685010271
  0
LINE
  5
361
100
AcDbEntity
  8
0
100
AcDbLine
 62
7
  6
BYLAYER
 10
32.7487210926
 20
63.725010271
 11
32.7487210926
 21
65.225010271
  0
LINE
  5
362
100
AcDbEntity
  8
0
100
AcDbLine
 62
7
  6
BYLAYER
 10
32.7487210926
 20
66.265010271
 11
32.7487210926
 21
67.765010271
  0
LINE
  5
363
100
AcDbEntity
  8
0
100
AcDbLine
 62
7
  6
BYLAYER
 10
32.8487210929
 20
18.8730723737
 11
32.8487210926
 21
24.3948261642
  0
LINE
  5
364
100
AcDbEntity
  8
0
100
AcDbLine
 62
7
  6
BYLAYER
 10
32.9004664138
 20
16.0544155812
 11
32.9004664138
 21
16.1645144296
  0
LINE
  5
365
100
AcDbEntity
  8
0
100
AcDbLine
 62
7
  6
BYLAYER
 10
32.9004663994
 20
40.0636489631
 11
32.9004663994
 21
46.9864199285
  0
LINE
  5
366
100
AcDbEntity
  8
0
100
AcDbLine
 62
7
  6
BYLAYER
 10
33.0987210926
 20
46.9337445051
 11
33.0987210926
 21
40.0248209668
  0
LINE
  5
367
100
AcDbEntity
  8
0
100
AcDbLine
 62
7
  6
BYLAYER
 10
33.0987210926
 20
40.0248209668
 11
33.0987210926
 21
39.8174017533
  0
LINE
  5
368
100
AcDbEntity
  8
0
100
AcDbLine
 62
7
  6
BYLAYER
 10
33.0987210926
 20
16.3604901183
 11
33.0987210926
 21
16.2544087312
  0
LINE
  5
369
100
AcDbEntity
  8
0
100
AcDbLine
 62
7
  6
BYLAYER
 10
33.0987210926
 20
69.2125304238
 11
33.0987210926
 21
69.3271623971
  0
LINE
  5
36A
100
AcDbEntity
  8
0
100
AcDbLine
 62
7
  6
BYLAYER
 10
33.0987210926
 20
69.3271623971
 11
33.0987210926
 21
69.5186125763
  0
LINE
  5
36B
100
AcDbEntity
  8
0
100
AcDbLine
 62
7
  6
BYLAYER
 10
33.2487210926
 20
67.765010271
 11
33.2487210926
 21
66.265010271
  0
LINE
  5
36C
100
AcDbEntity
  8
0
100
AcDbLine
 62
7
  6
BYLAYER
 10
33.2487210926
 20
65.225010271
 11
33.2487210926
 21
63.725010271
  0
LINE
  5
36D
100
AcDbEntity
  8
0
100
AcDbLine
 62
7
  6
BYLAYER
 10
33.2487210926
 20
62.685010271
 11
33.2487210926
 21
61.185010271
  0
LINE
  5
36E
100
AcDbEntity
  8
0
100
AcDbLine
 62
7
  6
BYLAYER
 10
33.2487210926
 20
60.145010271
 11
33.2487210926
 21
58.645010271
  0
LINE
  5
36F
100
AcDbEntity
  8
0
100
AcDbLine
 62
7
  6
BYLAYER
 10
33.2487210926
 20
57.605010271
 11
33.2487210926
 21
56.105010271
  0
LINE
  5
370
100
AcDbEntity
  8
0
100
AcDbLine
 62
7
  6
BYLAYER
 10
33.2487210926
 20
55.065010271
 11
33.2487210926
 21
53.565010271
  0
LINE
  5
371
100
AcDbEntity
  8
0
100
AcDbLine
 62
7
  6
BYLAYER
 10
33.2487210926
 20
52.525010271
 11
33.2487210926
 21
51.025010271
  0
LINE
  5
372
100
AcDbEntity
  8
0
100
AcDbLine
 62
7
  6
BYLAYER
 10
33.2487210926
 20
49.985010271
 11
33.2487210926
 21
48.485010271
  0
LINE
  5
373
100
AcDbEntity
  8
0
100
AcDbLine
 62
7
  6
BYLAYER
 10
33.2487210926
 20
47.445010271
 11
33.2487210926
 21
45.945010271
  0
LINE
  5
374
100
AcDbEntity
  8
0
100
AcDbLine
 62
7
  6
BYLAYER
 10
33.2487210926
 20
44.905010271
 11
33.2487210926
 21
43.405010271
  0
LINE
  5
375
100
AcDbEntity
  8
0
100
AcDbLine
 62
7
  6
BYLAYER
 10
33.2487210926
 20
42.365010271
 11
33.2487210926
 21
40.865010271
  0
LINE
  5
376
100
AcDbEntity
  8
0
100
AcDbLine
 62
7
  6
BYLAYER
 10
33.2487210926
 20
39.825010271
 11
33.2487210926
 21
38.325010271
  0
LINE
  5
377
100
AcDbEntity
  8
0
100
AcDbLine
 62
7
  6
BYLAYER
 10
33.2487210926
 20
37.285010271
 11
33.2487210926
 21
35.785010271
  0
LINE
  5
378
100
AcDbEntity
  8
0
100
AcDbLine
 62
7
  6
BYLAYER
 10
33.2487210926
 20
34.745010271
 11
33.2487210926
 21
33.245010271
  0
LINE
  5
379
100
AcDbEntity
  8
0
100
AcDbLine
 62
7
  6
BYLAYER
 10
33.2487210926
 20
32.205010271
 11
33.2487210926
 21
30.705010271
  0
LINE
  5
37A
100
AcDbEntity
  8
0
100
AcDbLine
 62
7
  6
BYLAYER
 10
33.2487210926
 20
29.665010271
 11
33.2487210926
 21
28.165010271
  0
LINE
  5
37B
100
AcDbEntity
  8
0
100
AcDbLine
 62
7
  6
BYLAYER
 10
33.2487210926
 20
27.125010271
 11
33.2487210926
 21
25.625010271
  0
LINE
  5
37C
100
AcDbEntity
  8
0
100
AcDbLine
 62
7
  6
BYLAYER
 10
33.2487210926
 20
24.585010271
 11
33.2487210926
 21
23.085010271
  0
LINE
  5
37D
100
AcDbEntity
  8
0
100
AcDbLine
 62
7
  6
BYLAYER
 10
33.2487210926
 20
22.045010271
 11
33.2487210926
 21
20.545010271
  0
LINE
  5
37E
100
AcDbEntity
  8
0
100
AcDbLine
 62
7
  6
BYLAYER
 10
33.2487210926
 20
19.505010271
 11
33.2487210926
 21
18.005010271
  0
LINE
  5
37F
100
AcDbEntity
  8
0
100
AcDbLine
 62
7
  6
BYLAYER
 10
33.2969757855
 20
38.9899348302
 11
33.2969757855
 21
48.0380276109
  0
LINE
  5
380
100
AcDbEntity
  8
0
100
AcDbLine
 62
7
  6
BYLAYER
 10
33.3974005381
 20
22.5346692972
 11
33.3973995379
 21
22.6008141067
  0
LINE
  5
381
100
AcDbEntity
  8
0
100
AcDbLine
 62
7
  6
BYLAYER
 10
33.3973995381
 20
25.7342055189
 11
33.3974005381
 21
25.6680611024
  0
LINE
  5
382
100
AcDbEntity
  8
0
100
AcDbLine
 62
7
  6
BYLAYER
 10
33.3973975626
 20
22.6524976358
 11
33.3973975639
 21
22.7229167468
  0
LINE
  5
383
100
AcDbEntity
  8
0
100
AcDbLine
 62
7
  6
BYLAYER
 10
33.3974005381
 20
24.7617256753
 11
33.3974005381
 21
23.6984455964
  0
LINE
  5
384
100
AcDbEntity
  8
0
100
AcDbLine
 62
7
  6
BYLAYER
 10
33.3974005381
 20
22.7921101692
 11
33.3974005381
 21
22.7261823008
  0
LINE
  5
385
100
AcDbEntity
  8
0
100
AcDbLine
 62
7
  6
BYLAYER
 10
33.3974005381
 20
20.5650537911
 11
33.3974005381
 21
21.6283338723
  0
LINE
  5
386
100
AcDbEntity
  8
0
100
AcDbLine
 62
7
  6
BYLAYER
 10
33.3973995381
 20
19.5925739491
 11
33.3974005672
 21
19.658718455
  0
LINE
  5
387
100
AcDbEntity
  8
0
100
AcDbLine
 62
7
  6
BYLAYER
 10
33.3973975631
 20
25.908400967
 11
33.3974005381
 21
25.9788200479
  0
LINE
  5
388
100
AcDbEntity
  8
0
100
AcDbLine
 62
7
  6
BYLAYER
 10
33.4504663997
 20
22.3912676675
 11
33.4504663997
 21
22.5761770556
  0
LINE
  5
389
100
AcDbEntity
  8
0
100
AcDbLine
 62
7
  6
BYLAYER
 10
33.5487210926
 20
22.5736703826
 11
33.5487210926
 21
19.5671642488
  0
LINE
  5
38A
100
AcDbEntity
  8
0
100
AcDbLine
 62
7
  6
BYLAYER
 10
33.5487210926
 20
22.7531090854
 11
33.5487210926
 21
25.7596152192
  0
LINE
  5
38B
100
AcDbEntity
  8
0
100
AcDbLine
 62
7
  6
BYLAYER
 10
33.5943576848
 20
16.508484551
 11
33.5943576848
 21
16.8604710786
  0
LINE
  5
38C
100
AcDbEntity
  8
0
100
AcDbLine
 62
7
  6
BYLAYER
 10
33.5943577552
 20
68.9365408896
 11
33.5943577552
 21
68.7125494629
  0
LINE
  5
38D
100
AcDbEntity
  8
0
100
AcDbLine
 62
7
  6
BYLAYER
 10
33.5943578249
 20
69.49648452
 11
33.5943577552
 21
68.9365408896
  0
LINE
  5
38E
100
AcDbEntity
  8
0
100
AcDbLine
 62
7
  6
BYLAYER
 10
33.5943578249
 20
16.5084845529
 11
33.5943578249
 21
16.276536022
  0
LWPOLYLINE
  5
38F
100
AcDbEntity
  8
0
100
AcDbPolyline
 62
7
  6
BYLAYER
 90
3
 70
0
 10
28.4095671389
 20
40.2939060353
 10
28.3202981435
 20
40.2564812011
 10
28.2959417573
 20
40.2524336524
  0
LINE
  5
390
100
AcDbEntity
  8
0
100
AcDbLine
 62
7
  6
BYLAYER
 10
37.0987210926
 20
44.936510271
 11
34.0987210926
 21
44.9103296677
  0
LINE
  5
391
100
AcDbEntity
  8
0
100
AcDbLine
 62
7
  6
BYLAYER
 10
29.5943577471
 20
44.9559281554
 11
32.6030843167
 21
44.9821849144
  0
LINE
  5
392
100
AcDbEntity
  8
0
100
AcDbLine
 62
7
  6
BYLAYER
 10
33.2487210926
 20
43.405010271
 11
32.7487210926
 21
43.405010271
  0
LINE
  5
393
100
AcDbEntity
  8
0
100
AcDbLine
 62
7
  6
BYLAYER
 10
28.9487210926
 20
43.405010271
 11
28.4487210926
 21
43.405010271
  0
LINE
  5
394
100
AcDbEntity
  8
0
100
AcDbLine
 62
7
  6
BYLAYER
 10
33.2487210926
 20
44.905010271
 11
32.7487210926
 21
44.905010271
  0
LINE
  5
395
100
AcDbEntity
  8
0
100
AcDbLine
 62
7
  6
BYLAYER
 10
28.9487210926
 20
44.905010271
 11
28.4487210926
 21
44.905010271
  0
LINE
  5
396
100
AcDbEntity
  8
0
100
AcDbLine
 62
7
  6
BYLAYER
 10
27.5987210926
 20
45.136510271
 11
24.5987210926
 21
45.136510271
  0
LINE
  5
397
100
AcDbEntity
  8
0
100
AcDbLine
 62
7
  6
BYLAYER
 10
33.6487201116
 20
74.876510271
 11
33.6487210926
 21
77.625010271
  0
LINE
  5
398
100
AcDbEntity
  8
0
100
AcDbLine
 62
7
  6
BYLAYER
 10
33.6487210926
 20
22.7230591537
 11
33.6487210926
 21
22.5032955937
  0
LINE
  5
399
100
AcDbEntity
  8
0
100
AcDbLine
 62
7
  6
BYLAYER
 10
33.6487210926
 20
8.145010271
 11
33.6487210926
 21
10.8934938682
  0
LINE
  5
39A
100
AcDbEntity
  8
0
100
AcDbLine
 62
7
  6
BYLAYER
 10
33.6487210926
 20
19.1047166053
 11
33.6487210926
 21
22.5032955937
  0
LINE
  5
39B
100
AcDbEntity
  8
0
100
AcDbLine
 62
7
  6
BYLAYER
 10
33.6487210926
 20
22.7230591537
 11
33.6487210926
 21
66.665303937
  0
LINE
  5
39C
100
AcDbEntity
  8
0
100
AcDbLine
 62
7
  6
BYLAYER
 10
33.7186865062
 20
19.6887621004
 11
33.7186865062
 21
25.5876645998
  0
LINE
  5
39D
100
AcDbEntity
  8
0
100
AcDbLine
 62
7
  6
BYLAYER
 10
33.8487210926
 20
77.625010271
 11
33.8487210926
 21
74.8765102723
  0
LINE
  5
39E
100
AcDbEntity
  8
0
100
AcDbLine
 62
7
  6
BYLAYER
 10
33.8487210926
 20
10.8935102691
 11
33.8487210926
 21
8.145010271
  0
LINE
  5
39F
100
AcDbEntity
  8
0
100
AcDbLine
 62
7
  6
BYLAYER
 10
33.8487210926
 20
19.104716605
 11
33.8487210926
 21
66.665303937
  0
LINE
  5
3A0
100
AcDbEntity
  8
0
100
AcDbLine
 62
7
  6
BYLAYER
 10
34.0487210926
 20
66.6644327574
 11
34.0487210926
 21
19.1047209337
  0
LINE
  5
3A1
100
AcDbEntity
  8
0
100
AcDbLine
 62
7
  6
BYLAYER
 10
34.0487210926
 20
8.145010271
 11
34.0487210926
 21
10.8935102688
  0
LINE
  5
3A2
100
AcDbEntity
  8
0
100
AcDbLine
 62
7
  6
BYLAYER
 10
34.0487210926
 20
74.876510271
 11
34.0487210926
 21
77.625010271
  0
LINE
  5
3A3
100
AcDbEntity
  8
0
100
AcDbLine
 62
7
  6
BYLAYER
 10
34.0987210926
 20
73.8103296677
 11
34.0987210926
 21
69.7626908744
  0
LINE
  5
3A4
100
AcDbEntity
  8
0
100
AcDbLine
 62
7
  6
BYLAYER
 10
34.0987210926
 20
44.9103296677
 11
34.0987210926
 21
40.8626908744
  0
LINE
  5
3A5
100
AcDbEntity
  8
0
100
AcDbLine
 62
7
  6
BYLAYER
 10
34.0987210926
 20
16.0103296677
 11
34.0987210926
 21
11.9626908744
  0
LINE
  5
3A6
100
AcDbEntity
  8
0
100
AcDbLine
 62
7
  6
BYLAYER
 10
34.9737210926
 20
8.145010271
 11
34.9737210926
 21
77.625010271
  0
LINE
  5
3A7
100
AcDbEntity
  8
0
100
AcDbLine
 62
7
  6
BYLAYER
 10
35.0387210926
 20
77.686510271
 11
35.0387210926
 21
69.8999370796
  0
LINE
  5
3A8
100
AcDbEntity
  8
0
100
AcDbLine
 62
7
  6
BYLAYER
 10
35.0387210926
 20
69.699944695
 11
35.0387210926
 21
69.4999523104
  0
LINE
  5
3A9
100
AcDbEntity
  8
0
100
AcDbLine
 62
7
  6
BYLAYER
 10
35.0387210926
 20
16.2730682317
 11
35.0387210926
 21
16.0730758471
  0
LINE
  5
3AA
100
AcDbEntity
  8
0
100
AcDbLine
 62
7
  6
BYLAYER
 10
35.0387210926
 20
15.8730834625
 11
35.0387210926
 21
8.086510271
  0
LINE
  5
3AB
100
AcDbEntity
  8
0
100
AcDbLine
 62
7
  6
BYLAYER
 10
35.0387210926
 20
16.2730682317
 11
35.0387210926
 21
69.4999523104
  0
LINE
  5
3AC
100
AcDbEntity
  8
0
100
AcDbLine
 62
7
  6
BYLAYER
 10
35.0387210926
 20
15.8730834625
 11
35.0387210926
 21
16.0730758471
  0
LINE
  5
3AD
100
AcDbEntity
  8
0
100
AcDbLine
 62
7
  6
BYLAYER
 10
35.0387210926
 20
69.699944695
 11
35.0387210926
 21
69.8999370796
  0
LINE
  5
3AE
100
AcDbEntity
  8
0
100
AcDbLine
 62
7
  6
BYLAYER
 10
35.5987210926
 20
12.9865216254
 11
35.5987210926
 21
14.9864989166
  0
LINE
  5
3AF
100
AcDbEntity
  8
0
100
AcDbLine
 62
7
  6
BYLAYER
 10
35.5987210926
 20
41.8865216254
 11
35.5987210926
 21
43.8864989166
  0
LINE
  5
3B0
100
AcDbEntity
  8
0
100
AcDbLine
 62
7
  6
BYLAYER
 10
35.5987210926
 20
70.7865216254
 11
35.5987210926
 21
72.7864989166
  0
LINE
  5
3B1
100
AcDbEntity
  8
0
100
AcDbLine
 62
7
  6
BYLAYER
 10
35.6987210926
 20
12.186510271
 11
35.6987210926
 21
13.1865193546
  0
LINE
  5
3B2
100
AcDbEntity
  8
0
100
AcDbLine
 62
7
  6
BYLAYER
 10
35.6987210926
 20
13.1865193546
 11
35.6987210926
 21
14.7865011875
  0
LINE
  5
3B3
100
AcDbEntity
  8
0
100
AcDbLine
 62
7
  6
BYLAYER
 10
35.6987210926
 20
14.7865011875
 11
35.6987210926
 21
15.786510271
  0
LINE
  5
3B4
100
AcDbEntity
  8
0
100
AcDbLine
 62
7
  6
BYLAYER
 10
35.6987210926
 20
41.0865206298
 11
35.6987210926
 21
44.6864999123
  0
LINE
  5
3B5
100
AcDbEntity
  8
0
100
AcDbLine
 62
7
  6
BYLAYER
 10
35.6987210926
 20
69.986510271
 11
35.6987210926
 21
70.9865193546
  0
LINE
  5
3B6
100
AcDbEntity
  8
0
100
AcDbLine
 62
7
  6
BYLAYER
 10
35.6987210926
 20
70.9865193546
 11
35.6987210926
 21
72.5865011875
  0
LINE
  5
3B7
100
AcDbEntity
  8
0
100
AcDbLine
 62
7
  6
BYLAYER
 10
35.6987210926
 20
72.5865011875
 11
35.6987210926
 21
73.586510271
  0
LINE
  5
3B8
100
AcDbEntity
  8
0
100
AcDbLine
 62
7
  6
BYLAYER
 10
35.8487210926
 20
18.1826749083
 11
35.8487210926
 21
25.01554127
  0
LINE
  5
3B9
100
AcDbEntity
  8
0
100
AcDbLine
 62
7
  6
BYLAYER
 10
35.9004664012
 20
16.2952780996
 11
35.9004663982
 21
16.8805961844
  0
LINE
  5
3BA
100
AcDbEntity
  8
0
100
AcDbLine
 62
7
  6
BYLAYER
 10
35.9004664068
 20
23.7555228007
 11
35.9004664068
 21
25.0064354562
  0
LINE
  5
3BB
100
AcDbEntity
  8
0
100
AcDbLine
 62
7
  6
BYLAYER
 10
35.900466413
 20
25.3183580619
 11
35.900466413
 21
26.0335122227
  0
LINE
  5
3BC
100
AcDbEntity
  8
0
100
AcDbLine
 62
7
  6
BYLAYER
 10
35.9004663213
 20
31.4424243583
 11
35.9004663213
 21
34.7255586115
  0
LINE
  5
3BD
100
AcDbEntity
  8
0
100
AcDbLine
 62
7
  6
BYLAYER
 10
35.9004664103
 20
35.2972614173
 11
35.9004663997
 21
47.335876567
  0
LINE
  5
3BE
100
AcDbEntity
  8
0
100
AcDbLine
 62
7
  6
BYLAYER
 10
35.900466425
 20
16.9613044507
 11
35.9004664143
 21
23.4436017656
  0
LINE
  5
3BF
100
AcDbEntity
  8
0
100
AcDbLine
 62
7
  6
BYLAYER
 10
35.9004665356
 20
26.555424366
 11
35.9004665356
 21
31.026232026
  0
LINE
  5
3C0
100
AcDbEntity
  8
0
100
AcDbLine
 62
7
  6
BYLAYER
 10
35.9500300729
 20
69.4919994374
 11
35.9500300729
 21
16.330371341
  0
LINE
  5
3C1
100
AcDbEntity
  8
0
100
AcDbLine
 62
7
  6
BYLAYER
 10
35.9544473661
 20
68.7425386467
 11
35.9546740606
 21
69.4851433186
  0
LWPOLYLINE
  5
3C2
100
AcDbEntity
  8
0
100
AcDbPolyline
 62
7
  6
BYLAYER
 90
7
 70
0
 10
33.0987200585
 20
16.3604635994
 10
33.101964664
 20
16.417370694
 10
33.1149126725
 20
16.486715384
 10
33.1429248349
 20
16.5660396716
 10
33.1926254895
 20
16.6521927994
 10
33.2736897132
 20
16.7404355865
 10
33.4027234401
 20
16.8204922375
  0
LINE
  5
3C3
100
AcDbEntity
  8
0
100
AcDbLine
 62
7
  6
BYLAYER
 10
35.9004663997
 20
46.1770937478
 11
33.2969757855
 21
46.1543734294
  0
LINE
  5
3C4
100
AcDbEntity
  8
0
100
AcDbLine
 62
7
  6
BYLAYER
 10
33.2969757855
 20
46.157875866
 11
35.9004663747
 21
46.1805961842
  0
LINE
  5
3C5
100
AcDbEntity
  8
0
100
AcDbLine
 62
7
  6
BYLAYER
 10
26.9301431363
 20
47.8979531861
 11
29.0943578249
 21
47.9031007638
  0
LINE
  5
3C6
100
AcDbEntity
  8
0
100
AcDbLine
 62
7
  6
BYLAYER
 10
33.2487210926
 20
45.945010271
 11
32.7487210926
 21
45.945010271
  0
LINE
  5
3C7
100
AcDbEntity
  8
0
100
AcDbLine
 62
7
  6
BYLAYER
 10
28.9487210926
 20
45.945010271
 11
28.4487210926
 21
45.945010271
  0
LINE
  5
3C8
100
AcDbEntity
  8
0
100
AcDbLine
 62
7
  6
BYLAYER
 10
33.2487210926
 20
47.445010271
 11
32.7487210926
 21
47.445010271
  0
LINE
  5
3C9
100
AcDbEntity
  8
0
100
AcDbLine
 62
7
  6
BYLAYER
 10
28.9487210926
 20
47.445010271
 11
28.4487210926
 21
47.445010271
  0
LINE
  5
3CA
100
AcDbEntity
  8
0
100
AcDbLine
 62
7
  6
BYLAYER
 10
33.2969757934
 20
48.0380279624
 11
34.7378830492
 21
48.0345835913
  0
LINE
  5
3CB
100
AcDbEntity
  8
0
100
AcDbLine
 62
7
  6
BYLAYER
 10
25.7474121123
 20
46.1702238799
 11
28.9734531266
 21
46.1420706465
  0
LINE
  5
3CC
100
AcDbEntity
  8
0
100
AcDbLine
 62
7
  6
BYLAYER
 10
29.0943578249
 20
46.1442330227
 11
25.7474122773
 21
46.1733735049
  0
LINE
  5
3CD
100
AcDbEntity
  8
0
100
AcDbLine
 62
7
  6
BYLAYER
 10
30.6504663997
 20
46.1382404135
 11
25.7474122773
 21
46.1810287186
  0
LWPOLYLINE
  5
3CE
100
AcDbEntity
  8
0
100
AcDbPolyline
 62
7
  6
BYLAYER
 90
3
 70
0
 10
28.9704692001
 20
46.1420845387
 10
28.6761939931
 20
46.1929132764
 10
28.5984906019
 20
46.2424173823
  0
LINE
  5
3CF
100
AcDbEntity
  8
0
100
AcDbLine
 62
7
  6
BYLAYER
 10
36.6030771734
 20
20.7223327027
 11
36.5987273382
 21
21.2175017162
  0
LINE
  5
3D0
100
AcDbEntity
  8
0
100
AcDbLine
 62
7
  6
BYLAYER
 10
36.0987210926
 20
16.280588569
 11
36.0987210926
 21
69.5419975335
  0
LINE
  5
3D1
100
AcDbEntity
  8
0
100
AcDbLine
 62
7
  6
BYLAYER
 10
37.0987210926
 20
7.6367088
 11
37.0987210926
 21
78.136311742
  0
LINE
  5
3D2
100
AcDbEntity
  8
0
100
AcDbLine
 62
7
  6
BYLAYER
 10
36.6030843604
 20
20.7223324789
 11
36.6030843603
 21
7.5327569129
  0
LINE
  5
3D3
100
AcDbEntity
  8
0
100
AcDbLine
 62
7
  6
BYLAYER
 10
33.2487210926
 20
48.485010271
 11
32.7487210926
 21
48.485010271
  0
LINE
  5
3D4
100
AcDbEntity
  8
0
100
AcDbLine
 62
7
  6
BYLAYER
 10
28.9487210926
 20
48.485010271
 11
28.4487210926
 21
48.485010271
  0
LINE
  5
3D5
100
AcDbEntity
  8
0
100
AcDbLine
 62
7
  6
BYLAYER
 10
33.2487210926
 20
49.985010271
 11
32.7487210926
 21
49.985010271
  0
LINE
  5
3D6
100
AcDbEntity
  8
0
100
AcDbLine
 62
7
  6
BYLAYER
 10
28.9487210926
 20
49.985010271
 11
28.4487210926
 21
49.985010271
  0
LWPOLYLINE
  5
3D7
100
AcDbEntity
  8
0
100
AcDbPolyline
 62
7
  6
BYLAYER
 90
6
 70
0
 10
33.6487207749
 20
22.5032889118
 10
33.6754330412
 20
22.5995825617
 10
33.7241468452
 20
22.6516052879
 10
33.7372004115
 20
22.6595422331
 10
33.6878360778
 20
22.6485462778
 10
33.5907266959
 20
22.6367654953
  0
LINE
  5
3D8
100
AcDbEntity
  8
0
100
AcDbLine
 62
7
  6
BYLAYER
 10
33.2487210926
 20
51.025010271
 11
32.7487210926
 21
51.025010271
  0
LINE
  5
3D9
100
AcDbEntity
  8
0
100
AcDbLine
 62
7
  6
BYLAYER
 10
28.9487210926
 20
51.025010271
 11
28.4487210926
 21
51.025010271
  0
LINE
  5
3DA
100
AcDbEntity
  8
0
100
AcDbLine
 62
7
  6
BYLAYER
 10
33.2487210926
 20
52.525010271
 11
32.7487210926
 21
52.525010271
  0
LINE
  5
3DB
100
AcDbEntity
  8
0
100
AcDbLine
 62
7
  6
BYLAYER
 10
28.9487210926
 20
52.525010271
 11
28.4487210926
 21
52.525010271
  0
LINE
  5
3DC
100
AcDbEntity
  8
0
100
AcDbLine
 62
7
  6
BYLAYER
 10
33.2487210926
 20
53.565010271
 11
32.7487210926
 21
53.565010271
  0
LINE
  5
3DD
100
AcDbEntity
  8
0
100
AcDbLine
 62
7
  6
BYLAYER
 10
28.9487210926
 20
53.565010271
 11
28.4487210926
 21
53.565010271
  0
LINE
  5
3DE
100
AcDbEntity
  8
0
100
AcDbLine
 62
7
  6
BYLAYER
 10
33.2487210926
 20
55.065010271
 11
32.7487210926
 21
55.065010271
  0
LINE
  5
3DF
100
AcDbEntity
  8
0
100
AcDbLine
 62
7
  6
BYLAYER
 10
28.9487210926
 20
55.065010271
 11
28.4487210926
 21
55.065010271
  0
LINE
  5
3E0
100
AcDbEntity
  8
0
100
AcDbLine
 62
7
  6
BYLAYER
 10
26.1918726436
 20
56.9212547377
 11
25.738199525
 21
56.9046996599
  0
LINE
  5
3E1
100
AcDbEntity
  8
0
100
AcDbLine
 62
7
  6
BYLAYER
 10
30.6504663997
 20
56.7847801285
 11
25.7474121123
 21
56.741991822
  0
LINE
  5
3E2
100
AcDbEntity
  8
0
100
AcDbLine
 62
7
  6
BYLAYER
 10
26.191898107
 20
56.9212549619
 11
30.6504662862
 21
56.960164297
  0
LINE
  5
3E3
100
AcDbEntity
  8
0
100
AcDbLine
 62
7
  6
BYLAYER
 10
30.6504662862
 20
56.8928255554
 11
25.7474121123
 21
56.8529235542
  0
LINE
  5
3E4
100
AcDbEntity
  8
0
100
AcDbLine
 62
7
  6
BYLAYER
 10
30.6504663226
 20
56.3179389069
 11
28.3769769493
 21
56.3108625842
  0
LINE
  5
3E5
100
AcDbEntity
  8
0
100
AcDbLine
 62
7
  6
BYLAYER
 10
33.2487210926
 20
56.105010271
 11
32.7487210926
 21
56.105010271
  0
LINE
  5
3E6
100
AcDbEntity
  8
0
100
AcDbLine
 62
7
  6
BYLAYER
 10
28.9487210926
 20
56.105010271
 11
28.4487210926
 21
56.105010271
  0
LINE
  5
3E7
100
AcDbEntity
  8
0
100
AcDbLine
 62
7
  6
BYLAYER
 10
33.2487210926
 20
57.605010271
 11
32.7487210926
 21
57.605010271
  0
LINE
  5
3E8
100
AcDbEntity
  8
0
100
AcDbLine
 62
7
  6
BYLAYER
 10
28.9487210926
 20
57.605010271
 11
28.4487210926
 21
57.605010271
  0
LINE
  5
3E9
100
AcDbEntity
  8
0
100
AcDbLine
 62
7
  6
BYLAYER
 10
31.0469758908
 20
56.3179389246
 11
33.3204652068
 21
56.3108626021
  0
LINE
  5
3EA
100
AcDbEntity
  8
0
100
AcDbLine
 62
7
  6
BYLAYER
 10
35.9500300729
 20
56.8529235546
 11
31.0469758908
 21
56.8928255559
  0
LINE
  5
3EB
100
AcDbEntity
  8
0
100
AcDbLine
 62
7
  6
BYLAYER
 10
31.0469757855
 20
56.7847801285
 11
35.9500300374
 21
56.7419918223
  0
LINE
  5
3EC
100
AcDbEntity
  8
0
100
AcDbLine
 62
7
  6
BYLAYER
 10
35.5054016348
 20
56.921256205
 11
31.0469758908
 21
56.960164297
  0
LINE
  5
3ED
100
AcDbEntity
  8
0
100
AcDbLine
 62
7
  6
BYLAYER
 10
35.9575999774
 20
56.9048057425
 11
35.5051623061
 21
56.9212582898
  0
LWPOLYLINE
  5
3EE
100
AcDbEntity
  8
0
100
AcDbPolyline
 62
7
  6
BYLAYER
 90
6
 70
0
 10
35.8486981167
 20
25.0178775941
 10
35.8013563583
 20
24.9705554327
 10
35.5012466838
 20
24.823834621
 10
34.8933435036
 20
24.6593712635
 10
33.9938530817
 20
24.5101107937
 10
32.8487210926
 20
24.3947565111
  0
LINE
  5
3EF
100
AcDbEntity
  8
0
100
AcDbLine
 62
7
  6
BYLAYER
 10
33.3057456829
 20
25.5169218659
 11
32.51291896
 21
25.0613047526
  0
LINE
  5
3F0
100
AcDbEntity
  8
0
100
AcDbLine
 62
7
  6
BYLAYER
 10
35.7456265737
 20
59.8914519341
 11
31.0469757205
 21
59.8538868972
  0
LINE
  5
3F1
100
AcDbEntity
  8
0
100
AcDbLine
 62
7
  6
BYLAYER
 10
33.2487210926
 20
58.645010271
 11
32.7487210926
 21
58.645010271
  0
LINE
  5
3F2
100
AcDbEntity
  8
0
100
AcDbLine
 62
7
  6
BYLAYER
 10
28.9487210926
 20
58.645010271
 11
28.4487210926
 21
58.645010271
  0
LINE
  5
3F3
100
AcDbEntity
  8
0
100
AcDbLine
 62
7
  6
BYLAYER
 10
33.2487210926
 20
60.145010271
 11
32.7487210926
 21
60.145010271
  0
LINE
  5
3F4
100
AcDbEntity
  8
0
100
AcDbLine
 62
7
  6
BYLAYER
 10
28.9487210926
 20
60.145010271
 11
28.4487210926
 21
60.145010271
  0
LINE
  5
3F5
100
AcDbEntity
  8
0
100
AcDbLine
 62
7
  6
BYLAYER
 10
30.6504664568
 20
59.8538868968
 11
25.951815608
 21
59.8914519336
  0
LWPOLYLINE
  5
3F6
100
AcDbEntity
  8
0
100
AcDbPolyline
 62
7
  6
BYLAYER
 90
4
 70
0
 10
37.0987210926
 20
78.1363211515
 10
37.0324019222
 20
78.385161653
 10
36.8519337471
 20
78.5674653555
 10
36.6030844143
 20
78.6363047661
  0
LINE
  5
3F7
100
AcDbEntity
  8
0
100
AcDbLine
 62
7
  6
BYLAYER
 10
35.6987210926
 20
12.186510271
 11
35.5829277675
 21
11.9859503487
  0
LWPOLYLINE
  5
3F8
100
AcDbEntity
  8
0
100
AcDbPolyline
 62
7
  6
BYLAYER
 90
4
 70
0
 10
35.8486833951
 20
23.4557130527
 10
35.721548406
 20
23.3568213407
 10
35.058844466
 20
23.1335583223
 10
33.8303166174
 20
22.9267155489
  0
LINE
  5
3F9
100
AcDbEntity
  8
0
100
AcDbLine
 62
7
  6
BYLAYER
 10
33.305745683
 20
23.5473063599
 11
32.51291896
 21
23.0916892465
  0
LINE
  5
3FA
100
AcDbEntity
  8
0
100
AcDbLine
 62
7
  6
BYLAYER
 10
30.6504662862
 20
61.1729328985
 11
29.0113947862
 21
61.1671367573
  0
LINE
  5
3FB
100
AcDbEntity
  8
0
100
AcDbLine
 62
7
  6
BYLAYER
 10
33.2487210926
 20
61.185010271
 11
32.7487210926
 21
61.185010271
  0
LINE
  5
3FC
100
AcDbEntity
  8
0
100
AcDbLine
 62
7
  6
BYLAYER
 10
28.9487210926
 20
61.185010271
 11
28.4487210926
 21
61.185010271
  0
LINE
  5
3FD
100
AcDbEntity
  8
0
100
AcDbLine
 62
7
  6
BYLAYER
 10
31.0469757855
 20
61.1729328884
 11
32.6860474128
 21
61.1671367468
  0
LINE
  5
3FE
100
AcDbEntity
  8
0
100
AcDbLine
 62
7
  6
BYLAYER
 10
35.6987210926
 20
73.586510271
 11
35.5829277675
 21
73.7870701934
  0
LINE
  5
3FF
100
AcDbEntity
  8
0
100
AcDbLine
 62
7
  6
BYLAYER
 10
33.2487210926
 20
62.685010271
 11
32.7487210926
 21
62.685010271
  0
LINE
  5
400
100
AcDbEntity
  8
0
100
AcDbLine
 62
7
  6
BYLAYER
 10
28.9487210926
 20
62.685010271
 11
28.4487210926
 21
62.685010271
  0
LINE
  5
401
100
AcDbEntity
  8
0
100
AcDbLine
 62
7
  6
BYLAYER
 10
33.2487210926
 20
63.725010271
 11
32.7487210926
 21
63.725010271
  0
LINE
  5
402
100
AcDbEntity
  8
0
100
AcDbLine
 62
7
  6
BYLAYER
 10
28.9487210926
 20
63.725010271
 11
28.4487210926
 21
63.725010271
  0
LINE
  5
403
100
AcDbEntity
  8
0
100
AcDbLine
 62
7
  6
BYLAYER
 10
27.1987210926
 20
13.436510271
 11
26.2133658121
 21
12.8617196908
  0
LINE
  5
404
100
AcDbEntity
  8
0
100
AcDbLine
 62
7
  6
BYLAYER
 10
26.2047976541
 20
12.8567215986
 11
26.2133658121
 21
12.8617196908
  0
LINE
  5
405
100
AcDbEntity
  8
0
100
AcDbLine
 62
7
  6
BYLAYER
 10
33.2487210926
 20
65.225010271
 11
32.7487210926
 21
65.225010271
  0
LINE
  5
406
100
AcDbEntity
  8
0
100
AcDbLine
 62
7
  6
BYLAYER
 10
28.9487210926
 20
65.225010271
 11
28.4487210926
 21
65.225010271
  0
LINE
  5
407
100
AcDbEntity
  8
0
100
AcDbLine
 62
7
  6
BYLAYER
 10
33.2487210926
 20
66.265010271
 11
32.7487210926
 21
66.265010271
  0
LINE
  5
408
100
AcDbEntity
  8
0
100
AcDbLine
 62
7
  6
BYLAYER
 10
28.9487210926
 20
66.265010271
 11
28.4487210926
 21
66.265010271
  0
LINE
  5
409
100
AcDbEntity
  8
0
100
AcDbLine
 62
7
  6
BYLAYER
 10
33.6487176686
 20
66.665303937
 11
33.8487210926
 21
66.665303937
  0
LINE
  5
40A
100
AcDbEntity
  8
0
100
AcDbLine
 62
7
  6
BYLAYER
 10
27.8487210926
 20
67.2903039306
 11
28.0487236558
 21
67.2903039314
  0
LINE
  5
40B
100
AcDbEntity
  8
0
100
AcDbLine
 62
7
  6
BYLAYER
 10
27.1987210926
 20
72.336510271
 11
26.2133658121
 21
72.9113008513
  0
LINE
  5
40C
100
AcDbEntity
  8
0
100
AcDbLine
 62
7
  6
BYLAYER
 10
26.2047976541
 20
72.9162989435
 11
26.2133658121
 21
72.9113008513
  0
LINE
  5
40D
100
AcDbEntity
  8
0
100
AcDbLine
 62
7
  6
BYLAYER
 10
25.7429824226
 20
68.7420059407
 11
30.6563137202
 21
68.9291804664
  0
LINE
  5
40E
100
AcDbEntity
  8
0
100
AcDbLine
 62
7
  6
BYLAYER
 10
28.1030844429
 20
68.712549463
 11
25.7474121146
 21
68.691991822
  0
LINE
  5
40F
100
AcDbEntity
  8
0
100
AcDbLine
 62
7
  6
BYLAYER
 10
25.7474121123
 20
69.4919994374
 11
26.6587210926
 21
69.4999523104
  0
LINE
  5
410
100
AcDbEntity
  8
0
100
AcDbLine
 62
7
  6
BYLAYER
 10
30.6504663997
 20
69.7347801285
 11
25.7474121123
 21
69.691991822
  0
LINE
  5
411
100
AcDbEntity
  8
0
100
AcDbLine
 62
7
  6
BYLAYER
 10
25.7474121123
 20
69.691991822
 11
25.7360685894
 21
69.6918928286
  0
LINE
  5
412
100
AcDbEntity
  8
0
100
AcDbLine
 62
7
  6
BYLAYER
 10
28.1030843603
 20
68.9365408888
 11
25.7474120954
 21
68.9204802322
  0
LINE
  5
413
100
AcDbEntity
  8
0
100
AcDbLine
 62
7
  6
BYLAYER
 10
28.4487210926
 20
67.765010271
 11
28.9487210926
 21
67.765010271
  0
LINE
  5
414
100
AcDbEntity
  8
0
100
AcDbLine
 62
7
  6
BYLAYER
 10
32.7487210926
 20
67.765010271
 11
33.2487210926
 21
67.765010271
  0
LINE
  5
415
100
AcDbEntity
  8
0
100
AcDbLine
 62
7
  6
BYLAYER
 10
27.5987210926
 20
69.536510271
 11
24.5987210926
 21
69.536510271
  0
LINE
  5
416
100
AcDbEntity
  8
0
100
AcDbLine
 62
7
  6
BYLAYER
 10
33.5943577552
 20
68.9365408894
 11
35.9500300238
 21
68.9204802328
  0
LINE
  5
417
100
AcDbEntity
  8
0
100
AcDbLine
 62
7
  6
BYLAYER
 10
35.9500300238
 20
68.6919918224
 11
33.5943577552
 21
68.7125494629
  0
LINE
  5
418
100
AcDbEntity
  8
0
100
AcDbLine
 62
7
  6
BYLAYER
 10
35.0387210926
 20
69.4999523104
 11
35.9500300729
 21
69.4919994374
  0
LINE
  5
419
100
AcDbEntity
  8
0
100
AcDbLine
 62
7
  6
BYLAYER
 10
35.9500300729
 20
69.691991822
 11
31.0469757855
 21
69.7347801285
  0
LINE
  5
41A
100
AcDbEntity
  8
0
100
AcDbLine
 62
7
  6
BYLAYER
 10
35.9623769061
 20
69.6918840728
 11
35.9500300729
 21
69.691991822
  0
LINE
  5
41B
100
AcDbEntity
  8
0
100
AcDbLine
 62
7
  6
BYLAYER
 10
37.0987210926
 20
69.736510271
 11
34.0987210926
 21
69.7626908744
  0
LINE
  5
41C
100
AcDbEntity
  8
0
100
AcDbLine
 62
7
  6
BYLAYER
 10
31.0411283642
 20
68.9291804702
 11
35.9544600721
 21
68.742005929
  0
LINE
  5
41D
100
AcDbEntity
  8
0
100
AcDbLine
 62
7
  6
BYLAYER
 10
32.6138616227
 20
67.9379784827
 11
29.6138616229
 21
68.5629784827
  0
LINE
  5
41E
100
AcDbEntity
  8
0
100
AcDbLine
 62
7
  6
BYLAYER
 10
32.6546524738
 20
68.1337745666
 11
29.6546524738
 21
68.7587745666
  0
LINE
  5
41F
100
AcDbEntity
  8
0
100
AcDbLine
 62
7
  6
BYLAYER
 10
29.6954676465
 20
68.9545655835
 11
32.695439008
 21
68.3295715498
  0
LINE
  5
420
100
AcDbEntity
  8
0
100
AcDbLine
 62
7
  6
BYLAYER
 10
30.6504663997
 20
69.9347725131
 11
26.6587210926
 21
69.8999370796
  0
LINE
  5
421
100
AcDbEntity
  8
0
100
AcDbLine
 62
7
  6
BYLAYER
 10
27.1987210926
 20
71.536510271
 11
26.2133658121
 21
71.536510271
  0
LINE
  5
422
100
AcDbEntity
  8
0
100
AcDbLine
 62
7
  6
BYLAYER
 10
37.0987210926
 20
71.786510271
 11
34.0987210926
 21
71.786510271
  0
LINE
  5
423
100
AcDbEntity
  8
0
100
AcDbLine
 62
7
  6
BYLAYER
 10
27.1987210926
 20
72.036510271
 11
26.2133658121
 21
72.036510271
  0
LINE
  5
424
100
AcDbEntity
  8
0
100
AcDbLine
 62
7
  6
BYLAYER
 10
26.7237210926
 20
72.125010271
 11
34.9737210926
 21
72.125010271
  0
LINE
  5
425
100
AcDbEntity
  8
0
100
AcDbLine
 62
7
  6
BYLAYER
 10
35.0387210926
 20
69.8999370796
 11
31.0469757855
 21
69.9347725131
  0
LINE
  5
426
100
AcDbEntity
  8
0
100
AcDbLine
 62
7
  6
BYLAYER
 10
37.0987210926
 20
73.836510271
 11
34.0987210926
 21
73.8103296677
  0
LINE
  5
427
100
AcDbEntity
  8
0
100
AcDbLine
 62
7
  6
BYLAYER
 10
27.5987210926
 20
74.036510271
 11
24.5987210926
 21
74.036510271
  0
LWPOLYLINE
  5
428
100
AcDbEntity
  8
0
100
AcDbPolyline
 62
7
  6
BYLAYER
 90
4
 70
0
 10
25.0943575712
 20
78.6363211628
 10
24.8455086827
 20
78.5674814161
 10
24.665040446
 20
78.3851766143
 10
24.5987210926
 20
78.1363340541
  0
LINE
  5
429
100
AcDbEntity
  8
0
100
AcDbLine
 62
7
  6
BYLAYER
 10
31.2987210926
 20
78.2758801696
 11
30.8487210926
 21
78.236510271
  0
LINE
  5
42A
100
AcDbEntity
  8
0
100
AcDbLine
 62
7
  6
BYLAYER
 10
31.3987210926
 20
76.8278756243
 11
30.8487210926
 21
76.8230758471
  0
LINE
  5
42B
100
AcDbEntity
  8
0
100
AcDbLine
 62
7
  6
BYLAYER
 10
31.3987210926
 20
76.8278756243
 11
37.0987210926
 21
76.8776187708
  0
LINE
  5
42C
100
AcDbEntity
  8
0
100
AcDbLine
 62
7
  6
BYLAYER
 10
26.6587210926
 20
77.686510271
 11
30.8487210926
 21
77.7230758471
  0
LINE
  5
42D
100
AcDbEntity
  8
0
100
AcDbLine
 62
7
  6
BYLAYER
 10
30.8751013769
 20
78.6867404883
 11
25.0875545858
 21
78.6362333326
  0
LINE
  5
42E
100
AcDbEntity
  8
0
100
AcDbLine
 62
7
  6
BYLAYER
 10
34.0487191343
 20
74.876510271
 11
33.8487210926
 21
74.876510271
  0
LINE
  5
42F
100
AcDbEntity
  8
0
100
AcDbLine
 62
7
  6
BYLAYER
 10
33.8487210926
 20
74.876510271
 11
33.6487191305
 21
74.876510271
  0
LINE
  5
430
100
AcDbEntity
  8
0
100
AcDbLine
 62
7
  6
BYLAYER
 10
28.0487230547
 20
74.8765102701
 11
27.8487210926
 21
74.87651027
  0
LINE
  5
431
100
AcDbEntity
  8
0
100
AcDbLine
 62
7
  6
BYLAYER
 10
27.8487210926
 20
74.8765102733
 11
27.6487230509
 21
74.8765102732
  0
LINE
  5
432
100
AcDbEntity
  8
0
100
AcDbLine
 62
7
  6
BYLAYER
 10
34.9737210926
 20
77.625010271
 11
33.8487210926
 21
77.625010271
  0
LINE
  5
433
100
AcDbEntity
  8
0
100
AcDbLine
 62
7
  6
BYLAYER
 10
33.6487210926
 20
77.625010271
 11
28.0487210926
 21
77.625010271
  0
LINE
  5
434
100
AcDbEntity
  8
0
100
AcDbLine
 62
7
  6
BYLAYER
 10
27.8487210926
 20
77.625010271
 11
26.7237210926
 21
77.625010271
  0
LINE
  5
435
100
AcDbEntity
  8
0
100
AcDbLine
 62
7
  6
BYLAYER
 10
30.8487210926
 20
76.8230758471
 11
24.5987210926
 21
76.8776187708
  0
LINE
  5
436
100
AcDbEntity
  8
0
100
AcDbLine
 62
7
  6
BYLAYER
 10
30.8487210926
 20
77.7230758471
 11
35.0387210926
 21
77.686510271
  0
LINE
  5
437
100
AcDbEntity
  8
0
100
AcDbLine
 62
7
  6
BYLAYER
 10
36.6087777001
 20
78.6362430185
 11
31.3510254838
 21
78.682126727
  0
LINE
  5
438
100
AcDbEntity
  8
0
100
AcDbLine
 62
7
  6
BYLAYER
 10
31.2987210926
 20
78.6825831805
 11
30.8487268559
 21
78.6865102207
  0
ARC
  5
439
100
AcDbEntity
  8
0
100
AcDbCircle
 62
7
  6
BYLAYER
 10
28.0748872832
 20
-11.2665649315
 40
32.312959211
100
AcDbArc
 50
85.0755110319
 51
85.3354003912
  0
ARC
  5
43A
100
AcDbEntity
  8
0
100
AcDbCircle
 62
7
  6
BYLAYER
 10
28.0753293176
 20
-11.2633178899
 40
32.3096862805
100
AcDbArc
 50
84.2743332791
 51
85.0757977222
  0
ARC
  5
43B
100
AcDbEntity
  8
0
100
AcDbCircle
 62
7
  6
BYLAYER
 10
28.0882985765
 20
-11.0781008681
 40
32.1730935473
100
AcDbArc
 50
84.0941480412
 51
84.8169017242
  0
ARC
  5
43C
100
AcDbEntity
  8
0
100
AcDbCircle
 62
7
  6
BYLAYER
 10
29.8546592035
 20
13.9864515405
 40
3.6498613442
100
AcDbArc
 50
176.0733453705
 51
183.9266686158
  0
ARC
  5
43D
100
AcDbEntity
  8
0
100
AcDbCircle
 62
7
  6
BYLAYER
 10
29.1987210926
 20
13.986510271
 40
3.2
100
AcDbArc
 50
200.6745293401
 51
218.6821874535
  0
ARC
  5
43E
100
AcDbEntity
  8
0
100
AcDbCircle
 62
7
  6
BYLAYER
 10
29.1987210926
 20
13.986510271
 40
3.2
100
AcDbArc
 50
141.3195970036
 51
159.3254706627
  0
ARC
  5
43F
100
AcDbEntity
  8
0
100
AcDbCircle
 62
7
  6
BYLAYER
 10
29.198788435
 20
13.9864938906
 40
3.1902882215
100
AcDbArc
 50
159.3552762458
 51
173.264381485
  0
ARC
  5
440
100
AcDbEntity
  8
0
100
AcDbCircle
 62
7
  6
BYLAYER
 10
30.8469824427
 20
10.8549295113
 40
2.7000000005
100
AcDbArc
 50
89.9630985178
 51
270.0368965947
  0
ARC
  5
441
100
AcDbEntity
  8
0
100
AcDbCircle
 62
7
  6
BYLAYER
 10
30.8487205038
 20
10.8965113266
 40
2.4999519377
100
AcDbArc
 50
282.709041175
 51
77.2909490847
  0
ARC
  5
442
100
AcDbEntity
  8
0
100
AcDbCircle
 62
7
  6
BYLAYER
 10
29.3487210926
 20
18.479716605
 40
1.5
100
AcDbArc
 50
180.0
 51
281.7682889517
  0
ARC
  5
443
100
AcDbEntity
  8
0
100
AcDbCircle
 62
7
  6
BYLAYER
 10
29.3487210926
 20
18.479716605
 40
1.2999974368
100
AcDbArc
 50
179.9992450453
 51
281.7690438145
  0
ARC
  5
444
100
AcDbEntity
  8
0
100
AcDbCircle
 62
7
  6
BYLAYER
 10
30.7986813054
 20
7.8960920009
 40
0.5008358989
100
AcDbArc
 50
84.4227659539
 51
89.0118653573
  0
ARC
  5
445
100
AcDbEntity
  8
0
100
AcDbCircle
 62
7
  6
BYLAYER
 10
28.0987210926
 20
16.3604901183
 40
0.5
100
AcDbArc
 50
66.9145307272
 51
89.4999999996
  0
ARC
  5
446
100
AcDbEntity
  8
0
100
AcDbCircle
 62
7
  6
BYLAYER
 10
30.7987210926
 20
13.8960935754
 40
0.5
100
AcDbArc
 50
270.9549738738
 51
360.0
  0
ARC
  5
447
100
AcDbEntity
  8
0
100
AcDbCircle
 62
7
  6
BYLAYER
 10
28.0987210926
 20
16.3604901183
 40
0.5
100
AcDbArc
 50
0.0
 51
66.9145307272
  0
ARC
  5
448
100
AcDbEntity
  8
0
100
AcDbCircle
 62
7
  6
BYLAYER
 10
25.0987210926
 20
7.6367088
 40
0.5
100
AcDbArc
 50
180.0
 51
269.5
  0
ARC
  5
449
100
AcDbEntity
  8
0
100
AcDbCircle
 62
7
  6
BYLAYER
 10
30.6487210926
 20
15.8382480289
 40
0.2
100
AcDbArc
 50
0.0
 51
89.4999999993
  0
ARC
  5
44A
100
AcDbEntity
  8
0
100
AcDbCircle
 62
7
  6
BYLAYER
 10
30.6487210926
 20
31.6847725131
 40
0.2
100
AcDbArc
 50
270.5000162485
 51
360.0
  0
ARC
  5
44B
100
AcDbEntity
  8
0
100
AcDbCircle
 62
7
  6
BYLAYER
 10
27.5044598713
 20
47.061420681
 40
12.9236365137
100
AcDbArc
 50
96.9001755409
 51
97.8139124115
  0
ARC
  5
44C
100
AcDbEntity
  8
0
100
AcDbCircle
 62
7
  6
BYLAYER
 10
25.0987210926
 20
78.136311742
 40
0.5
100
AcDbArc
 50
90.5000000003
 51
180.0
  0
ARC
  5
44D
100
AcDbEntity
  8
0
100
AcDbCircle
 62
7
  6
BYLAYER
 10
29.8547600925
 20
42.8864551778
 40
3.6499622501
100
AcDbArc
 50
176.0738688461
 51
183.9266171268
  0
ARC
  5
44E
100
AcDbEntity
  8
0
100
AcDbCircle
 62
7
  6
BYLAYER
 10
29.1987210926
 20
42.886510271
 40
3.2
100
AcDbArc
 50
200.6745293401
 51
218.6821874535
  0
ARC
  5
44F
100
AcDbEntity
  8
0
100
AcDbCircle
 62
7
  6
BYLAYER
 10
29.1987210926
 20
42.886510271
 40
3.2
100
AcDbArc
 50
141.3195970036
 51
159.3254706627
  0
ARC
  5
450
100
AcDbEntity
  8
0
100
AcDbCircle
 62
7
  6
BYLAYER
 10
29.198788435
 20
42.8864938906
 40
3.1902882215
100
AcDbArc
 50
159.3552762458
 51
173.264381485
  0
ARC
  5
451
100
AcDbEntity
  8
0
100
AcDbCircle
 62
7
  6
BYLAYER
 10
28.99292471
 20
48.4336326791
 40
2.2916458407
100
AcDbArc
 50
269.5121665979
 51
272.5368591984
  0
ARC
  5
452
100
AcDbEntity
  8
0
100
AcDbCircle
 62
7
  6
BYLAYER
 10
28.3099445424
 20
55.753232357
 40
0.5616308268
100
AcDbArc
 50
83.1451979312
 51
86.1027207729
  0
ARC
  5
453
100
AcDbEntity
  8
0
100
AcDbCircle
 62
7
  6
BYLAYER
 10
30.6487210926
 20
39.8347725131
 40
0.2
100
AcDbArc
 50
270.5000076919
 51
360.0
  0
ARC
  5
454
100
AcDbEntity
  8
0
100
AcDbCircle
 62
7
  6
BYLAYER
 10
30.6487210926
 20
45.9382480289
 40
0.2
100
AcDbArc
 50
0.0
 51
89.4999923081
  0
ARC
  5
455
100
AcDbEntity
  8
0
100
AcDbCircle
 62
7
  6
BYLAYER
 10
30.6488960587
 20
34.4858253908
 40
0.1998360847
100
AcDbArc
 50
0.0473359315
 51
89.5497652844
  0
ARC
  5
456
100
AcDbEntity
  8
0
100
AcDbCircle
 62
7
  6
BYLAYER
 10
29.8546592035
 20
71.7864515405
 40
3.6498613442
100
AcDbArc
 50
176.0733453705
 51
183.9266686158
  0
ARC
  5
457
100
AcDbEntity
  8
0
100
AcDbCircle
 62
7
  6
BYLAYER
 10
29.1987210926
 20
71.786510271
 40
3.2
100
AcDbArc
 50
200.6745293401
 51
218.6821874535
  0
ARC
  5
458
100
AcDbEntity
  8
0
100
AcDbCircle
 62
7
  6
BYLAYER
 10
29.1987210926
 20
71.786510271
 40
3.2
100
AcDbArc
 50
141.3195970036
 51
159.3254706627
  0
ARC
  5
459
100
AcDbEntity
  8
0
100
AcDbCircle
 62
7
  6
BYLAYER
 10
29.198788435
 20
71.7864938906
 40
3.1902882215
100
AcDbArc
 50
159.3552762458
 51
173.264381485
  0
ARC
  5
45A
100
AcDbEntity
  8
0
100
AcDbCircle
 62
7
  6
BYLAYER
 10
30.8338179555
 20
74.960013282
 40
2.7707428997
100
AcDbArc
 50
44.146514777
 51
78.2357926027
  0
ARC
  5
45B
100
AcDbEntity
  8
0
100
AcDbCircle
 62
7
  6
BYLAYER
 10
29.3487210926
 20
67.290303937
 40
1.5
100
AcDbArc
 50
78.231711068
 51
180.0000000196
  0
ARC
  5
45C
100
AcDbEntity
  8
0
100
AcDbCircle
 62
7
  6
BYLAYER
 10
29.3487210926
 20
67.290303937
 40
1.2999974368
100
AcDbArc
 50
78.230956113
 51
180.0007548821
  0
ARC
  5
45D
100
AcDbEntity
  8
0
100
AcDbCircle
 62
7
  6
BYLAYER
 10
28.0987210926
 20
69.2125304238
 40
0.5
100
AcDbArc
 50
270.5000000004
 51
360.0
  0
ARC
  5
45E
100
AcDbEntity
  8
0
100
AcDbCircle
 62
7
  6
BYLAYER
 10
30.7987210926
 20
72.1219640289
 40
0.5
100
AcDbArc
 50
0.0
 51
84.2764670667
  0
ARC
  5
45F
100
AcDbEntity
  8
0
100
AcDbCircle
 62
7
  6
BYLAYER
 10
30.7987210926
 20
72.1219640289
 40
0.5
100
AcDbArc
 50
84.2764670667
 51
88.9601866928
  0
ARC
  5
460
100
AcDbEntity
  8
0
100
AcDbCircle
 62
7
  6
BYLAYER
 10
28.9628407173
 20
60.680698287
 40
0.4888556254
100
AcDbArc
 50
84.2995854434
 51
87.7039357207
  0
ARC
  5
461
100
AcDbEntity
  8
0
100
AcDbCircle
 62
7
  6
BYLAYER
 10
30.0234842494
 20
69.0735693838
 40
0.4057651043
100
AcDbArc
 50
83.4687370395
 51
86.1497904437
  0
ARC
  5
462
100
AcDbEntity
  8
0
100
AcDbCircle
 62
7
  6
BYLAYER
 10
30.6487210926
 20
69.9347725131
 40
0.2
100
AcDbArc
 50
270.5
 51
360.0
  0
ARC
  5
463
100
AcDbEntity
  8
0
100
AcDbCircle
 62
7
  6
BYLAYER
 10
30.6487210926
 20
56.9847725131
 40
0.2
100
AcDbArc
 50
270.5000163455
 51
360.0
  0
ARC
  5
464
100
AcDbEntity
  8
0
100
AcDbCircle
 62
7
  6
BYLAYER
 10
30.6487422926
 20
69.1290394934
 40
0.1999985941
100
AcDbArc
 50
272.1691799051
 51
360.0
  0
ARC
  5
465
100
AcDbEntity
  8
0
100
AcDbCircle
 62
7
  6
BYLAYER
 10
30.8487210926
 20
10.893510271
 40
3.1999980417
100
AcDbArc
 50
359.9997074706
 51
180.0000000002
  0
ARC
  5
466
100
AcDbEntity
  8
0
100
AcDbCircle
 62
7
  6
BYLAYER
 10
30.8487210926
 20
10.893510271
 40
3.0
100
AcDbArc
 50
0.0000000198
 51
180.0
  0
ARC
  5
467
100
AcDbEntity
  8
0
100
AcDbCircle
 62
7
  6
BYLAYER
 10
30.8487210926
 20
10.893510271
 40
2.7999980379
100
AcDbArc
 50
359.9996643529
 51
180.0
  0
ARC
  5
468
100
AcDbEntity
  8
0
100
AcDbCircle
 62
7
  6
BYLAYER
 10
30.8504678902
 20
10.8549228248
 40
2.7000067543
100
AcDbArc
 50
83.6700221234
 51
90.0370619072
  0
ARC
  5
469
100
AcDbEntity
  8
0
100
AcDbCircle
 62
7
  6
BYLAYER
 10
30.8504474541
 20
10.8549283064
 40
2.6999936017
100
AcDbArc
 50
281.7161784958
 51
78.2838335297
  0
ARC
  5
46A
100
AcDbEntity
  8
0
100
AcDbCircle
 62
7
  6
BYLAYER
 10
30.8504974021
 20
10.8543415559
 40
2.6994118915
100
AcDbArc
 50
269.9622986388
 51
277.6841753305
  0
ARC
  5
46B
100
AcDbEntity
  8
0
100
AcDbCircle
 62
7
  6
BYLAYER
 10
30.8487310747
 20
10.8965093814
 40
2.5000020038
100
AcDbArc
 50
90.9552022747
 51
269.0508474937
  0
ARC
  5
46C
100
AcDbEntity
  8
0
100
AcDbCircle
 62
7
  6
BYLAYER
 10
30.8487210926
 20
10.896510271
 40
1.7499911872
100
AcDbArc
 50
13.2134574661
 51
166.7865425339
  0
ARC
  5
46D
100
AcDbEntity
  8
0
100
AcDbCircle
 62
7
  6
BYLAYER
 10
30.8487210926
 20
10.896510271
 40
1.7499911872
100
AcDbArc
 50
193.2134574661
 51
346.7865425339
  0
ARC
  5
46E
100
AcDbEntity
  8
0
100
AcDbCircle
 62
7
  6
BYLAYER
 10
32.3487210926
 20
19.104716605
 40
1.5
100
AcDbArc
 50
281.768288932
 51
359.9999999997
  0
CIRCLE
  5
46F
100
AcDbEntity
  8
0
100
AcDbCircle
 62
7
  6
BYLAYER
 10
30.8487210926
 20
10.896510271
 40
1.3
  0
ARC
  5
470
100
AcDbEntity
  8
0
100
AcDbCircle
 62
7
  6
BYLAYER
 10
32.3487210926
 20
19.104716605
 40
1.2999965547
100
AcDbArc
 50
281.7671866168
 51
0.0011024188
  0
CIRCLE
  5
471
100
AcDbEntity
  8
0
100
AcDbCircle
 62
7
  6
BYLAYER
 10
30.8487210926
 20
10.896510271
 40
1.1
  0
ARC
  5
472
100
AcDbEntity
  8
0
100
AcDbCircle
 62
7
  6
BYLAYER
 10
33.5987210926
 20
16.3604901183
 40
0.5
100
AcDbArc
 50
90.5000000006
 51
113.0852104768
  0
ARC
  5
473
100
AcDbEntity
  8
0
100
AcDbCircle
 62
7
  6
BYLAYER
 10
33.5987210926
 20
16.3604901183
 40
0.5
100
AcDbArc
 50
113.0852104768
 51
180.0
  0
ARC
  5
474
100
AcDbEntity
  8
0
100
AcDbCircle
 62
7
  6
BYLAYER
 10
31.0487210926
 20
15.8382480289
 40
0.2
100
AcDbArc
 50
90.5000000004
 51
180.0
  0
ARC
  5
475
100
AcDbEntity
  8
0
100
AcDbCircle
 62
7
  6
BYLAYER
 10
31.0487210926
 20
31.6847725131
 40
0.2
100
AcDbArc
 50
179.998430909
 51
269.4999817249
  0
ARC
  5
476
100
AcDbEntity
  8
0
100
AcDbCircle
 62
7
  6
BYLAYER
 10
36.5987210926
 20
7.6367088
 40
0.5
100
AcDbArc
 50
270.5
 51
360.0
  0
ARC
  5
477
100
AcDbEntity
  8
0
100
AcDbCircle
 62
7
  6
BYLAYER
 10
34.9208351748
 20
26.037582901
 40
1.0740264762
100
AcDbArc
 50
180.660698922
 51
181.0108293111
  0
ARC
  5
478
100
AcDbEntity
  8
0
100
AcDbCircle
 62
7
  6
BYLAYER
 10
33.6264316934
 20
50.0405453436
 40
32.3585372705
100
AcDbArc
 50
264.8159499097
 51
265.0755745752
  0
ARC
  5
479
100
AcDbEntity
  8
0
100
AcDbCircle
 62
7
  6
BYLAYER
 10
33.6091362714
 20
49.8315549396
 40
32.1488331383
100
AcDbArc
 50
265.0743118793
 51
265.8788161185
  0
ARC
  5
47A
100
AcDbEntity
  8
0
100
AcDbCircle
 62
7
  6
BYLAYER
 10
33.6016834007
 20
49.7838518702
 40
32.0516039335
100
AcDbArc
 50
265.3347141239
 51
266.0588544823
  0
ARC
  5
47B
100
AcDbEntity
  8
0
100
AcDbCircle
 62
7
  6
BYLAYER
 10
33.3863728876
 20
55.7621683193
 40
0.5526387099
100
AcDbArc
 50
93.84391134
 51
96.8493898253
  0
ARC
  5
47C
100
AcDbEntity
  8
0
100
AcDbCircle
 62
7
  6
BYLAYER
 10
32.5987210926
 20
45.4821658763
 40
0.5
100
AcDbArc
 50
270.5
 51
359.9994371538
  0
ARC
  5
47D
100
AcDbEntity
  8
0
100
AcDbCircle
 62
7
  6
BYLAYER
 10
32.5987210926
 20
40.2908546657
 40
0.5
100
AcDbArc
 50
0.0005628462
 51
89.5
  0
ARC
  5
47E
100
AcDbEntity
  8
0
100
AcDbCircle
 62
7
  6
BYLAYER
 10
33.2987210926
 20
40.3973585734
 40
0.2
100
AcDbArc
 50
180.0
 51
269.4999999999
  0
ARC
  5
47F
100
AcDbEntity
  8
0
100
AcDbCircle
 62
7
  6
BYLAYER
 10
33.2987210926
 20
39.8151370606
 40
0.2
100
AcDbArc
 50
180.0
 51
269.4999916911
  0
ARC
  5
480
100
AcDbEntity
  8
0
100
AcDbCircle
 62
7
  6
BYLAYER
 10
33.2986407861
 20
45.9555408565
 40
0.1999247463
100
AcDbArc
 50
90.4771688894
 51
179.9784673554
  0
ARC
  5
481
100
AcDbEntity
  8
0
100
AcDbCircle
 62
7
  6
BYLAYER
 10
31.0485461229
 20
34.4858253944
 40
0.1998360807
100
AcDbArc
 50
90.4502357092
 51
179.9528485905
  0
ARC
  5
482
100
AcDbEntity
  8
0
100
AcDbCircle
 62
7
  6
BYLAYER
 10
31.0487210926
 20
56.9847725131
 40
0.2
100
AcDbArc
 50
179.9984115607
 51
269.4999813892
  0
ARC
  5
483
100
AcDbEntity
  8
0
100
AcDbCircle
 62
7
  6
BYLAYER
 10
31.0487210926
 20
69.9347725131
 40
0.2
100
AcDbArc
 50
180.0
 51
269.5
  0
ARC
  5
484
100
AcDbEntity
  8
0
100
AcDbCircle
 62
7
  6
BYLAYER
 10
31.0487143899
 20
69.1290478607
 40
0.199998564
100
AcDbArc
 50
180.0061424267
 51
267.8268786527
  0
ARC
  5
485
100
AcDbEntity
  8
0
100
AcDbCircle
 62
7
  6
BYLAYER
 10
30.8487210926
 20
74.876510271
 40
3.1999980417
100
AcDbArc
 50
179.9997074706
 51
360.0
  0
ARC
  5
486
100
AcDbEntity
  8
0
100
AcDbCircle
 62
7
  6
BYLAYER
 10
30.8487210926
 20
74.876510271
 40
3.0
100
AcDbArc
 50
180.0000000198
 51
360.0
  0
ARC
  5
487
100
AcDbEntity
  8
0
100
AcDbCircle
 62
7
  6
BYLAYER
 10
30.8487210926
 20
74.876510271
 40
2.7999980379
100
AcDbArc
 50
179.9996643529
 51
360.0
  0
ARC
  5
488
100
AcDbEntity
  8
0
100
AcDbCircle
 62
7
  6
BYLAYER
 10
30.8487210926
 20
74.876510271
 40
2.5
100
AcDbArc
 50
270.0
 51
90.0
  0
ARC
  5
489
100
AcDbEntity
  8
0
100
AcDbCircle
 62
7
  6
BYLAYER
 10
30.8492322997
 20
74.9782499824
 40
2.4921631124
100
AcDbArc
 50
79.6088498135
 51
129.085729468
  0
ARC
  5
48A
100
AcDbEntity
  8
0
100
AcDbCircle
 62
7
  6
BYLAYER
 10
30.8487210926
 20
74.876510271
 40
2.255
100
AcDbArc
 50
90.0
 51
270.0
  0
ARC
  5
48B
100
AcDbEntity
  8
0
100
AcDbCircle
 62
7
  6
BYLAYER
 10
30.8487210926
 20
74.876510271
 40
2.255
100
AcDbArc
 50
78.4889773804
 51
90.0
  0
ARC
  5
48C
100
AcDbEntity
  8
0
100
AcDbCircle
 62
7
  6
BYLAYER
 10
30.8487210926
 20
74.876510271
 40
1.7499911872
100
AcDbArc
 50
13.2134574661
 51
166.7865425339
  0
ARC
  5
48D
100
AcDbEntity
  8
0
100
AcDbCircle
 62
7
  6
BYLAYER
 10
30.8487210926
 20
74.876510271
 40
1.7499911872
100
AcDbArc
 50
193.2134574661
 51
346.7865425339
  0
CIRCLE
  5
48E
100
AcDbEntity
  8
0
100
AcDbCircle
 62
7
  6
BYLAYER
 10
30.8487210926
 20
74.876510271
 40
1.3
  0
CIRCLE
  5
48F
100
AcDbEntity
  8
0
100
AcDbCircle
 62
7
  6
BYLAYER
 10
30.8487210926
 20
74.876510271
 40
1.1
  0
ARC
  5
490
100
AcDbEntity
  8
0
100
AcDbCircle
 62
7
  6
BYLAYER
 10
31.7252099713
 20
68.5102342405
 40
0.9713656987
100
AcDbArc
 50
94.6316714729
 51
95.7552572628
  0
ARC
  5
491
100
AcDbEntity
  8
0
100
AcDbCircle
 62
7
  6
BYLAYER
 10
32.7343263957
 20
60.6846335269
 40
0.4849125306
100
AcDbArc
 50
92.2822170518
 51
95.7144009098
  0
ARC
  5
492
100
AcDbEntity
  8
0
100
AcDbCircle
 62
7
  6
BYLAYER
 10
32.3487210926
 20
66.665303937
 40
1.5
100
AcDbArc
 50
0.0
 51
78.2317110679
  0
ARC
  5
493
100
AcDbEntity
  8
0
100
AcDbCircle
 62
7
  6
BYLAYER
 10
32.3487210926
 20
66.665303937
 40
1.299996576
100
AcDbArc
 50
359.9989044992
 51
78.2328066725
  0
ARC
  5
494
100
AcDbEntity
  8
0
100
AcDbCircle
 62
7
  6
BYLAYER
 10
33.5987210926
 20
69.2125304238
 40
0.5
100
AcDbArc
 50
180.0
 51
269.4999999997
  0
ARC
  5
495
100
AcDbEntity
  8
0
100
AcDbCircle
 62
7
  6
BYLAYER
 10
34.1850267823
 20
47.0005922763
 40
12.9849813527
100
AcDbArc
 50
82.1878002695
 51
83.0972211546
  0
ARC
  5
496
100
AcDbEntity
  8
0
100
AcDbCircle
 62
7
  6
BYLAYER
 10
34.2366381674
 20
48.3971241663
 40
11.8672980804
100
AcDbArc
 50
81.450587381
 51
82.3732456017
  0
ARC
  5
497
100
AcDbEntity
  8
0
100
AcDbCircle
 62
7
  6
BYLAYER
 10
36.5987210926
 20
78.136311742
 40
0.5
100
AcDbArc
 50
0.0
 51
89.5
  0
ARC
  5
498
100
AcDbEntity
  8
0
100
AcDbCircle
 62
7
  6
BYLAYER
 10
53.9562779075
 20
2113.1269475839
 40
2043.7699870712
100
AcDbArc
 50
269.3745549802
 51
269.4973295076
  0
ARC
  5
499
100
AcDbEntity
  8
0
100
AcDbCircle
 62
7
  6
BYLAYER
 10
15.4610582197
 20
1317.7497212836
 40
1248.3556351697
100
AcDbArc
 50
270.4686314764
 51
270.6696404731
  0
ARC
  5
49A
100
AcDbEntity
  8
0
100
AcDbCircle
 62
7
  6
BYLAYER
 10
124.8538250198
 20
26.1927042601
 40
93.8074160959
100
AcDbArc
 50
179.7999913625
 51
180.0168385894
  0
SPLINE
  5
49B
100
AcDbEntity
  8
0
100
AcDbSpline
 62
7
  6
BYLAYER
 70
0
 71
3
 72
12
 73
8
 74
0
 42
0.0000001
 43
0.0000001
 44
0.0000000001
 40
0.0
 40
0.0
 40
0.0
 40
0.0
 40
0.2949343173
 40
0.5619568892
 40
0.7770060988
 40
0.9229799821
 40
1.0
 40
1.0
 40
1.0
 40
1.0
 10
36.6030843603
 20
7.5327569129
 30
0.0
 10
36.6542537953
 20
7.5328497557
 30
0.0
 10
36.7518876938
 20
7.5362546011
 30
0.0
 10
36.8856998004
 20
7.5491987186
 30
0.0
 10
36.9940086173
 20
7.5717924283
 30
0.0
 10
37.0637777547
 20
7.593076235
 30
0.0
 10
37.0987210926
 20
7.6233462408
 30
0.0
 10
37.0987210926
 20
7.6367088
 30
0.0
  0
SPLINE
  5
49C
100
AcDbEntity
  8
0
100
AcDbSpline
 62
7
  6
BYLAYER
 70
0
 71
3
 72
11
 73
7
 74
0
 42
0.0000001
 43
0.0000001
 44
0.0000000001
 40
0.0
 40
0.0
 40
0.0
 40
0.0
 40
0.0724683122
 40
0.2814006776
 40
0.6028671725
 40
1.0
 40
1.0
 40
1.0
 40
1.0
 10
36.6030843603
 20
7.1367278385
 30
0.0
 10
36.6126509702
 20
7.136811325
 30
0.0
 10
36.5920551383
 20
7.1964909005
 30
0.0
 10
36.6115829298
 20
7.2553524176
 30
0.0
 10
36.6010290167
 20
7.3886852416
 30
0.0
 10
36.6034631052
 20
7.4803304077
 30
0.0
 10
36.6030843603
 20
7.5327569129
 30
0.0
  0
LINE
  5
49D
100
AcDbEntity
  8
0
100
AcDbLine
 62
7
  6
BYLAYER
 10
31.3987210926
 20
7.0913100483
 11
31.3987210926
 21
7.4873391228
  0
LINE
  5
49E
100
AcDbEntity
  8
0
100
AcDbLine
 62
7
  6
BYLAYER
 10
31.3987210926
 20
13.9516998828
 11
31.3987210926
 21
17.0591658044
  0
LINE
  5
49F
100
AcDbEntity
  8
0
100
AcDbLine
 62
7
  6
BYLAYER
 10
31.3987210901
 20
20.6762833285
 11
31.3987208501
 21
21.1709000545
  0
SPLINE
  5
4A0
100
AcDbEntity
  8
0
100
AcDbSpline
 62
7
  6
BYLAYER
 70
0
 71
3
 72
18
 73
14
 74
0
 42
0.0000001
 43
0.0000001
 44
0.0000000001
 40
0.0
 40
0.0
 40
0.0
 40
0.0
 40
0.0863495008
 40
0.1836957687
 40
0.2733477333
 40
0.3514492347
 40
0.4313947522
 40
0.5183574264
 40
0.608048762
 40
0.7056100289
 40
0.8046244729
 40
0.9084804415
 40
1.0
 40
1.0
 40
1.0
 40
1.0
 10
31.39872083
 20
72.3344773722
 30
0.0
 10
31.5649030956
 20
72.3632322415
 30
0.0
 10
31.9102631603
 20
72.4704631555
 30
0.0
 10
32.3888553408
 20
72.7136827338
 30
0.0
 10
32.7957004294
 20
73.0396180268
 30
0.0
 10
33.1153231878
 20
73.4056178976
 30
0.0
 10
33.3650982321
 20
73.8166651129
 30
0.0
 10
33.5444594725
 20
74.2879218432
 30
0.0
 10
33.6350575134
 20
74.819362695
 30
0.0
 10
33.6131504576
 20
75.382333626
 30
0.0
 10
33.4636071254
 20
75.9550586146
 30
0.0
 10
33.1933356303
 20
76.4670386453
 30
0.0
 10
32.9525644225
 20
76.76789188
 30
0.0
 10
32.8220276032
 20
76.890004572
 30
0.0
  0
SPLINE
  5
4A1
100
AcDbEntity
  8
0
100
AcDbSpline
 62
7
  6
BYLAYER
 70
0
 71
3
 72
11
 73
7
 74
0
 42
0.0000001
 43
0.0000001
 44
0.0000000001
 40
0.0
 40
0.0
 40
0.0
 40
0.0
 40
0.2380680505
 40
0.4934368254
 40
0.7402863547
 40
1.0
 40
1.0
 40
1.0
 40
1.0
 10
32.8220276032
 20
76.890004572
 30
0.0
 10
33.147224553
 20
76.8690100429
 30
0.0
 10
33.8211746974
 20
76.8242954567
 30
0.0
 10
34.8319875214
 20
76.7529821755
 30
0.0
 10
35.8730785741
 20
76.6901070899
 30
0.0
 10
36.5658850893
 20
76.6604822535
 30
0.0
 10
36.9211690088
 20
76.648003088
 30
0.0
  0
SPLINE
  5
4A2
100
AcDbEntity
  8
0
100
AcDbSpline
 62
7
  6
BYLAYER
 70
0
 71
3
 72
10
 73
6
 74
0
 42
0.0000001
 43
0.0000001
 44
0.0000000001
 40
0.0
 40
0.0
 40
0.0
 40
0.0
 40
0.5296504453
 40
0.8823992259
 40
1.0
 40
1.0
 40
1.0
 40
1.0
 10
31.3986841884
 20
72.3345806069
 30
0.0
 10
31.3990130797
 20
72.3527886635
 30
0.0
 10
31.3986307123
 20
72.3831321505
 30
0.0
 10
31.3987073394
 20
72.4175143613
 30
0.0
 10
31.3987322347
 20
72.4336863789
 30
0.0
 10
31.3987348656
 20
72.437729901
 30
0.0
  0
SPLINE
  5
4A3
100
AcDbEntity
  8
0
100
AcDbSpline
 62
7
  6
BYLAYER
 70
0
 71
3
 72
21
 73
17
 74
0
 42
0.0000001
 43
0.0000001
 44
0.0000000001
 40
0.0
 40
0.0
 40
0.0
 40
0.0
 40
0.0719316813
 40
0.1999613278
 40
0.332327787
 40
0.4595935295
 40
0.5189547888
 40
0.5745931695
 40
0.6283458778
 40
0.6817662668
 40
0.7836718406
 40
0.8300563339
 40
0.8720925607
 40
0.9089135225
 40
0.9398917953
 40
1.0
 40
1.0
 40
1.0
 40
1.0
 10
32.8220406077
 20
76.8898674461
 30
0.0
 10
32.8155247596
 20
76.885315948
 30
0.0
 10
32.79772862
 20
76.8722065269
 30
0.0
 10
32.7694200224
 20
76.8487783702
 30
0.0
 10
32.7379401203
 20
76.8197037217
 30
0.0
 10
32.713266314
 20
76.7945104104
 30
0.0
 10
32.6952598894
 20
76.77469938
 30
0.0
 10
32.6830613076
 20
76.760594409
 30
0.0
 10
32.6716422702
 20
76.7466900854
 30
0.0
 10
32.6574930663
 20
76.7284255555
 30
0.0
 10
32.6446569592
 20
76.7101784973
 30
0.0
 10
32.6337991808
 20
76.6921422721
 30
0.0
 10
32.6273533218
 20
76.6799251375
 30
0.0
 10
32.6225272307
 20
76.6686503802
 30
0.0
 10
32.6183350281
 20
76.6555983171
 30
0.0
 10
32.617740901
 20
76.6432708154
 30
0.0
 10
32.6223520204
 20
76.6384907157
 30
0.0
  0
SPLINE
  5
4A4
100
AcDbEntity
  8
0
100
AcDbSpline
 62
7
  6
BYLAYER
 70
0
 71
3
 72
13
 73
9
 74
0
 42
0.0000001
 43
0.0000001
 44
0.0000000001
 40
0.0
 40
0.0
 40
0.0
 40
0.0
 40
0.0446152099
 40
0.1728667585
 40
0.3619810019
 40
0.5887021244
 40
0.8123574732
 40
1.0
 40
1.0
 40
1.0
 40
1.0
 10
31.3987366219
 20
77.3153263118
 30
0.0
 10
31.3987268109
 20
77.320638021
 30
0.0
 10
31.3987029661
 20
77.3412188698
 30
0.0
 10
31.3987319802
 20
77.384315015
 30
0.0
 10
31.3987077627
 20
77.4490915984
 30
0.0
 10
31.3988084155
 20
77.5252285205
 30
0.0
 10
31.3983858309
 20
77.6011829543
 30
0.0
 10
31.3993103952
 20
77.6501628072
 30
0.0
 10
31.3987166872
 20
77.6724949245
 30
0.0
  0
SPLINE
  5
4A5
100
AcDbEntity
  8
0
100
AcDbSpline
 62
7
  6
BYLAYER
 70
0
 71
3
 72
11
 73
7
 74
0
 42
0.0000001
 43
0.0000001
 44
0.0000000001
 40
0.0
 40
0.0
 40
0.0
 40
0.0
 40
0.4235563122
 40
0.7399692705
 40
0.9342873473
 40
1.0
 40
1.0
 40
1.0
 40
1.0
 10
31.3987210846
 20
77.6725427568
 30
0.0
 10
31.3972448297
 20
77.8150148978
 30
0.0
 10
31.3992396501
 20
78.0639429293
 30
0.0
 10
31.3986675811
 20
78.3782241032
 30
0.0
 10
31.3986863314
 20
78.5721339282
 30
0.0
 10
31.3987141817
 20
78.6596054846
 30
0.0
 10
31.3987210334
 20
78.6817104943
 30
0.0
  0
SPLINE
  5
4A6
100
AcDbEntity
  8
0
100
AcDbSpline
 62
7
  6
BYLAYER
 70
0
 71
3
 72
11
 73
7
 74
0
 42
0.0000001
 43
0.0000001
 44
0.0000000001
 40
0.0
 40
0.0
 40
0.0
 40
0.0
 40
0.0761847471
 40
0.2929516554
 40
0.6173476573
 40
1.0
 40
1.0
 40
1.0
 40
1.0
 10
31.0469757855
 20
16.0382404135
 30
0.0
 10
31.0467310841
 20
16.0331658447
 30
0.0
 10
31.0460710948
 20
16.0136467623
 30
0.0
 10
31.0463316057
 20
15.9724796686
 30
0.0
 10
31.0463677971
 20
15.9108956123
 30
0.0
 10
31.0467531824
 20
15.8637577659
 30
0.0
 10
31.0469757855
 20
15.8382480289
 30
0.0
  0
SPLINE
  5
4A7
100
AcDbEntity
  8
0
100
AcDbSpline
 62
7
  6
BYLAYER
 70
0
 71
3
 72
10
 73
6
 74
0
 42
0.0000001
 43
0.0000001
 44
0.0000000001
 40
0.0
 40
0.0
 40
0.0
 40
0.0
 40
0.1198927031
 40
0.4650493181
 40
1.0
 40
1.0
 40
1.0
 40
1.0
 10
35.9004692964
 20
16.0802527636
 30
0.0
 10
35.9005629694
 20
16.0888536135
 30
0.0
 10
35.9008068767
 20
16.1222157676
 30
0.0
 10
35.9006093476
 20
16.1939576073
 30
0.0
 10
35.9005477885
 20
16.2570968951
 30
0.0
 10
35.9004632923
 20
16.2954746693
 30
0.0
  0
SPLINE
  5
4A8
100
AcDbEntity
  8
0
100
AcDbSpline
 62
7
  6
BYLAYER
 70
0
 71
3
 72
10
 73
6
 74
0
 42
0.0000001
 43
0.0000001
 44
0.0000000001
 40
0.0
 40
0.0
 40
0.0
 40
0.0
 40
0.5365883569
 40
0.881620458
 40
1.0
 40
1.0
 40
1.0
 40
1.0
 10
33.5943609272
 20
16.2763429612
 30
0.0
 10
33.5941394345
 20
16.2377929031
 30
0.0
 10
33.5940035396
 20
16.1744565027
 30
0.0
 10
33.5934948918
 20
16.1026065478
 30
0.0
 10
33.594118357
 20
16.069319213
 30
0.0
 10
33.5943548586
 20
16.0608167069
 30
0.0
  0
LINE
  5
4A9
100
AcDbEntity
  8
0
100
AcDbLine
 62
7
  6
BYLAYER
 10
33.5943609272
 20
16.2763429612
 11
35.9004632923
 21
16.2954746693
  0
LINE
  5
4AA
100
AcDbEntity
  8
0
100
AcDbLine
 62
7
  6
BYLAYER
 10
35.9004663984
 20
16.8805963298
 11
35.900466399
 21
16.9613045152
  0
LINE
  5
4AB
100
AcDbEntity
  8
0
100
AcDbLine
 62
7
  6
BYLAYER
 10
35.900466399
 20
16.9613045152
 11
33.59435769
 21
16.9408528564
  0
SPLINE
  5
4AC
100
AcDbEntity
  8
0
100
AcDbSpline
 62
7
  6
BYLAYER
 70
0
 71
3
 72
10
 73
6
 74
0
 42
0.0000001
 43
0.0000001
 44
0.0000000001
 40
0.0
 40
0.0
 40
0.0
 40
0.0
 40
0.548692291
 40
0.8861252809
 40
1.0
 40
1.0
 40
1.0
 40
1.0
 10
33.59435769
 20
16.9408528564
 30
0.0
 10
33.5942871471
 20
16.9261511004
 30
0.0
 10
33.5942459395
 20
16.9024087459
 30
0.0
 10
33.5940696671
 20
16.8756123861
 30
0.0
 10
33.5942795495
 20
16.863521716
 30
0.0
 10
33.5943577943
 20
16.8604712249
 30
0.0
  0
SPLINE
  5
4AD
100
AcDbEntity
  8
0
100
AcDbSpline
 62
7
  6
BYLAYER
 70
0
 71
3
 72
10
 73
6
 74
0
 42
0.0000001
 43
0.0000001
 44
0.0000000001
 40
0.0
 40
0.0
 40
0.0
 40
0.0
 40
0.3126791088
 40
0.6451859292
 40
1.0
 40
1.0
 40
1.0
 40
1.0
 10
33.3259968419
 20
16.8327217791
 30
0.0
 10
33.3536154697
 20
16.8448345261
 30
0.0
 10
33.4108974079
 20
16.8691697434
 30
0.0
 10
33.5006078997
 20
16.9046033783
 30
0.0
 10
33.5623976864
 20
16.9286176655
 30
0.0
 10
33.5943576893
 20
16.9408529292
 30
0.0
  0
SPLINE
  5
4AE
100
AcDbEntity
  8
0
100
AcDbSpline
 62
7
  6
BYLAYER
 70
0
 71
3
 72
10
 73
6
 74
0
 42
0.0000001
 43
0.0000001
 44
0.0000000001
 40
0.0
 40
0.0
 40
0.0
 40
0.0
 40
0.3324649953
 40
0.6660606338
 40
1.0
 40
1.0
 40
1.0
 40
1.0
 10
33.6056527493
 20
22.6344153965
 30
0.0
 10
33.5885056172
 20
22.6326898695
 30
0.0
 10
33.5541197605
 20
22.6295351142
 30
0.0
 10
33.502372071
 20
22.6263679739
 30
0.0
 10
33.4677756087
 20
22.6253810418
 30
0.0
 10
33.4504663997
 20
22.6251996266
 30
0.0
  0
SPLINE
  5
4AF
100
AcDbEntity
  8
0
100
AcDbSpline
 62
7
  6
BYLAYER
 70
0
 71
3
 72
10
 73
6
 74
0
 42
0.0000001
 43
0.0000001
 44
0.0000000001
 40
0.0
 40
0.0
 40
0.0
 40
0.0
 40
0.3326675807
 40
0.6660060008
 40
1.0
 40
1.0
 40
1.0
 40
1.0
 10
33.4504662155
 20
22.6252199637
 30
0.0
 10
33.1839447587
 20
22.6222907218
 30
0.0
 10
32.6503706142
 20
22.6158645549
 30
0.0
 10
31.8491962534
 20
22.607961902
 30
0.0
 10
31.3145591085
 20
22.6015539533
 30
0.0
 10
31.0469755921
 20
22.5985571687
 30
0.0
  0
SPLINE
  5
4B0
100
AcDbEntity
  8
0
100
AcDbSpline
 62
7
  6
BYLAYER
 70
0
 71
3
 72
15
 73
11
 74
0
 42
0.0000001
 43
0.0000001
 44
0.0000000001
 40
0.0
 40
0.0
 40
0.0
 40
0.0
 40
0.0616435349
 40
0.1407508566
 40
0.2383513263
 40
0.3547778159
 40
0.4898703863
 40
0.6430889683
 40
0.8135352012
 40
1.0
 40
1.0
 40
1.0
 40
1.0
 10
35.9004664143
 20
23.4436017656
 30
0.0
 10
35.8663204422
 20
23.4161039424
 30
0.0
 10
35.780705585
 20
23.3629973549
 30
0.0
 10
35.6260526399
 20
23.2931111392
 30
0.0
 10
35.4290515671
 20
23.224201121
 30
0.0
 10
35.1898811508
 20
23.1571070973
 30
0.0
 10
34.9092542648
 20
23.0926150256
 30
0.0
 10
34.5886863292
 20
23.0315422297
 30
0.0
 10
34.2303161895
 20
22.9746601417
 30
0.0
 10
33.9786324262
 20
22.9414311572
 30
0.0
 10
33.8469757855
 20
22.925511338
 30
0.0
  0
SPLINE
  5
4B1
100
AcDbEntity
  8
0
100
AcDbSpline
 62
7
  6
BYLAYER
 70
0
 71
3
 72
10
 73
6
 74
0
 42
0.0000001
 43
0.0000001
 44
0.0000000001
 40
0.0
 40
0.0
 40
0.0
 40
0.0
 40
0.1562029843
 40
0.4980008052
 40
1.0
 40
1.0
 40
1.0
 40
1.0
 10
33.8469757855
 20
22.7002495879
 30
0.0
 10
33.8469777297
 20
22.6869431742
 30
0.0
 10
33.797556646
 20
22.6633483058
 30
0.0
 10
33.7228160247
 20
22.6475496983
 30
0.0
 10
33.6482667328
 20
22.6379793815
 30
0.0
 10
33.6056518605
 20
22.6344153888
 30
0.0
  0
SPLINE
  5
4B2
100
AcDbEntity
  8
0
100
AcDbSpline
 62
7
  6
BYLAYER
 70
0
 71
3
 72
14
 73
10
 74
0
 42
0.0000001
 43
0.0000001
 44
0.0000000001
 40
0.0
 40
0.0
 40
0.0
 40
0.0
 40
0.1330070878
 40
0.2549386335
 40
0.3704506347
 40
0.4855048126
 40
0.6057425297
 40
0.7321733859
 40
1.0
 40
1.0
 40
1.0
 40
1.0
 10
35.9004738201
 20
23.4436043251
 30
0.0
 10
35.9090017736
 20
23.4558066269
 30
0.0
 10
35.9244210373
 20
23.4798842836
 30
0.0
 10
35.9423719465
 20
23.5174122945
 30
0.0
 10
35.9534612245
 20
23.5554969514
 30
0.0
 10
35.9571151372
 20
23.594834724
 30
0.0
 10
35.9532306819
 20
23.635353602
 30
0.0
 10
35.9385693584
 20
23.6912121491
 30
0.0
 10
35.9177833112
 20
23.7310486714
 30
0.0
 10
35.9004738523
 20
23.7555229902
 30
0.0
  0
SPLINE
  5
4B3
100
AcDbEntity
  8
0
100
AcDbSpline
 62
7
  6
BYLAYER
 70
0
 71
3
 72
16
 73
12
 74
0
 42
0.0000001
 43
0.0000001
 44
0.0000000001
 40
0.0
 40
0.0
 40
0.0
 40
0.0
 40
0.1568384902
 40
0.3144585128
 40
0.4644226654
 40
0.5342497487
 40
0.5996514683
 40
0.7166478527
 40
0.8192277145
 40
0.9120810223
 40
1.0
 40
1.0
 40
1.0
 40
1.0
 10
33.7668177117
 20
22.7996659226
 30
0.0
 10
33.7667623504
 20
22.8085213618
 30
0.0
 10
33.7677043156
 20
22.8262967313
 30
0.0
 10
33.7719227961
 20
22.8522246406
 30
0.0
 10
33.7778654125
 20
22.8727712563
 30
0.0
 10
33.7842110901
 20
22.8875954686
 30
0.0
 10
33.791083204
 20
22.9000911408
 30
0.0
 10
33.8013502279
 20
22.9127419231
 30
0.0
 10
33.8160939729
 20
22.9229085723
 30
0.0
 10
33.8317267359
 20
22.9274823379
 30
0.0
 10
33.8421712903
 20
22.9267603948
 30
0.0
 10
33.846975945
 20
22.9255119979
 30
0.0
  0
SPLINE
  5
4B4
100
AcDbEntity
  8
0
100
AcDbSpline
 62
7
  6
BYLAYER
 70
0
 71
3
 72
13
 73
9
 74
0
 42
0.0000001
 43
0.0000001
 44
0.0000000001
 40
0.0
 40
0.0
 40
0.0
 40
0.0
 40
0.2412983723
 40
0.370790817
 40
0.502472971
 40
0.6337397207
 40
0.7621039976
 40
1.0
 40
1.0
 40
1.0
 40
1.0
 10
35.900466404
 20
23.4436042622
 30
0.0
 10
35.9253081872
 20
23.4438177547
 30
0.0
 10
35.9639210059
 20
23.451313539
 30
0.0
 10
36.0099810411
 20
23.4753901357
 30
0.0
 10
36.0417531445
 20
23.5008313499
 30
0.0
 10
36.067342236
 20
23.5323395284
 30
0.0
 10
36.0913914751
 20
23.5778440199
 30
0.0
 10
36.0987266603
 20
23.6160632344
 30
0.0
 10
36.0987274148
 20
23.6405556465
 30
0.0
  0
SPLINE
  5
4B5
100
AcDbEntity
  8
0
100
AcDbSpline
 62
7
  6
BYLAYER
 70
0
 71
3
 72
11
 73
7
 74
0
 42
0.0000001
 43
0.0000001
 44
0.0000000001
 40
0.0
 40
0.0
 40
0.0
 40
0.0
 40
0.2482388116
 40
0.4975084729
 40
0.7482350376
 40
1.0
 40
1.0
 40
1.0
 40
1.0
 10
36.0987210926
 20
26.2304662735
 30
0.0
 10
36.0987210926
 20
26.2049750051
 30
0.0
 10
36.0883749124
 20
26.1533221825
 30
0.0
 10
36.0442243361
 20
26.088084268
 30
0.0
 10
35.9783776338
 20
26.0442629741
 30
0.0
 10
35.9263188218
 20
26.0337344074
 30
0.0
 10
35.900466413
 20
26.0335122227
 30
0.0
  0
SPLINE
  5
4B6
100
AcDbEntity
  8
0
100
AcDbSpline
 62
7
  6
BYLAYER
 70
0
 71
3
 72
13
 73
9
 74
0
 42
0.0000001
 43
0.0000001
 44
0.0000000001
 40
0.0
 40
0.0
 40
0.0
 40
0.0
 40
0.2413001245
 40
0.3707928634
 40
0.5024749332
 40
0.6337412736
 40
0.7621049571
 40
1.0
 40
1.0
 40
1.0
 40
1.0
 10
35.9004658056
 20
25.318362388
 30
0.0
 10
35.9253079416
 20
25.3185757842
 30
0.0
 10
35.9639212485
 20
25.3260712793
 30
0.0
 10
36.009982193
 20
25.3501473224
 30
0.0
 10
36.0417550471
 20
25.3755879934
 30
0.0
 10
36.0673450768
 20
25.4070956122
 30
0.0
 10
36.0913957123
 20
25.4525995301
 30
0.0
 10
36.0987321374
 20
25.4908185972
 30
0.0
 10
36.0987336873
 20
25.5153110795
 30
0.0
  0
SPLINE
  5
4B7
100
AcDbEntity
  8
0
100
AcDbSpline
 62
7
  6
BYLAYER
 70
0
 71
3
 72
15
 73
11
 74
0
 42
0.0000001
 43
0.0000001
 44
0.0000000001
 40
0.0
 40
0.0
 40
0.0
 40
0.0
 40
0.1867833215
 40
0.3574547527
 40
0.5107985028
 40
0.6459157267
 40
0.7622712478
 40
0.8597174112
 40
0.9386068122
 40
1.0
 40
1.0
 40
1.0
 40
1.0
 10
33.8469757957
 20
25.8011502122
 30
0.0
 10
33.9786053229
 20
25.787496325
 30
0.0
 10
34.2302371986
 20
25.7586001619
 30
0.0
 10
34.5886134324
 20
25.7078801563
 30
0.0
 10
34.9091902099
 20
25.6523178994
 30
0.0
 10
35.1898189443
 20
25.5926512502
 30
0.0
 10
35.4289819025
 20
25.5296746439
 30
0.0
 10
35.6259737587
 20
25.4641590555
 30
0.0
 10
35.7806239184
 20
25.3969439185
 30
0.0
 10
35.8663034998
 20
25.3452803
 30
0.0
 10
35.9004664263
 20
25.3183566245
 30
0.0
  0
SPLINE
  5
4B8
100
AcDbEntity
  8
0
100
AcDbSpline
 62
7
  6
BYLAYER
 70
0
 71
3
 72
11
 73
7
 74
0
 42
0.0000001
 43
0.0000001
 44
0.0000000001
 40
0.0
 40
0.0
 40
0.0
 40
0.0
 40
0.121372832
 40
0.3496035431
 40
0.6552276171
 40
1.0
 40
1.0
 40
1.0
 40
1.0
 10
35.9004663997
 20
26.0335122226
 30
0.0
 10
35.9008294584
 20
26.0546245094
 30
0.0
 10
35.9009418506
 20
26.1154485765
 30
0.0
 10
35.9011323573
 20
26.229437242
 30
0.0
 10
35.900924487
 20
26.3822942557
 30
0.0
 10
35.9006458375
 20
26.4954440709
 30
0.0
 10
35.9004663921
 20
26.5554243559
 30
0.0
  0
SPLINE
  5
4B9
100
AcDbEntity
  8
0
100
AcDbSpline
 62
7
  6
BYLAYER
 70
0
 71
3
 72
12
 73
8
 74
0
 42
0.0000001
 43
0.0000001
 44
0.0000000001
 40
0.0
 40
0.0
 40
0.0
 40
0.0
 40
0.2992626983
 40
0.5726627864
 40
0.7817506869
 40
0.9311528441
 40
1.0
 40
1.0
 40
1.0
 40
1.0
 10
33.4498770076
 20
26.1809432542
 30
0.0
 10
33.4937273862
 20
26.1804473773
 30
0.0
 10
33.578165795
 20
26.1720168784
 30
0.0
 10
33.6869644959
 20
26.1368383177
 30
0.0
 10
33.7722491952
 20
26.0947825987
 30
0.0
 10
33.8196304423
 20
26.0609726558
 30
0.0
 10
33.8479026593
 20
26.0352348864
 30
0.0
 10
33.8468799292
 20
26.0251981751
 30
0.0
  0
LINE
  5
4BA
100
AcDbEntity
  8
0
100
AcDbLine
 62
7
  6
BYLAYER
 10
31.046975049
 20
26.5201674105
 11
35.9004663921
 21
26.5554243559
  0
SPLINE
  5
4BB
100
AcDbEntity
  8
0
100
AcDbSpline
 62
7
  6
BYLAYER
 70
0
 71
3
 72
12
 73
8
 74
0
 42
0.0000001
 43
0.0000001
 44
0.0000000001
 40
0.0
 40
0.0
 40
0.0
 40
0.0
 40
0.3554145654
 40
0.6596634317
 40
0.8811474553
 40
0.9966804476
 40
1.0
 40
1.0
 40
1.0
 40
1.0
 10
35.9004663879
 20
31.0262318867
 30
0.0
 10
35.9006564596
 20
31.0787750396
 30
0.0
 10
35.8996282914
 20
31.1710899381
 30
0.0
 10
35.9048247268
 20
31.3202205973
 30
0.0
 10
35.8937896163
 20
31.3725590748
 30
0.0
 10
35.9096269647
 20
31.4840975981
 30
0.0
 10
35.9004766863
 20
31.4673789797
 30
0.0
 10
35.900466412
 20
31.4668883339
 30
0.0
  0
SPLINE
  5
4BC
100
AcDbEntity
  8
0
100
AcDbSpline
 62
7
  6
BYLAYER
 70
0
 71
3
 72
12
 73
8
 74
0
 42
0.0000001
 43
0.0000001
 44
0.0000000001
 40
0.0
 40
0.0
 40
0.0
 40
0.0
 40
0.0104374507
 40
0.1209510079
 40
0.3398470835
 40
0.6436404619
 40
1.0
 40
1.0
 40
1.0
 40
1.0
 10
31.0469754122
 20
31.5149195669
 30
0.0
 10
31.0469419017
 20
31.5164770575
 30
0.0
 10
31.0438847199
 20
31.5369561
 30
0.0
 10
31.0481921838
 20
31.4253801433
 30
0.0
 10
31.0451431462
 20
31.3731831048
 30
0.0
 10
31.0468366815
 20
31.2228909438
 30
0.0
 10
31.0467531425
 20
31.129659401
 30
0.0
 10
31.0469757878
 20
31.0764711026
 30
0.0
  0
LINE
  5
4BD
100
AcDbEntity
  8
0
100
AcDbLine
 62
7
  6
BYLAYER
 10
35.9004663213
 20
34.7255586115
 11
31.0469757217
 21
34.6856662865
  0
SPLINE
  5
4BE
100
AcDbEntity
  8
0
100
AcDbSpline
 62
7
  6
BYLAYER
 70
0
 71
3
 72
11
 73
7
 74
0
 42
0.0000001
 43
0.0000001
 44
0.0000000001
 40
0.0
 40
0.0
 40
0.0
 40
0.0
 40
0.2478264807
 40
0.4969166583
 40
0.7478148488
 40
1.0
 40
1.0
 40
1.0
 40
1.0
 10
30.8487210927
 20
31.7111576429
 30
0.0
 10
30.8487203837
 20
31.6857548573
 30
0.0
 10
30.8590798238
 20
31.6342539382
 30
0.0
 10
30.903258894
 20
31.5692543155
 30
0.0
 10
30.9691035388
 20
31.5256217507
 30
0.0
 10
31.0211271099
 20
31.5151449463
 30
0.0
 10
31.0469757217
 20
31.514923606
 30
0.0
  0
SPLINE
  5
4BF
100
AcDbEntity
  8
0
100
AcDbSpline
 62
7
  6
BYLAYER
 70
0
 71
3
 72
11
 73
7
 74
0
 42
0.0000001
 43
0.0000001
 44
0.0000000001
 40
0.0
 40
0.0
 40
0.0
 40
0.0
 40
0.0788744412
 40
0.2951831066
 40
0.6183101646
 40
1.0
 40
1.0
 40
1.0
 40
1.0
 10
30.8487210932
 20
26.5318072762
 30
0.0
 10
30.8536511463
 20
26.5298715866
 30
0.0
 10
30.8724719962
 20
26.5244721268
 30
0.0
 10
30.913933198
 20
26.5235710561
 30
0.0
 10
30.9747828429
 20
26.520311533
 30
0.0
 10
31.0216410165
 20
26.5200860671
 30
0.0
 10
31.0469759224
 20
26.5200730948
 30
0.0
  0
SPLINE
  5
4C0
100
AcDbEntity
  8
0
100
AcDbSpline
 62
7
  6
BYLAYER
 70
0
 71
3
 72
11
 73
7
 74
0
 42
0.0000001
 43
0.0000001
 44
0.0000000001
 40
0.0
 40
0.0
 40
0.0
 40
0.0
 40
0.378324295
 40
0.6990983457
 40
0.9152663786
 40
1.0
 40
1.0
 40
1.0
 40
1.0
 10
31.0469759224
 20
31.0764712532
 30
0.0
 10
31.0216381749
 20
31.0764943014
 30
0.0
 10
30.9758768084
 20
31.0775921393
 30
0.0
 10
30.9109166361
 20
31.0809402025
 30
0.0
 10
30.8771658561
 20
31.0874896101
 30
0.0
 10
30.8487253654
 20
31.0916424085
 30
0.0
 10
30.8487210932
 20
31.0973173266
 30
0.0
  0
SPLINE
  5
4C1
100
AcDbEntity
  8
0
100
AcDbSpline
 62
7
  6
BYLAYER
 70
0
 71
3
 72
14
 73
10
 74
0
 42
0.0000001
 43
0.0000001
 44
0.0000000001
 40
0.0
 40
0.0
 40
0.0
 40
0.0
 40
0.1330073859
 40
0.2549347706
 40
0.3704400432
 40
0.4854888284
 40
0.6057268818
 40
0.732162612
 40
1.0
 40
1.0
 40
1.0
 40
1.0
 10
35.9004639439
 20
25.0064368536
 30
0.0
 10
35.9089906401
 20
25.0186404374
 30
0.0
 10
35.9244083155
 20
25.0427191423
 30
0.0
 10
35.9423594541
 20
25.0802465213
 30
0.0
 10
35.9534501139
 20
25.118329673
 30
0.0
 10
35.9571051113
 20
25.157666874
 30
0.0
 10
35.953220625
 20
25.1981865854
 30
0.0
 10
35.9385586532
 20
25.2540479711
 30
0.0
 10
35.9177718809
 20
25.2938871541
 30
0.0
 10
35.9004614096
 20
25.318362967
 30
0.0
  0
SPLINE
  5
4C2
100
AcDbEntity
  8
0
100
AcDbSpline
 62
7
  6
BYLAYER
 70
0
 71
3
 72
14
 73
10
 74
0
 42
0.0000001
 43
0.0000001
 44
0.0000000001
 40
0.0
 40
0.0
 40
0.0
 40
0.0
 40
0.0828085047
 40
0.1818572166
 40
0.4246227908
 40
0.5659324266
 40
0.713995615
 40
0.8613274164
 40
1.0
 40
1.0
 40
1.0
 40
1.0
 10
33.846971702
 20
25.8011512842
 30
0.0
 10
33.8417111011
 20
25.7996934954
 30
0.0
 10
33.8307835723
 20
25.7942550816
 30
0.0
 10
33.8093186314
 20
25.7760605716
 30
0.0
 10
33.7915426409
 20
25.7487226893
 30
0.0
 10
33.779140188
 20
25.7158769188
 30
0.0
 10
33.7720696698
 20
25.6879016498
 30
0.0
 10
33.7677820408
 20
25.6595752078
 30
0.0
 10
33.7667565117
 20
25.6407064145
 30
0.0
 10
33.7668135802
 20
25.631565102
 30
0.0
  0
SPLINE
  5
4C3
100
AcDbEntity
  8
0
100
AcDbSpline
 62
7
  6
BYLAYER
 70
0
 71
3
 72
13
 73
9
 74
0
 42
0.0000001
 43
0.0000001
 44
0.0000000001
 40
0.0
 40
0.0
 40
0.0
 40
0.0
 40
0.2412979302
 40
0.3707902835
 40
0.5024724656
 40
0.6337393489
 40
0.7621038224
 40
1.0
 40
1.0
 40
1.0
 40
1.0
 10
35.9004664097
 20
25.0064368748
 30
0.0
 10
35.9253080309
 20
25.0066503476
 30
0.0
 10
35.963920637
 20
25.0141462466
 30
0.0
 10
36.0099801688
 20
25.0382231859
 30
0.0
 10
36.0417517964
 20
25.0636647139
 30
0.0
 10
36.0673402964
 20
25.0951731808
 30
0.0
 10
36.0913886964
 20
25.1406779036
 30
0.0
 10
36.0987232555
 20
25.1788970758
 30
0.0
 10
36.098723677
 20
25.2033893909
 30
0.0
  0
SPLINE
  5
4C4
100
AcDbEntity
  8
0
100
AcDbSpline
 62
7
  6
BYLAYER
 70
0
 71
3
 72
13
 73
9
 74
0
 42
0.0000001
 43
0.0000001
 44
0.0000000001
 40
0.0
 40
0.0
 40
0.0
 40
0.0
 40
0.2412972626
 40
0.3707895464
 40
0.5024718063
 40
0.633738876
 40
0.762103577
 40
1.0
 40
1.0
 40
1.0
 40
1.0
 10
35.9004664465
 20
23.7555228348
 30
0.0
 10
35.925307976
 20
23.7557363344
 30
0.0
 10
35.9639204707
 20
23.7632323509
 30
0.0
 10
36.0099797395
 20
23.7873095546
 30
0.0
 10
36.0417511354
 20
23.8127513546
 30
0.0
 10
36.0673393019
 20
23.8442601165
 30
0.0
 10
36.0913871552
 20
23.8897651561
 30
0.0
 10
36.0987211859
 20
23.9279844556
 30
0.0
 10
36.0987212497
 20
23.9524767735
 30
0.0
  0
SPLINE
  5
4C5
100
AcDbEntity
  8
0
100
AcDbSpline
 62
7
  6
BYLAYER
 70
0
 71
3
 72
13
 73
9
 74
0
 42
0.0000001
 43
0.0000001
 44
0.0000000001
 40
0.0
 40
0.0
 40
0.0
 40
0.0
 40
0.0754742913
 40
0.2045742836
 40
0.3545894723
 40
0.522880342
 40
0.7360810101
 40
1.0
 40
1.0
 40
1.0
 40
1.0
 10
35.9004663974
 20
25.006435455
 30
0.0
 10
35.8433674198
 20
24.9519985048
 30
0.0
 10
35.6429787488
 20
24.8615593555
 30
0.0
 10
35.2951657486
 20
24.7416301148
 30
0.0
 10
34.8371432209
 20
24.6384206441
 30
0.0
 10
34.2901019375
 20
24.5435246548
 30
0.0
 10
33.6205993574
 20
24.4573332685
 30
0.0
 10
33.1237533777
 20
24.4136429661
 30
0.0
 10
32.8487210808
 20
24.3922376732
 30
0.0
  0
SPLINE
  5
4C6
100
AcDbEntity
  8
0
100
AcDbSpline
 62
7
  6
BYLAYER
 70
0
 71
3
 72
19
 73
15
 74
0
 42
0.0000001
 43
0.0000001
 44
0.0000000001
 40
0.0
 40
0.0
 40
0.0
 40
0.0
 40
0.1736973936
 40
0.3381188504
 40
0.4908319558
 40
0.6294470333
 40
0.6927437774
 40
0.7516468376
 40
0.805877134
 40
0.8551728809
 40
0.8993132888
 40
0.9381735961
 40
0.9717096475
 40
1.0
 40
1.0
 40
1.0
 40
1.0
 10
32.8487762284
 20
24.3172539765
 30
0.0
 10
33.0295465455
 20
24.3068609982
 30
0.0
 10
33.3812338663
 20
24.2828958987
 30
0.0
 10
33.8907872051
 20
24.2358721251
 30
0.0
 10
34.3625310919
 20
24.1790204365
 30
0.0
 10
34.7279428569
 20
24.1223201951
 30
0.0
 10
34.9950315546
 20
24.0713496275
 30
0.0
 10
35.1747451203
 20
24.0321338089
 30
0.0
 10
35.3390080602
 20
23.9909207002
 30
0.0
 10
35.486842695
 20
23.947856777
 30
0.0
 10
35.6173410894
 20
23.9030660307
 30
0.0
 10
35.7297691038
 20
23.8567719263
 30
0.0
 10
35.8234588564
 20
23.8092041515
 30
0.0
 10
35.8775992705
 20
23.7737871681
 30
0.0
 10
35.9007643666
 20
23.7555362934
 30
0.0
  0
SPLINE
  5
4C7
100
AcDbEntity
  8
0
100
AcDbSpline
 62
7
  6
BYLAYER
 70
0
 71
3
 72
41
 73
37
 74
0
 42
0.0000001
 43
0.0000001
 44
0.0000000001
 40
0.0
 40
0.0
 40
0.0
 40
0.0
 40
0.1035204887
 40
0.200811519
 40
0.290227968
 40
0.3314743437
 40
0.3701445647
 40
0.4060459282
 40
0.4389976776
 40
0.4688310116
 40
0.4953946919
 40
0.518578994
 40
0.5383697885
 40
0.5470185878
 40
0.5548627937
 40
0.5619414497
 40
0.5683152994
 40
0.5793241149
 40
0.5843150903
 40
0.5892185877
 40
0.5942538165
 40
0.5996230514
 40
0.6054934153
 40
0.6119928548
 40
0.6192134691
 40
0.6272125022
 40
0.6456615317
 40
0.6674814892
 40
0.692682269
 40
0.7212043098
 40
0.7529132247
 40
0.7876425054
 40
0.8252121763
 40
0.8654331081
 40
0.9081076506
 40
1.0
 40
1.0
 40
1.0
 40
1.0
 10
32.848717878
 20
24.2727339198
 30
0.0
 10
33.0349307785
 20
24.2870833436
 30
0.0
 10
33.3958594171
 20
24.3189676315
 30
0.0
 10
33.9161224031
 20
24.3786210752
 30
0.0
 10
34.3231486609
 20
24.4381508246
 30
0.0
 10
34.6239850907
 20
24.4914455223
 30
0.0
 10
34.8288713586
 20
24.5325691949
 30
0.0
 10
35.0180055427
 20
24.5758057436
 30
0.0
 10
35.1902679371
 20
24.6209507112
 30
0.0
 10
35.3445579187
 20
24.6677931977
 30
0.0
 10
35.4798385597
 20
24.716118696
 30
0.0
 10
35.5951481224
 20
24.7657828476
 30
0.0
 10
35.6774414564
 20
24.8098021327
 30
0.0
 10
35.732025033
 20
24.846029352
 30
0.0
 10
35.7656349856
 20
24.8721518582
 30
0.0
 10
35.7937392147
 20
24.8984825996
 30
0.0
 10
35.8223393872
 20
24.9321169109
 30
0.0
 10
35.8421300001
 20
24.9684095115
 30
0.0
 10
35.8491780401
 20
25.0057375007
 30
0.0
 10
35.8483160201
 20
25.032877078
 30
0.0
 10
35.8414878886
 20
25.05984131
 30
0.0
 10
35.8288231401
 20
25.0865081899
 30
0.0
 10
35.8104426224
 20
25.1128535564
 30
0.0
 10
35.7864126242
 20
25.1388910842
 30
0.0
 10
35.7567784284
 20
25.164624583
 30
0.0
 10
35.7075089793
 20
25.2002586108
 30
0.0
 10
35.6315195062
 20
25.2432797708
 30
0.0
 10
35.5235369703
 20
25.2914066294
 30
0.0
 10
35.3953581261
 20
25.3379915355
 30
0.0
 10
35.247814446
 20
25.3827568317
 30
0.0
 10
35.0818865908
 20
25.4255681646
 30
0.0
 10
34.8986749158
 20
25.46624887
 30
0.0
 10
34.69931096
 20
25.5046251962
 30
0.0
 10
34.4849428772
 20
25.5405304578
 30
0.0
 10
34.1728982087
 20
25.586118897
 30
0.0
 10
33.9317257212
 20
25.6145009722
 30
0.0
 10
33.7668199597
 20
25.6315644419
 30
0.0
  0
SPLINE
  5
4C8
100
AcDbEntity
  8
0
100
AcDbSpline
 62
7
  6
BYLAYER
 70
0
 71
3
 72
10
 73
6
 74
0
 42
0.0000001
 43
0.0000001
 44
0.0000000001
 40
0.0
 40
0.0
 40
0.0
 40
0.0
 40
0.348673254
 40
0.6751261654
 40
1.0
 40
1.0
 40
1.0
 40
1.0
 10
33.766815943
 20
25.6315640811
 30
0.0
 10
33.7583581339
 20
25.6319871104
 30
0.0
 10
33.7411212022
 20
25.6297707462
 30
0.0
 10
33.7226084987
 20
25.6117003045
 30
0.0
 10
33.7187899523
 20
25.5955542763
 30
0.0
 10
33.7186865062
 20
25.5876645998
 30
0.0
  0
SPLINE
  5
4C9
100
AcDbEntity
  8
0
100
AcDbSpline
 62
7
  6
BYLAYER
 70
0
 71
3
 72
11
 73
7
 74
0
 42
0.0000001
 43
0.0000001
 44
0.0000000001
 40
0.0
 40
0.0
 40
0.0
 40
0.0
 40
0.243425388
 40
0.4836523958
 40
0.7342300673
 40
1.0
 40
1.0
 40
1.0
 40
1.0
 10
33.7186865062
 20
22.5313378506
 30
0.0
 10
33.7183597679
 20
22.4896031547
 30
0.0
 10
33.7036438883
 20
22.4056069613
 30
0.0
 10
33.6320330212
 20
22.297732293
 30
0.0
 10
33.5181201665
 20
22.2267921285
 30
0.0
 10
33.4271512644
 20
22.2179830008
 30
0.0
 10
33.3816552752
 20
22.220526112
 30
0.0
  0
SPLINE
  5
4CA
100
AcDbEntity
  8
0
100
AcDbSpline
 62
7
  6
BYLAYER
 70
0
 71
3
 72
11
 73
7
 74
0
 42
0.0000001
 43
0.0000001
 44
0.0000000001
 40
0.0
 40
0.0
 40
0.0
 40
0.0
 40
0.2372330865
 40
0.4852081912
 40
0.740583109
 40
1.0
 40
1.0
 40
1.0
 40
1.0
 10
33.38165219
 20
22.2205250953
 30
0.0
 10
33.1971765015
 20
22.23583046
 30
0.0
 10
32.8194425815
 20
22.262089954
 30
0.0
 10
32.2421687129
 20
22.2891396959
 30
0.0
 10
31.6471599158
 20
22.3047789128
 30
0.0
 10
31.2454555812
 20
22.3075210102
 30
0.0
 10
31.043037123
 20
22.3069665402
 30
0.0
  0
SPLINE
  5
4CB
100
AcDbEntity
  8
0
100
AcDbSpline
 62
7
  6
BYLAYER
 70
0
 71
3
 72
10
 73
6
 74
0
 42
0.0000001
 43
0.0000001
 44
0.0000000001
 40
0.0
 40
0.0
 40
0.0
 40
0.0
 40
0.3283182523
 40
0.6580933576
 40
1.0
 40
1.0
 40
1.0
 40
1.0
 10
31.0430374705
 20
22.3069673661
 30
0.0
 10
31.0347848141
 20
22.3066783764
 30
0.0
 10
31.0179791729
 20
22.3024805211
 30
0.0
 10
30.9992489631
 20
22.2837765897
 30
0.0
 10
30.9951747364
 20
22.2665760163
 30
0.0
 10
30.9947772565
 20
22.2579857233
 30
0.0
  0
SPLINE
  5
4CC
100
AcDbEntity
  8
0
100
AcDbSpline
 62
7
  6
BYLAYER
 70
0
 71
3
 72
15
 73
11
 74
0
 42
0.0000001
 43
0.0000001
 44
0.0000000001
 40
0.0
 40
0.0
 40
0.0
 40
0.0
 40
0.1424935403
 40
0.2937103
 40
0.445100559
 40
0.5884728581
 40
0.7174438649
 40
0.8297366055
 40
0.9240250102
 40
1.0
 40
1.0
 40
1.0
 40
1.0
 10
33.38165219
 20
22.2205250953
 30
0.0
 10
33.3815889028
 20
22.2296697993
 30
0.0
 10
33.3824418827
 20
22.2485311268
 30
0.0
 10
33.3860842757
 20
22.2768933
 30
0.0
 10
33.3921114242
 20
22.3049103948
 30
0.0
 10
33.4004452213
 20
22.3308657627
 30
0.0
 10
33.4111900151
 20
22.3531857385
 30
0.0
 10
33.4234436795
 20
22.3710232772
 30
0.0
 10
33.4362852553
 20
22.3839565077
 30
0.0
 10
33.4458457636
 20
22.3897110023
 30
0.0
 10
33.4504664785
 20
22.3912677537
 30
0.0
  0
SPLINE
  5
4CD
100
AcDbEntity
  8
0
100
AcDbSpline
 62
7
  6
BYLAYER
 70
0
 71
3
 72
14
 73
10
 74
0
 42
0.0000001
 43
0.0000001
 44
0.0000000001
 40
0.0
 40
0.0
 40
0.0
 40
0.0
 40
0.043823118
 40
0.1195498381
 40
0.2243753169
 40
0.3554436531
 40
0.5085656557
 40
0.6742491212
 40
1.0
 40
1.0
 40
1.0
 40
1.0
 10
31.0469751609
 20
22.4807143218
 30
0.0
 10
31.0464740648
 20
22.4782244029
 30
0.0
 10
31.0458546278
 20
22.4713036399
 30
0.0
 10
31.0449661913
 20
22.4583412158
 30
0.0
 10
31.0442133023
 20
22.44028943
 30
0.0
 10
31.0435687307
 20
22.4177543635
 30
0.0
 10
31.0431467984
 20
22.3916832833
 30
0.0
 10
31.0428378813
 20
22.3543284235
 30
0.0
 10
31.0428695968
 20
22.3258452297
 30
0.0
 10
31.0430366764
 20
22.306966539
 30
0.0
  0
SPLINE
  5
4CE
100
AcDbEntity
  8
0
100
AcDbSpline
 62
7
  6
BYLAYER
 70
0
 71
3
 72
11
 73
7
 74
0
 42
0.0000001
 43
0.0000001
 44
0.0000000001
 40
0.0
 40
0.0
 40
0.0
 40
0.0
 40
0.2592349005
 40
0.5145192348
 40
0.7625399914
 40
1.0
 40
1.0
 40
1.0
 40
1.0
 10
31.0469649788
 20
22.4806636517
 30
0.0
 10
31.2548666031
 20
22.4811935387
 30
0.0
 10
31.6675226997
 20
22.4783002797
 30
0.0
 10
32.278893007
 20
22.4621142693
 30
0.0
 10
32.8723603311
 20
22.4341837956
 30
0.0
 10
33.2608108247
 20
22.407095035
 30
0.0
 10
33.4505947455
 20
22.3913107198
 30
0.0
  0
SPLINE
  5
4CF
100
AcDbEntity
  8
0
100
AcDbSpline
 62
7
  6
BYLAYER
 70
0
 71
3
 72
41
 73
37
 74
0
 42
0.0000001
 43
0.0000001
 44
0.0000000001
 40
0.0
 40
0.0
 40
0.0
 40
0.0
 40
0.0921245287
 40
0.1349261162
 40
0.1752809569
 40
0.2129909306
 40
0.2478660685
 40
0.2797253486
 40
0.3084009842
 40
0.3337568662
 40
0.3557308665
 40
0.3743288173
 40
0.3823981799
 40
0.3896846542
 40
0.3962434817
 40
0.40216413
 40
0.4075713044
 40
0.4126287361
 40
0.4175362445
 40
0.4225127121
 40
0.4334454318
 40
0.4397654094
 40
0.44678346
 40
0.4545625308
 40
0.4631432402
 40
0.4827930389
 40
0.5058346901
 40
0.5322574787
 40
0.5619538855
 40
0.5947742335
 40
0.6305509414
 40
0.6691041459
 40
0.7102413847
 40
0.7994632401
 40
0.8965936339
 40
1.0
 40
1.0
 40
1.0
 40
1.0
 10
33.7668177117
 20
22.7996659226
 30
0.0
 10
33.9317719981
 20
22.8196543662
 30
0.0
 10
34.1729906018
 20
22.8523164441
 30
0.0
 10
34.4849940711
 20
22.9034310622
 30
0.0
 10
34.6993672655
 20
22.9431409573
 30
0.0
 10
34.898735753
 20
22.9850585066
 30
0.0
 10
35.0819518439
 20
23.0289963603
 30
0.0
 10
35.2478837046
 20
23.0747603285
 30
0.0
 10
35.3954303237
 20
23.1221539039
 30
0.0
 10
35.5236084445
 20
23.171024207
 30
0.0
 10
35.6315860926
 20
23.22107801
 30
0.0
 10
35.7075459441
 20
23.2654434791
 30
0.0
 10
35.7567959593
 20
23.3019444909
 30
0.0
 10
35.7864232629
 20
23.3282024166
 30
0.0
 10
35.8104449211
 20
23.3546608533
 30
0.0
 10
35.8288174435
 20
23.381321616
 30
0.0
 10
35.8414781769
 20
23.4081981387
 30
0.0
 10
35.8483102998
 20
23.4352703024
 30
0.0
 10
35.8491811934
 20
23.4624230892
 30
0.0
 10
35.8421542056
 20
23.4995883685
 30
0.0
 10
35.8223570318
 20
23.5355908329
 30
0.0
 10
35.7937310445
 20
23.5687387869
 30
0.0
 10
35.7656201071
 20
23.5945735978
 30
0.0
 10
35.7320046901
 20
23.6200987143
 30
0.0
 10
35.6774013769
 20
23.6553632831
 30
0.0
 10
35.5950806983
 20
23.6979239643
 30
0.0
 10
35.4797690548
 20
23.7455308398
 30
0.0
 10
35.3444906009
 20
23.7914449237
 30
0.0
 10
35.190204535
 20
23.8355401256
 30
0.0
 10
35.0179459175
 20
23.8776209218
 30
0.0
 10
34.828814719
 20
23.9174963259
 30
0.0
 10
34.6239312182
 20
23.9549820401
 30
0.0
 10
34.323049651
 20
24.0029471029
 30
0.0
 10
33.9159878603
 20
24.0552658656
 30
0.0
 10
33.3957412517
 20
24.1057077666
 30
0.0
 10
33.0348982098
 20
24.1312014067
 30
0.0
 10
32.8487167227
 20
24.1422576201
 30
0.0
  0
SPLINE
  5
4D0
100
AcDbEntity
  8
0
100
AcDbSpline
 62
7
  6
BYLAYER
 70
0
 71
3
 72
10
 73
6
 74
0
 42
0.0000001
 43
0.0000001
 44
0.0000000001
 40
0.0
 40
0.0
 40
0.0
 40
0.0
 40
0.3372309958
 40
0.6690440833
 40
1.0
 40
1.0
 40
1.0
 40
1.0
 10
30.9947772565
 20
19.1329854475
 30
0.0
 10
30.9951040791
 20
19.1414903065
 30
0.0
 10
30.9992163012
 20
19.1586550218
 30
0.0
 10
31.0177644044
 20
19.1776176583
 30
0.0
 10
31.0346949521
 20
19.1820672492
 30
0.0
 10
31.0430374707
 20
19.1824808302
 30
0.0
  0
SPLINE
  5
4D1
100
AcDbEntity
  8
0
100
AcDbSpline
 62
7
  6
BYLAYER
 70
0
 71
3
 72
10
 73
6
 74
0
 42
0.0000001
 43
0.0000001
 44
0.0000000001
 40
0.0
 40
0.0
 40
0.0
 40
0.0
 40
0.3492898098
 40
0.6862014619
 40
1.0
 40
1.0
 40
1.0
 40
1.0
 10
31.0430374707
 20
19.1824808302
 30
0.0
 10
31.3157691934
 20
19.1865666257
 30
0.0
 10
31.8514970723
 20
19.2013391245
 30
0.0
 10
32.6313433396
 20
19.2436073678
 30
0.0
 10
33.1378424841
 20
19.2856713981
 30
0.0
 10
33.381655275
 20
19.3102346608
 30
0.0
  0
SPLINE
  5
4D2
100
AcDbEntity
  8
0
100
AcDbSpline
 62
7
  6
BYLAYER
 70
0
 71
3
 72
11
 73
7
 74
0
 42
0.0000001
 43
0.0000001
 44
0.0000000001
 40
0.0
 40
0.0
 40
0.0
 40
0.0
 40
0.2522827753
 40
0.5123336313
 40
0.7636122593
 40
1.0
 40
1.0
 40
1.0
 40
1.0
 10
33.381655275
 20
19.3102346608
 30
0.0
 10
33.4276236007
 20
19.3155443616
 30
0.0
 10
33.5200490459
 20
19.34388039
 30
0.0
 10
33.6306561823
 20
19.43502445
 30
0.0
 10
33.7018189715
 20
19.5553042151
 30
0.0
 10
33.7186090428
 20
19.6454036875
 30
0.0
 10
33.7186865062
 20
19.6887621004
 30
0.0
  0
SPLINE
  5
4D3
100
AcDbEntity
  8
0
100
AcDbSpline
 62
7
  6
BYLAYER
 70
0
 71
3
 72
10
 73
6
 74
0
 42
0.0000001
 43
0.0000001
 44
0.0000000001
 40
0.0
 40
0.0
 40
0.0
 40
0.0
 40
0.3264767644
 40
0.6597717423
 40
1.0
 40
1.0
 40
1.0
 40
1.0
 10
33.7186865062
 20
22.7450888496
 30
0.0
 10
33.7189578856
 20
22.7536224262
 30
0.0
 10
33.723192824
 20
22.7710159287
 30
0.0
 10
33.7408780443
 20
22.7917079898
 30
0.0
 10
33.7580524348
 20
22.7981279903
 30
0.0
 10
33.766815943
 20
22.7996663937
 30
0.0
  0
SPLINE
  5
4D4
100
AcDbEntity
  8
0
100
AcDbSpline
 62
7
  6
BYLAYER
 70
0
 71
3
 72
10
 73
6
 74
0
 42
0.0000001
 43
0.0000001
 44
0.0000000001
 40
0.0
 40
0.0
 40
0.0
 40
0.0
 40
0.2725969724
 40
0.5989099116
 40
1.0
 40
1.0
 40
1.0
 40
1.0
 10
36.098731912
 20
69.3629377753
 30
0.0
 10
36.098726749
 20
69.3728057394
 30
0.0
 10
36.0912683841
 20
69.3946239638
 30
0.0
 10
36.0638995471
 20
69.4196422378
 30
0.0
 10
36.0397146681
 20
69.4308564799
 30
0.0
 10
36.0259644813
 20
69.4355196543
 30
0.0
  0
SPLINE
  5
4D5
100
AcDbEntity
  8
0
100
AcDbSpline
 62
7
  6
BYLAYER
 70
0
 71
3
 72
10
 73
6
 74
0
 42
0.0000001
 43
0.0000001
 44
0.0000000001
 40
0.0
 40
0.0
 40
0.0
 40
0.0
 40
0.4302142956
 40
0.762024898
 40
1.0
 40
1.0
 40
1.0
 40
1.0
 10
36.000853642
 20
60.1325477941
 30
0.0
 10
36.018366672
 20
60.129603172
 30
0.0
 10
36.0489594739
 20
60.1213322502
 30
0.0
 10
36.0858387626
 20
60.1013150862
 30
0.0
 10
36.098700746
 20
60.0785759717
 30
0.0
 10
36.0987034183
 20
60.0687525748
 30
0.0
  0
SPLINE
  5
4D6
100
AcDbEntity
  8
0
100
AcDbSpline
 62
7
  6
BYLAYER
 70
0
 71
3
 72
10
 73
6
 74
0
 42
0.0000001
 43
0.0000001
 44
0.0000000001
 40
0.0
 40
0.0
 40
0.0
 40
0.0
 40
0.3425349358
 40
0.6760577809
 40
1.0
 40
1.0
 40
1.0
 40
1.0
 10
36.000853642
 20
60.1325477941
 30
0.0
 10
36.0036548557
 20
61.1947455934
 30
0.0
 10
36.0092341191
 20
63.2911946457
 30
0.0
 10
36.0176128605
 20
66.3921852452
 30
0.0
 10
36.023198723
 20
68.4309780189
 30
0.0
 10
36.0259644813
 20
69.4355196543
 30
0.0
  0
SPLINE
  5
4D7
100
AcDbEntity
  8
0
100
AcDbSpline
 62
7
  6
BYLAYER
 70
0
 71
3
 72
11
 73
7
 74
0
 42
0.0000001
 43
0.0000001
 44
0.0000000001
 40
0.0
 40
0.0
 40
0.0
 40
0.0
 40
0.2220457983
 40
0.4762300053
 40
0.7191158044
 40
1.0
 40
1.0
 40
1.0
 40
1.0
 10
31.6467722853
 20
69.4784277646
 30
0.0
 10
31.7411044527
 20
68.8655481577
 30
0.0
 10
31.9299404065
 20
67.5489788583
 30
0.0
 10
32.1804886191
 20
65.5563881863
 30
0.0
 10
32.4423355165
 20
63.3996770503
 30
0.0
 10
32.6200023824
 20
61.9477976981
 30
0.0
 10
32.7150163688
 20
61.1691614354
 30
0.0
  0
SPLINE
  5
4D8
100
AcDbEntity
  8
0
100
AcDbSpline
 62
7
  6
BYLAYER
 70
0
 71
3
 72
23
 73
19
 74
0
 42
0.0000001
 43
0.0000001
 44
0.0000000001
 40
0.0
 40
0.0
 40
0.0
 40
0.0
 40
0.0137790818
 40
0.0210727882
 40
0.0285481836
 40
0.0436758954
 40
0.0590627082
 40
0.0903303564
 40
0.121909504
 40
0.1854448408
 40
0.2491576451
 40
0.3128766266
 40
0.3765191075
 40
0.5033760631
 40
0.6294274383
 40
0.7544111659
 40
0.8780477424
 40
1.0
 40
1.0
 40
1.0
 40
1.0
 10
32.715121375
 20
61.1691660559
 30
0.0
 10
32.7168163475
 20
61.1540643647
 30
0.0
 10
32.7253107664
 20
61.1315925069
 30
0.0
 10
32.7425995674
 20
61.1053014384
 30
0.0
 10
32.7636429298
 20
61.0798236729
 30
0.0
 10
32.7942792221
 20
61.051030477
 30
0.0
 10
32.8489142053
 20
61.0102008339
 30
0.0
 10
32.9226388573
 20
60.9650828546
 30
0.0
 10
33.0466259802
 20
60.9012828888
 30
0.0
 10
33.2074005333
 20
60.8313881399
 30
0.0
 10
33.4041333395
 20
60.7561303137
 30
0.0
 10
33.6031110249
 20
60.6866608675
 30
0.0
 10
33.8697703553
 20
60.6000141484
 30
0.0
 10
34.2045818954
 20
60.5008806926
 30
0.0
 10
34.6075044883
 20
60.394158242
 30
0.0
 10
35.0099285694
 20
60.3000533641
 30
0.0
 10
35.4107758836
 20
60.2199773315
 30
0.0
 10
35.6783523145
 20
60.177296646
 30
0.0
 10
35.8116579107
 20
60.159432229
 30
0.0
  0
SPLINE
  5
4D9
100
AcDbEntity
  8
0
100
AcDbSpline
 62
7
  6
BYLAYER
 70
0
 71
3
 72
10
 73
6
 74
0
 42
0.0000001
 43
0.0000001
 44
0.0000000001
 40
0.0
 40
0.0
 40
0.0
 40
0.0
 40
0.5076411443
 40
0.8296351544
 40
1.0
 40
1.0
 40
1.0
 40
1.0
 10
36.0259917674
 20
69.435545794
 30
0.0
 10
36.0228491669
 20
69.4818026962
 30
0.0
 10
36.0104495867
 20
69.5598134723
 30
0.0
 10
35.9924238567
 20
69.6410455049
 30
0.0
 10
35.9655891248
 20
69.6918560401
 30
0.0
 10
35.9500300729
 20
69.691991822
 30
0.0
  0
SPLINE
  5
4DA
100
AcDbEntity
  8
0
100
AcDbSpline
 62
7
  6
BYLAYER
 70
0
 71
3
 72
10
 73
6
 74
0
 42
0.0000001
 43
0.0000001
 44
0.0000000001
 40
0.0
 40
0.0
 40
0.0
 40
0.0
 40
0.1144557068
 40
0.4519667779
 40
1.0
 40
1.0
 40
1.0
 40
1.0
 10
31.0469758002
 20
69.7347801284
 30
0.0
 10
31.0465572277
 20
69.7316253022
 30
0.0
 10
31.0453180902
 20
69.719138872
 30
0.0
 10
31.0452107991
 20
69.6913339548
 30
0.0
 10
31.0446701709
 20
69.6667674314
 30
0.0
 10
31.0444960398
 20
69.6515523463
 30
0.0
  0
SPLINE
  5
4DB
100
AcDbEntity
  8
0
100
AcDbSpline
 62
7
  6
BYLAYER
 70
0
 71
3
 72
16
 73
12
 74
0
 42
0.0000001
 43
0.0000001
 44
0.0000000001
 40
0.0
 40
0.0
 40
0.0
 40
0.0
 40
0.190223993
 40
0.3442092746
 40
0.4700553188
 40
0.5748020721
 40
0.6638585597
 40
0.7448346516
 40
0.8364820761
 40
0.9194188628
 40
1.0
 40
1.0
 40
1.0
 40
1.0
 10
31.0444960398
 20
69.6515523463
 30
0.0
 10
31.0857669695
 20
69.649570866
 30
0.0
 10
31.1604306473
 20
69.6453375296
 30
0.0
 10
31.2620552848
 20
69.6351930501
 30
0.0
 10
31.3448129966
 20
69.6236707264
 30
0.0
 10
31.4130808291
 20
69.6108101127
 30
0.0
 10
31.4711146322
 20
69.5968876264
 30
0.0
 10
31.5255531471
 20
69.5799589275
 30
0.0
 10
31.5760504831
 20
69.5574728793
 30
0.0
 10
31.6251422055
 20
69.5288165315
 30
0.0
 10
31.6421295813
 20
69.4952999367
 30
0.0
 10
31.6467714331
 20
69.4784236818
 30
0.0
  0
SPLINE
  5
4DC
100
AcDbEntity
  8
0
100
AcDbSpline
 62
7
  6
BYLAYER
 70
0
 71
3
 72
19
 73
15
 74
0
 42
0.0000001
 43
0.0000001
 44
0.0000000001
 40
0.0
 40
0.0
 40
0.0
 40
0.0
 40
0.0480571662
 40
0.1033178271
 40
0.166790088
 40
0.2399954096
 40
0.2986685143
 40
0.3652069937
 40
0.440671471
 40
0.526298207
 40
0.6235025675
 40
0.7338452364
 40
0.8588723362
 40
1.0
 40
1.0
 40
1.0
 40
1.0
 10
31.6277643779
 20
69.4766996216
 30
0.0
 10
31.6241872941
 20
69.4856706193
 30
0.0
 10
31.611263181
 20
69.5033695363
 30
0.0
 10
31.5800483329
 20
69.5172820786
 30
0.0
 10
31.5437160209
 20
69.5297862874
 30
0.0
 10
31.5055195849
 20
69.5392777939
 30
0.0
 10
31.4664157934
 20
69.5470353461
 30
0.0
 10
31.4266037662
 20
69.5535423374
 30
0.0
 10
31.3812748689
 20
69.5597267119
 30
0.0
 10
31.3296820758
 20
69.5654904962
 30
0.0
 10
31.2710003696
 20
69.5708020358
 30
0.0
 10
31.2043311776
 20
69.5755732042
 30
0.0
 10
31.1287764673
 20
69.5796911053
 30
0.0
 10
31.075323409
 20
69.5816921862
 30
0.0
 10
31.0469757855
 20
69.5825914325
 30
0.0
  0
SPLINE
  5
4DD
100
AcDbEntity
  8
0
100
AcDbSpline
 62
7
  6
BYLAYER
 70
0
 71
3
 72
11
 73
7
 74
0
 42
0.0000001
 43
0.0000001
 44
0.0000000001
 40
0.0
 40
0.0
 40
0.0
 40
0.0
 40
0.2541931896
 40
0.5056496849
 40
0.7542673655
 40
1.0
 40
1.0
 40
1.0
 40
1.0
 10
32.6860437292
 20
61.1671363211
 30
0.0
 10
32.5992095688
 20
61.8715911228
 30
0.0
 10
32.4296598091
 20
63.2733043592
 30
0.0
 10
32.1774701659
 20
65.3643118647
 30
0.0
 10
31.9198148805
 20
67.4308051765
 30
0.0
 10
31.7331535058
 20
68.7986776047
 30
0.0
 10
31.6278020459
 20
69.4767035836
 30
0.0
  0
SPLINE
  5
4DE
100
AcDbEntity
  8
0
100
AcDbSpline
 62
7
  6
BYLAYER
 70
0
 71
3
 72
11
 73
7
 74
0
 42
0.0000001
 43
0.0000001
 44
0.0000000001
 40
0.0
 40
0.0
 40
0.0
 40
0.0
 40
0.2636322415
 40
0.5265170221
 40
0.7762124817
 40
1.0
 40
1.0
 40
1.0
 40
1.0
 10
31.0469757855
 20
69.5825914325
 30
0.0
 10
31.0224500005
 20
69.5836202607
 30
0.0
 10
30.9733194429
 20
69.592987499
 30
0.0
 10
30.9096313234
 20
69.6297022668
 30
0.0
 10
30.8628199401
 20
69.6815268513
 30
0.0
 10
30.8487210926
 20
69.7257194844
 30
0.0
 10
30.8487210926
 20
69.7465568128
 30
0.0
  0
SPLINE
  5
4DF
100
AcDbEntity
  8
0
100
AcDbSpline
 62
7
  6
BYLAYER
 70
0
 71
3
 72
11
 73
7
 74
0
 42
0.0000001
 43
0.0000001
 44
0.0000000001
 40
0.0
 40
0.0
 40
0.0
 40
0.0
 40
0.3351941338
 40
0.6281786443
 40
0.8491413891
 40
1.0
 40
1.0
 40
1.0
 40
1.0
 10
31.0469758908
 20
61.1729328941
 30
0.0
 10
31.021554167
 20
61.1730227858
 30
0.0
 10
30.9737761444
 20
61.1766299151
 30
0.0
 10
30.9111434161
 20
61.1930475578
 30
0.0
 10
30.8655024278
 20
61.2157610296
 30
0.0
 10
30.8487227992
 20
61.2425259196
 30
0.0
 10
30.848721093
 20
61.2539673784
 30
0.0
  0
SPLINE
  5
4E0
100
AcDbEntity
  8
0
100
AcDbSpline
 62
7
  6
BYLAYER
 70
0
 71
3
 72
11
 73
7
 74
0
 42
0.0000001
 43
0.0000001
 44
0.0000000001
 40
0.0
 40
0.0
 40
0.0
 40
0.0
 40
0.2419406947
 40
0.4886493501
 40
0.7419989381
 40
1.0
 40
1.0
 40
1.0
 40
1.0
 10
30.8487210927
 20
57.0793325362
 30
0.0
 10
30.8487203734
 20
57.0551385248
 30
0.0
 10
30.8592775714
 20
57.0056972379
 30
0.0
 10
30.903826896
 20
56.9439390742
 30
0.0
 10
30.9696183829
 20
56.902832441
 30
0.0
 10
31.0211765306
 20
56.8930355245
 30
0.0
 10
31.0469757205
 20
56.8928255579
 30
0.0
  0
SPLINE
  5
4E1
100
AcDbEntity
  8
0
100
AcDbSpline
 62
7
  6
BYLAYER
 70
0
 71
3
 72
11
 73
7
 74
0
 42
0.0000001
 43
0.0000001
 44
0.0000000001
 40
0.0
 40
0.0
 40
0.0
 40
0.0
 40
0.2600176082
 40
0.5142350362
 40
0.7601266724
 40
1.0
 40
1.0
 40
1.0
 40
1.0
 10
31.0469757205
 20
59.8538868965
 30
0.0
 10
31.021192624
 20
59.8536807567
 30
0.0
 10
30.9697884838
 20
59.8441075428
 30
0.0
 10
30.9040259919
 20
59.8038511953
 30
0.0
 10
30.8593515641
 20
59.7431994489
 30
0.0
 10
30.8487203729
 20
59.6944512121
 30
0.0
 10
30.8487210927
 20
59.670664843
 30
0.0
  0
SPLINE
  5
4E2
100
AcDbEntity
  8
0
100
AcDbSpline
 62
7
  6
BYLAYER
 70
0
 71
3
 72
13
 73
9
 74
0
 42
0.0000001
 43
0.0000001
 44
0.0000000001
 40
0.0
 40
0.0
 40
0.0
 40
0.0
 40
0.1253538211
 40
0.27295418
 40
0.4109209769
 40
0.5762006719
 40
0.7726535765
 40
1.0
 40
1.0
 40
1.0
 40
1.0
 10
32.6860474114
 20
61.1671367468
 30
0.0
 10
32.689065578
 20
61.1417000332
 30
0.0
 10
32.7078894938
 20
61.0874946026
 30
0.0
 10
32.7607698615
 20
61.0211639899
 30
0.0
 10
32.8287633698
 20
60.9588422696
 30
0.0
 10
32.9106754588
 20
60.8976144983
 30
0.0
 10
33.0122831559
 20
60.8329470417
 30
0.0
 10
33.0877545095
 20
60.7903963242
 30
0.0
 10
33.1286852849
 20
60.7684216337
 30
0.0
  0
SPLINE
  5
4E3
100
AcDbEntity
  8
0
100
AcDbSpline
 62
7
  6
BYLAYER
 70
0
 71
3
 72
13
 73
9
 74
0
 42
0.0000001
 43
0.0000001
 44
0.0000000001
 40
0.0
 40
0.0
 40
0.0
 40
0.0
 40
0.1303026824
 40
0.2736797983
 40
0.435065769
 40
0.61723075
 40
0.810521141
 40
1.0
 40
1.0
 40
1.0
 40
1.0
 10
33.1286852849
 20
60.7684216337
 30
0.0
 10
33.2346022006
 20
60.7114887043
 30
0.0
 10
33.462751444
 20
60.602554201
 30
0.0
 10
33.8333513503
 20
60.4479192081
 30
0.0
 10
34.2546519208
 20
60.291282886
 30
0.0
 10
34.7254731422
 20
60.1366555136
 30
0.0
 10
35.2278602552
 20
59.9966110834
 30
0.0
 10
35.5733880117
 20
59.9216102275
 30
0.0
 10
35.7456265763
 20
59.8914519341
 30
0.0
  0
SPLINE
  5
4E4
100
AcDbEntity
  8
0
100
AcDbSpline
 62
7
  6
BYLAYER
 70
0
 71
3
 72
14
 73
10
 74
0
 42
0.0000001
 43
0.0000001
 44
0.0000000001
 40
0.0
 40
0.0
 40
0.0
 40
0.0
 40
0.0768471088
 40
0.176716716
 40
0.2991031237
 40
0.4383517847
 40
0.5869828674
 40
0.7356529271
 40
1.0
 40
1.0
 40
1.0
 40
1.0
 10
35.7456256921
 20
59.8914460932
 30
0.0
 10
35.7504141745
 20
59.8967994705
 30
0.0
 10
35.7599147816
 20
59.9104424891
 30
0.0
 10
35.7725417726
 20
59.9354414884
 30
0.0
 10
35.7844404738
 20
59.9671244085
 30
0.0
 10
35.7949833029
 20
60.0040279839
 30
0.0
 10
35.8032068318
 20
60.0440317657
 30
0.0
 10
35.8104904726
 20
60.096033999
 30
0.0
 10
35.812352638
 20
60.1347425767
 30
0.0
 10
35.8116576942
 20
60.1594399261
 30
0.0
  0
SPLINE
  5
4E5
100
AcDbEntity
  8
0
100
AcDbSpline
 62
7
  6
BYLAYER
 70
0
 71
3
 72
28
 73
24
 74
0
 42
0.0000001
 43
0.0000001
 44
0.0000000001
 40
0.0
 40
0.0
 40
0.0
 40
0.0
 40
0.1065298838
 40
0.2025816245
 40
0.289514495
 40
0.368435139
 40
0.4402229626
 40
0.5056172655
 40
0.5651923159
 40
0.6195499204
 40
0.6691768476
 40
0.7144578105
 40
0.7557198299
 40
0.7932537694
 40
0.8272982009
 40
0.85809159
 40
0.8858642561
 40
0.9108011755
 40
0.9330714644
 40
0.9528416899
 40
0.9702716348
 40
0.9858634692
 40
1.0
 40
1.0
 40
1.0
 40
1.0
 10
35.9501588365
 20
56.9016814854
 30
0.0
 10
35.8502664636
 20
56.9096662811
 30
0.0
 10
35.6599023489
 20
56.9201916268
 30
0.0
 10
35.3874989375
 20
56.9229255334
 30
0.0
 10
35.1411793131
 20
56.9155370584
 30
0.0
 10
34.9180797299
 20
56.900735538
 30
0.0
 10
34.7157706498
 20
56.8804834623
 30
0.0
 10
34.5322519966
 20
56.8562166338
 30
0.0
 10
34.3657489128
 20
56.8289800494
 30
0.0
 10
34.2147121642
 20
56.7995256475
 30
0.0
 10
34.077775646
 20
56.7683739199
 30
0.0
 10
33.9538442311
 20
56.7358924402
 30
0.0
 10
33.8420300903
 20
56.7023265113
 30
0.0
 10
33.7416122804
 20
56.6678272501
 30
0.0
 10
33.6520127502
 20
56.6324364473
 30
0.0
 10
33.5727526128
 20
56.5961498748
 30
0.0
 10
33.5036171468
 20
56.5587367848
 30
0.0
 10
33.4443494126
 20
56.5202778606
 30
0.0
 10
33.3957523785
 20
56.4799407681
 30
0.0
 10
33.3576046189
 20
56.4387087189
 30
0.0
 10
33.3318743237
 20
56.3955813195
 30
0.0
 10
33.3201283993
 20
56.3523645077
 30
0.0
 10
33.318973185
 20
56.3240766486
 30
0.0
 10
33.3204652068
 20
56.3108626021
 30
0.0
  0
SPLINE
  5
4E6
100
AcDbEntity
  8
0
100
AcDbSpline
 62
7
  6
BYLAYER
 70
0
 71
3
 72
10
 73
6
 74
0
 42
0.0000001
 43
0.0000001
 44
0.0000000001
 40
0.0
 40
0.0
 40
0.0
 40
0.0
 40
0.5255714799
 40
0.8612826167
 40
1.0
 40
1.0
 40
1.0
 40
1.0
 10
35.9924290099
 20
56.7849971716
 30
0.0
 10
35.9931068026
 20
56.8087283812
 30
0.0
 10
35.9883598814
 20
56.8472738324
 30
0.0
 10
35.9818638966
 20
56.8927809634
 30
0.0
 10
35.9546550174
 20
56.9060464414
 30
0.0
 10
35.9501588412
 20
56.9016820197
 30
0.0
  0
SPLINE
  5
4E7
100
AcDbEntity
  8
0
100
AcDbSpline
 62
7
  6
BYLAYER
 70
0
 71
3
 72
17
 73
13
 74
0
 42
0.0000001
 43
0.0000001
 44
0.0000000001
 40
0.0
 40
0.0
 40
0.0
 40
0.0
 40
0.0659659817
 40
0.1379178084
 40
0.2225521456
 40
0.2990143335
 40
0.378629085
 40
0.4703984124
 40
0.5761475591
 40
0.6980349005
 40
0.8384849578
 40
1.0
 40
1.0
 40
1.0
 40
1.0
 10
34.7625064954
 20
48.0389855951
 30
0.0
 10
34.7705578282
 20
48.0105020687
 30
0.0
 10
34.7980594373
 20
47.9532535853
 30
0.0
 10
34.8707826571
 20
47.8832350417
 30
0.0
 10
34.9559122767
 20
47.822359195
 30
0.0
 10
35.0495463866
 20
47.7682561981
 30
0.0
 10
35.1489375579
 20
47.7182934432
 30
0.0
 10
35.2625325432
 20
47.6676003747
 30
0.0
 10
35.3955458422
 20
47.6141601336
 30
0.0
 10
35.5507227449
 20
47.5575259633
 30
0.0
 10
35.7311239855
 20
47.4972424588
 30
0.0
 10
35.8606584192
 20
47.4574520734
 30
0.0
 10
35.9301337376
 20
47.4368227019
 30
0.0
  0
SPLINE
  5
4E8
100
AcDbEntity
  8
0
100
AcDbSpline
 62
7
  6
BYLAYER
 70
0
 71
3
 72
10
 73
6
 74
0
 42
0.0000001
 43
0.0000001
 44
0.0000000001
 40
0.0
 40
0.0
 40
0.0
 40
0.0
 40
0.358097611
 40
0.6935223284
 40
1.0
 40
1.0
 40
1.0
 40
1.0
 10
35.9301337376
 20
47.4368227019
 30
0.0
 10
35.93643823
 20
47.4471426112
 30
0.0
 10
35.9478744465
 20
47.4675255444
 30
0.0
 10
35.9673637301
 20
47.4955015242
 30
0.0
 10
35.9720193609
 20
47.5173244228
 30
0.0
 10
35.9726064928
 20
47.5276577745
 30
0.0
  0
SPLINE
  5
4E9
100
AcDbEntity
  8
0
100
AcDbSpline
 62
7
  6
BYLAYER
 70
0
 71
3
 72
10
 73
6
 74
0
 42
0.0000001
 43
0.0000001
 44
0.0000000001
 40
0.0
 40
0.0
 40
0.0
 40
0.0
 40
0.3393498372
 40
0.6728441506
 40
1.0
 40
1.0
 40
1.0
 40
1.0
 10
35.9726064928
 20
47.5276577745
 30
0.0
 10
35.974551012
 20
48.5748172652
 30
0.0
 10
35.9784809804
 20
50.6510672683
 30
0.0
 10
35.9852798699
 20
53.7368467292
 30
0.0
 10
35.989879275
 20
55.7754672203
 30
0.0
 10
35.9924290661
 20
56.7849972479
 30
0.0
  0
SPLINE
  5
4EA
100
AcDbEntity
  8
0
100
AcDbSpline
 62
7
  6
BYLAYER
 70
0
 71
3
 72
24
 73
20
 74
0
 42
0.0000001
 43
0.0000001
 44
0.0000000001
 40
0.0
 40
0.0
 40
0.0
 40
0.0
 40
0.1258944774
 40
0.251879569
 40
0.3780042544
 40
0.5042694423
 40
0.630594627
 40
0.6937181339
 40
0.7567308526
 40
0.8195004135
 40
0.8817276881
 40
0.9124406293
 40
0.9276062517
 40
0.9426125055
 40
0.9574083289
 40
0.9718122595
 40
0.9859635849
 40
0.9929677992
 40
1.0
 40
1.0
 40
1.0
 40
1.0
 10
35.9924201151
 20
56.7851263076
 30
0.0
 10
35.8760787838
 20
56.7921738375
 30
0.0
 10
35.6429696133
 20
56.8011097583
 30
0.0
 10
35.2929151321
 20
56.799601572
 30
0.0
 10
34.9428788109
 20
56.7833816591
 30
0.0
 10
34.5935551513
 20
56.752062872
 30
0.0
 10
34.3038295618
 20
56.7122899629
 30
0.0
 10
34.0738644308
 20
56.6703075925
 30
0.0
 10
33.9030019411
 20
56.6327285524
 30
0.0
 10
33.7349095568
 20
56.5872963146
 30
0.0
 10
33.5984568911
 20
56.5400156701
 30
0.0
 10
33.5074955023
 20
56.4979188724
 30
0.0
 10
33.458510323
 20
56.4699403404
 30
0.0
 10
33.4240210255
 20
56.4465499533
 30
0.0
 10
33.3924142465
 20
56.4203708729
 30
0.0
 10
33.3663237443
 20
56.3894594621
 30
0.0
 10
33.3523895064
 20
56.3589700262
 30
0.0
 10
33.3479870522
 20
56.3331152386
 30
0.0
 10
33.3484057626
 20
56.3200094102
 30
0.0
 10
33.3493221654
 20
56.3135637338
 30
0.0
  0
SPLINE
  5
4EB
100
AcDbEntity
  8
0
100
AcDbSpline
 62
7
  6
BYLAYER
 70
0
 71
3
 72
10
 73
6
 74
0
 42
0.0000001
 43
0.0000001
 44
0.0000000001
 40
0.0
 40
0.0
 40
0.0
 40
0.0
 40
0.3215905009
 40
0.6509691326
 40
1.0
 40
1.0
 40
1.0
 40
1.0
 10
33.349324738
 20
56.3135638937
 30
0.0
 10
33.4724390968
 20
55.4220099712
 30
0.0
 10
33.7410179907
 20
53.6200087729
 30
0.0
 10
34.1955650461
 20
50.8582760177
 30
0.0
 10
34.5631473151
 20
48.995235136
 30
0.0
 10
34.7625064954
 20
48.0389855951
 30
0.0
  0
SPLINE
  5
4EC
100
AcDbEntity
  8
0
100
AcDbSpline
 62
7
  6
BYLAYER
 70
0
 71
3
 72
10
 73
6
 74
0
 42
0.0000001
 43
0.0000001
 44
0.0000000001
 40
0.0
 40
0.0
 40
0.0
 40
0.0
 40
0.3489247761
 40
0.678319161
 40
1.0
 40
1.0
 40
1.0
 40
1.0
 10
34.7378830492
 20
48.0345835913
 30
0.0
 10
34.5379884012
 20
48.9907042948
 30
0.0
 10
34.1690862156
 20
50.8537836274
 30
0.0
 10
33.7131667488
 20
53.6161082274
 30
0.0
 10
33.4437930572
 20
55.4188221534
 30
0.0
 10
33.3204652068
 20
56.3108626021
 30
0.0
  0
LINE
  5
4ED
100
AcDbEntity
  8
0
100
AcDbLine
 62
7
  6
BYLAYER
 10
31.0469758038
 20
35.2578695583
 11
35.9004664103
 21
35.2972614173
  0
SPLINE
  5
4EE
100
AcDbEntity
  8
0
100
AcDbSpline
 62
7
  6
BYLAYER
 70
0
 71
3
 72
10
 73
6
 74
0
 42
0.0000001
 43
0.0000001
 44
0.0000000001
 40
0.0
 40
0.0
 40
0.0
 40
0.0
 40
0.3753040768
 40
0.7190279633
 40
1.0
 40
1.0
 40
1.0
 40
1.0
 10
33.2969757864
 20
38.9899348285
 30
0.0
 10
33.2220724304
 20
39.1136005551
 30
0.0
 10
33.0917644126
 20
39.3584634201
 30
0.0
 10
32.9414833616
 20
39.7144616564
 30
0.0
 10
32.9001682027
 20
39.9554084088
 30
0.0
 10
32.9004663994
 20
40.0636489631
 30
0.0
  0
SPLINE
  5
4EF
100
AcDbEntity
  8
0
100
AcDbSpline
 62
7
  6
BYLAYER
 70
0
 71
3
 72
10
 73
6
 74
0
 42
0.0000001
 43
0.0000001
 44
0.0000000001
 40
0.0
 40
0.0
 40
0.0
 40
0.0
 40
0.2740697939
 40
0.6314070383
 40
1.0
 40
1.0
 40
1.0
 40
1.0
 10
32.9004663994
 20
46.9864199285
 30
0.0
 10
32.897891687
 20
47.0901008771
 30
0.0
 10
32.9422611488
 20
47.3294529321
 30
0.0
 10
33.0916998762
 20
47.6778156263
 30
0.0
 10
33.2227143633
 20
47.9199580009
 30
0.0
 10
33.2969757934
 20
48.0380279624
 30
0.0
  0
SPLINE
  5
4F0
100
AcDbEntity
  8
0
100
AcDbSpline
 62
7
  6
BYLAYER
 70
0
 71
3
 72
11
 73
7
 74
0
 42
0.0000001
 43
0.0000001
 44
0.0000000001
 40
0.0
 40
0.0
 40
0.0
 40
0.0
 40
0.0920766305
 40
0.3081852342
 40
0.6259840895
 40
1.0
 40
1.0
 40
1.0
 40
1.0
 10
30.8487210926
 20
35.2870794563
 30
0.0
 10
30.8487215394
 20
35.2808400305
 30
0.0
 10
30.8752099611
 20
35.2718259759
 30
0.0
 10
30.911473512
 20
35.2650344621
 30
0.0
 10
30.975502566
 20
35.2590944166
 30
0.0
 10
31.0216312333
 20
35.2579017343
 30
0.0
 10
31.0469758038
 20
35.2578694299
 30
0.0
  0
SPLINE
  5
4F1
100
AcDbEntity
  8
0
100
AcDbSpline
 62
7
  6
BYLAYER
 70
0
 71
3
 72
11
 73
7
 74
0
 42
0.0000001
 43
0.0000001
 44
0.0000000001
 40
0.0
 40
0.0
 40
0.0
 40
0.0
 40
0.3431090329
 40
0.6408786035
 40
0.8602018967
 40
1.0
 40
1.0
 40
1.0
 40
1.0
 10
31.0469758038
 20
56.3179389249
 30
0.0
 10
31.0215741974
 20
56.3180179876
 30
0.0
 10
30.9740428718
 20
56.3210949201
 30
0.0
 10
30.9116358173
 20
56.335683839
 30
0.0
 10
30.8668143114
 20
56.3546204401
 30
0.0
 10
30.8487213961
 20
56.3789179639
 30
0.0
 10
30.8487210926
 20
56.3892677748
 30
0.0
  0
SPLINE
  5
4F2
100
AcDbEntity
  8
0
100
AcDbSpline
 62
7
  6
BYLAYER
 70
0
 71
3
 72
10
 73
6
 74
0
 42
0.0000001
 43
0.0000001
 44
0.0000000001
 40
0.0
 40
0.0
 40
0.0
 40
0.0
 40
0.3590250971
 40
0.6900855667
 40
1.0
 40
1.0
 40
1.0
 40
1.0
 10
35.9004663997
 20
47.335876567
 30
0.0
 10
35.8123897854
 20
47.3662926995
 30
0.0
 10
35.6441175396
 20
47.4277353323
 30
0.0
 10
35.4034519994
 20
47.5251205627
 30
0.0
 10
35.2530079707
 20
47.5964060528
 30
0.0
 10
35.1813837612
 20
47.6330078344
 30
0.0
  0
SPLINE
  5
4F3
100
AcDbEntity
  8
0
100
AcDbSpline
 62
7
  6
BYLAYER
 70
0
 71
3
 72
12
 73
8
 74
0
 42
0.0000001
 43
0.0000001
 44
0.0000000001
 40
0.0
 40
0.0
 40
0.0
 40
0.0
 40
0.2506036056
 40
0.4663120862
 40
0.6553791643
 40
0.8420734048
 40
1.0
 40
1.0
 40
1.0
 40
1.0
 10
35.1813837612
 20
47.6330078344
 30
0.0
 10
35.1358099763
 20
47.6566260878
 30
0.0
 10
35.0521822689
 20
47.7029198317
 30
0.0
 10
34.9398328892
 20
47.7767401061
 30
0.0
 10
34.8459956523
 20
47.8537269933
 30
0.0
 10
34.7730184202
 20
47.9364162415
 30
0.0
 10
34.7442931255
 20
48.0028775535
 30
0.0
 10
34.7378829892
 20
48.0345835902
 30
0.0
  0
SPLINE
  5
4F4
100
AcDbEntity
  8
0
100
AcDbSpline
 62
7
  6
BYLAYER
 70
0
 71
3
 72
13
 73
9
 74
0
 42
0.0000001
 43
0.0000001
 44
0.0000000001
 40
0.0
 40
0.0
 40
0.0
 40
0.0
 40
0.2574804083
 40
0.51485689
 40
0.6412300405
 40
0.7647482108
 40
0.8845387753
 40
1.0
 40
1.0
 40
1.0
 40
1.0
 10
33.296974754
 20
48.0380288831
 30
0.0
 10
33.2735734894
 20
47.9444141899
 30
0.0
 10
33.2275047994
 20
47.757038602
 30
0.0
 10
33.1752191002
 20
47.5224417588
 30
0.0
 10
33.1392018259
 20
47.335759587
 30
0.0
 10
33.1174031829
 20
47.1989013531
 30
0.0
 10
33.1026279387
 20
47.0651989792
 30
0.0
 10
33.0987207319
 20
46.9770159207
 30
0.0
 10
33.0987210746
 20
46.9337448313
 30
0.0
  0
SPLINE
  5
4F5
100
AcDbEntity
  8
0
100
AcDbSpline
 62
7
  6
BYLAYER
 70
0
 71
3
 72
17
 73
13
 74
0
 42
0.0000001
 43
0.0000001
 44
0.0000000001
 40
0.0
 40
0.0
 40
0.0
 40
0.0
 40
0.1694805967
 40
0.3426412169
 40
0.5102031361
 40
0.6617053324
 40
0.7878869084
 40
0.8845902123
 40
0.921634923
 40
0.952141672
 40
0.9776172075
 40
1.0
 40
1.0
 40
1.0
 40
1.0
 10
32.9004663989
 20
46.9864198906
 30
0.0
 10
32.9125457124
 20
46.9863921275
 30
0.0
 10
32.9369684588
 20
46.9857485839
 30
0.0
 10
32.9732469346
 20
46.9829964087
 30
0.0
 10
33.0080241128
 20
46.9782375421
 30
0.0
 10
33.0391422262
 20
46.9717770309
 30
0.0
 10
33.0646119247
 20
46.9637201082
 30
0.0
 10
33.0814940016
 20
46.9557416355
 30
0.0
 10
33.0908714355
 20
46.9486573516
 30
0.0
 10
33.0953833894
 20
46.9437329966
 30
0.0
 10
33.0980921293
 20
46.93876974
 30
0.0
 10
33.0987210776
 20
46.9353397587
 30
0.0
 10
33.0987210746
 20
46.9337444759
 30
0.0
  0
SPLINE
  5
4F6
100
AcDbEntity
  8
0
100
AcDbSpline
 62
7
  6
BYLAYER
 70
0
 71
3
 72
10
 73
6
 74
0
 42
0.0000001
 43
0.0000001
 44
0.0000000001
 40
0.0
 40
0.0
 40
0.0
 40
0.0
 40
0.2996973308
 40
0.637050901
 40
1.0
 40
1.0
 40
1.0
 40
1.0
 10
33.0987210926
 20
40.0248209868
 30
0.0
 10
33.0987210926
 20
39.9193917677
 30
0.0
 10
33.1299597368
 20
39.6960016149
 30
0.0
 10
33.2068127721
 20
39.3530442045
 30
0.0
 10
33.2680131883
 20
39.1142868416
 30
0.0
 10
33.2969757855
 20
38.9899348302
 30
0.0
  0
SPLINE
  5
4F7
100
AcDbEntity
  8
0
100
AcDbSpline
 62
7
  6
BYLAYER
 70
0
 71
3
 72
11
 73
7
 74
0
 42
0.0000001
 43
0.0000001
 44
0.0000000001
 40
0.0
 40
0.0
 40
0.0
 40
0.0
 40
0.2648765767
 40
0.5212263709
 40
0.7651749384
 40
1.0
 40
1.0
 40
1.0
 40
1.0
 10
33.2969757855
 20
40.0161256109
 30
0.0
 10
33.271229591
 20
40.0163227544
 30
0.0
 10
33.2201813147
 20
40.0253802777
 30
0.0
 10
33.1545095648
 20
40.0636410024
 30
0.0
 10
33.1095431729
 20
40.1216601771
 30
0.0
 10
33.0987210926
 20
40.1687785047
 30
0.0
 10
33.0987210926
 20
40.1916043393
 30
0.0
  0
SPLINE
  5
4F8
100
AcDbEntity
  8
0
100
AcDbSpline
 62
7
  6
BYLAYER
 70
0
 71
3
 72
11
 73
7
 74
0
 42
0.0000001
 43
0.0000001
 44
0.0000000001
 40
0.0
 40
0.0
 40
0.0
 40
0.0
 40
0.2512639363
 40
0.5020385591
 40
0.7532663278
 40
1.0
 40
1.0
 40
1.0
 40
1.0
 10
33.8469757855
 20
22.925511338
 30
0.0
 10
33.820955247
 20
22.9245128224
 30
0.0
 10
33.7688293727
 20
22.9124355171
 30
0.0
 10
33.7032029213
 20
22.8669165305
 30
0.0
 10
33.6591955349
 20
22.8007549545
 30
0.0
 10
33.6487210926
 20
22.7486293507
 30
0.0
 10
33.6487210926
 20
22.7230591537
 30
0.0
  0
SPLINE
  5
4F9
100
AcDbEntity
  8
0
100
AcDbSpline
 62
7
  6
BYLAYER
 70
0
 71
3
 72
13
 73
9
 74
0
 42
0.0000001
 43
0.0000001
 44
0.0000000001
 40
0.0
 40
0.0
 40
0.0
 40
0.0
 40
0.2415009623
 40
0.3710512367
 40
0.5027541548
 40
0.6339989546
 40
0.7623049581
 40
1.0
 40
1.0
 40
1.0
 40
1.0
 10
33.8469758486
 20
22.700249781
 30
0.0
 10
33.8221132901
 20
22.7000361924
 30
0.0
 10
33.7834725497
 20
22.6925286259
 30
0.0
 10
33.7373961001
 20
22.6684206035
 30
0.0
 10
33.7056306819
 20
22.6429616963
 30
0.0
 10
33.6800597912
 20
22.6114469369
 30
0.0
 10
33.6560429935
 20
22.5659585794
 30
0.0
 10
33.648720774
 20
22.527767228
 30
0.0
 10
33.6487207777
 20
22.5032955866
 30
0.0
  0
SPLINE
  5
4FA
100
AcDbEntity
  8
0
100
AcDbSpline
 62
7
  6
BYLAYER
 70
0
 71
3
 72
16
 73
12
 74
0
 42
0.0000001
 43
0.0000001
 44
0.0000000001
 40
0.0
 40
0.0
 40
0.0
 40
0.0
 40
0.042675815
 40
0.0710620957
 40
0.1055080394
 40
0.1939705003
 40
0.3091981901
 40
0.4503987626
 40
0.6148429391
 40
0.7991928343
 40
1.0
 40
1.0
 40
1.0
 40
1.0
 10
33.6487207777
 20
22.5032955866
 30
0.0
 10
33.6487210237
 20
22.5014617281
 30
0.0
 10
33.6471361499
 20
22.4984874215
 30
0.0
 10
33.6437925399
 20
22.4954694653
 30
0.0
 10
33.638357521
 20
22.4918362505
 30
0.0
 10
33.6289665526
 20
22.4876634114
 30
0.0
 10
33.6148350992
 20
22.4831513221
 30
0.0
 10
33.5972218845
 20
22.4789832594
 30
0.0
 10
33.5765028803
 20
22.4751978689
 30
0.0
 10
33.5531120905
 20
22.471895181
 30
0.0
 10
33.5366519822
 20
22.4701340062
 30
0.0
 10
33.5280593946
 20
22.4693415311
 30
0.0
  0
SPLINE
  5
4FB
100
AcDbEntity
  8
0
100
AcDbSpline
 62
7
  6
BYLAYER
 70
0
 71
3
 72
17
 73
13
 74
0
 42
0.0000001
 43
0.0000001
 44
0.0000000001
 40
0.0
 40
0.0
 40
0.0
 40
0.0
 40
0.1717100533
 40
0.34240277
 40
0.5030615973
 40
0.6447709913
 40
0.7612396562
 40
0.8102141792
 40
0.8536367063
 40
0.8926211497
 40
0.9289741424
 40
1.0
 40
1.0
 40
1.0
 40
1.0
 10
33.5280593946
 20
22.4693415311
 30
0.0
 10
33.5279715655
 20
22.4810974004
 30
0.0
 10
33.5286479897
 20
22.5045551602
 30
0.0
 10
33.5323803262
 20
22.5388404915
 30
0.0
 10
33.5391861837
 20
22.5705778077
 30
0.0
 10
33.5486534804
 20
22.5977405664
 30
0.0
 10
33.5593001369
 20
22.6161395244
 30
0.0
 10
33.5690139016
 20
22.6267091451
 30
0.0
 10
33.5762014886
 20
22.6322142751
 30
0.0
 10
33.5836551318
 20
22.6356533375
 30
0.0
 10
33.5935799554
 20
22.6375640071
 30
0.0
 10
33.6011271042
 20
22.6361952257
 30
0.0
 10
33.6056525472
 20
22.6344155282
 30
0.0
  0
SPLINE
  5
4FC
100
AcDbEntity
  8
0
100
AcDbSpline
 62
7
  6
BYLAYER
 70
0
 71
3
 72
11
 73
7
 74
0
 42
0.0000001
 43
0.0000001
 44
0.0000000001
 40
0.0
 40
0.0
 40
0.0
 40
0.0
 40
0.0086316885
 40
0.1845605395
 40
0.5313990085
 40
1.0
 40
1.0
 40
1.0
 40
1.0
 10
33.4504662155
 20
22.6252199637
 30
0.0
 10
33.450446163
 20
22.6256897096
 30
0.0
 10
33.4443955074
 20
22.6352180244
 30
0.0
 10
33.4544757173
 20
22.5722997051
 30
0.0
 10
33.4474868594
 20
22.5424698733
 30
0.0
 10
33.450231398
 20
22.4900381266
 30
0.0
 10
33.4504666334
 20
22.4645142124
 30
0.0
  0
SPLINE
  5
4FD
100
AcDbEntity
  8
0
100
AcDbSpline
 62
7
  6
BYLAYER
 70
0
 71
3
 72
11
 73
7
 74
0
 42
0.0000001
 43
0.0000001
 44
0.0000000001
 40
0.0
 40
0.0
 40
0.0
 40
0.0
 40
0.4514844857
 40
0.7950064962
 40
0.984297083
 40
1.0
 40
1.0
 40
1.0
 40
1.0
 10
31.0469764635
 20
22.4390156338
 30
0.0
 10
31.0467414191
 20
22.463792288
 30
0.0
 10
31.0451361181
 20
22.515124195
 30
0.0
 10
31.0487790287
 20
22.5450931635
 30
0.0
 10
31.0429240733
 20
22.6116111086
 30
0.0
 10
31.0469420114
 20
22.5994183007
 30
0.0
 10
31.0469755921
 20
22.5985571687
 30
0.0
  0
SPLINE
  5
4FE
100
AcDbEntity
  8
0
100
AcDbSpline
 62
7
  6
BYLAYER
 70
0
 71
3
 72
11
 73
7
 74
0
 42
0.0000001
 43
0.0000001
 44
0.0000000001
 40
0.0
 40
0.0
 40
0.0
 40
0.0
 40
0.2533951093
 40
0.5047991555
 40
0.7533969973
 40
1.0
 40
1.0
 40
1.0
 40
1.0
 10
31.0469757855
 20
22.598535348
 30
0.0
 10
31.0211377523
 20
22.5983164151
 30
0.0
 10
30.969213216
 20
22.5879849328
 30
0.0
 10
30.9033757436
 20
22.5448849189
 30
0.0
 10
30.8591199777
 20
22.480564968
 30
0.0
 10
30.8487210926
 20
22.4295007649
 30
0.0
 10
30.8487210926
 20
22.4043544023
 30
0.0
  0
SPLINE
  5
4FF
100
AcDbEntity
  8
0
100
AcDbSpline
 62
7
  6
BYLAYER
 70
0
 71
3
 72
11
 73
7
 74
0
 42
0.0000001
 43
0.0000001
 44
0.0000000001
 40
0.0
 40
0.0
 40
0.0
 40
0.0
 40
0.3832481278
 40
0.7074759085
 40
0.923884678
 40
1.0
 40
1.0
 40
1.0
 40
1.0
 10
31.0469757852
 20
21.6121355999
 30
0.0
 10
31.0216426539
 20
21.6121386407
 30
0.0
 10
30.9764173072
 20
21.6135936093
 30
0.0
 10
30.9099364551
 20
21.6094274851
 30
0.0
 10
30.879848693
 20
21.6193605314
 30
0.0
 10
30.8487209857
 20
21.609855065
 30
0.0
 10
30.8487210926
 20
21.6148863733
 30
0.0
  0
SPLINE
  5
500
100
AcDbEntity
  8
0
100
AcDbSpline
 62
7
  6
BYLAYER
 70
0
 71
3
 72
11
 73
7
 74
0
 42
0.0000001
 43
0.0000001
 44
0.0000000001
 40
0.0
 40
0.0
 40
0.0
 40
0.0
 40
0.2078672788
 40
0.4388428851
 40
0.7005497048
 40
1.0
 40
1.0
 40
1.0
 40
1.0
 10
33.4026766632
 20
16.8204722785
 30
0.0
 10
33.3975509135
 20
16.8182865368
 30
0.0
 10
33.3859407808
 20
16.8154081152
 30
0.0
 10
33.3669811966
 20
16.8159818273
 30
0.0
 10
33.3463281897
 20
16.8215987667
 30
0.0
 10
33.3328289312
 20
16.8284764136
 30
0.0
 10
33.3260047289
 20
16.8327036348
 30
0.0
  0
SPLINE
  5
501
100
AcDbEntity
  8
0
100
AcDbSpline
 62
7
  6
BYLAYER
 70
0
 71
3
 72
14
 73
10
 74
0
 42
0.0000001
 43
0.0000001
 44
0.0000000001
 40
0.0
 40
0.0
 40
0.0
 40
0.0
 40
0.1769264001
 40
0.359607695
 40
0.4971177628
 40
0.6261998401
 40
0.7564100678
 40
0.8836404883
 40
1.0
 40
1.0
 40
1.0
 40
1.0
 10
33.3259968419
 20
16.8327217791
 30
0.0
 10
33.2805805993
 20
16.8134235505
 30
0.0
 10
33.1933847177
 20
16.7618213038
 30
0.0
 10
33.0900288796
 20
16.6679834505
 30
0.0
 10
33.0145316274
 20
16.5672795873
 30
0.0
 10
32.962176719
 20
16.4693469064
 30
0.0
 10
32.9256011664
 20
16.3674899248
 30
0.0
 10
32.9050673183
 20
16.264988181
 30
0.0
 10
32.9000390395
 20
16.1969652835
 30
0.0
 10
32.9004664138
 20
16.1645144296
 30
0.0
  0
SPLINE
  5
502
100
AcDbEntity
  8
0
100
AcDbSpline
 62
7
  6
BYLAYER
 70
0
 71
3
 72
13
 73
9
 74
0
 42
0.0000001
 43
0.0000001
 44
0.0000000001
 40
0.0
 40
0.0
 40
0.0
 40
0.0
 40
0.241845582
 40
0.3715200174
 40
0.5032697409
 40
0.6344701516
 40
0.7626527482
 40
1.0
 40
1.0
 40
1.0
 40
1.0
 10
32.900466403
 20
16.1645137548
 30
0.0
 10
32.925302902
 20
16.164726342
 30
0.0
 10
32.9638938513
 20
16.1721756287
 30
0.0
 10
33.0099626096
 20
16.196132545
 30
0.0
 10
33.0417339451
 20
16.2214424936
 30
0.0
 10
33.0673273923
 20
16.2527943843
 30
0.0
 10
33.0913760023
 20
16.2980632852
 30
0.0
 10
33.0987200349
 20
16.336114718
 30
0.0
 10
33.0987200603
 20
16.3604901507
 30
0.0
  0
SPLINE
  5
503
100
AcDbEntity
  8
0
100
AcDbSpline
 62
7
  6
BYLAYER
 70
0
 71
3
 72
10
 73
6
 74
0
 42
0.0000001
 43
0.0000001
 44
0.0000000001
 40
0.0
 40
0.0
 40
0.0
 40
0.0
 40
0.3273274412
 40
0.6581811324
 40
1.0
 40
1.0
 40
1.0
 40
1.0
 10
33.0987210926
 20
16.254407974
 30
0.0
 10
33.0987210926
 20
16.2519569706
 30
0.0
 10
33.0990711487
 20
16.2470092729
 30
0.0
 10
33.1011532407
 20
16.2397607902
 30
0.0
 10
33.1036800473
 20
16.2353164292
 30
0.0
 10
33.1052717208
 20
16.2333120122
 30
0.0
  0
SPLINE
  5
504
100
AcDbEntity
  8
0
100
AcDbSpline
 62
7
  6
BYLAYER
 70
0
 71
3
 72
11
 73
7
 74
0
 42
0.0000001
 43
0.0000001
 44
0.0000000001
 40
0.0
 40
0.0
 40
0.0
 40
0.0
 40
0.2048015512
 40
0.4417286337
 40
0.7110825056
 40
1.0
 40
1.0
 40
1.0
 40
1.0
 10
33.1052717208
 20
16.2333120122
 30
0.0
 10
33.1151214663
 20
16.27285073
 30
0.0
 10
33.1605702686
 20
16.3524774905
 30
0.0
 10
33.2755666152
 20
16.4391458044
 30
0.0
 10
33.4254013313
 20
16.4950853309
 30
0.0
 10
33.5368758818
 20
16.5081553417
 30
0.0
 10
33.5943576848
 20
16.508484551
 30
0.0
  0
SPLINE
  5
505
100
AcDbEntity
  8
0
100
AcDbSpline
 62
7
  6
BYLAYER
 70
0
 71
3
 72
11
 73
7
 74
0
 42
0.0000001
 43
0.0000001
 44
0.0000000001
 40
0.0
 40
0.0
 40
0.0
 40
0.0
 40
0.3826523427
 40
0.7070483446
 40
0.9238152529
 40
1.0
 40
1.0
 40
1.0
 40
1.0
 10
31.0469757855
 20
69.9347725131
 30
0.0
 10
31.0467531824
 20
69.9092627762
 30
0.0
 10
31.0463677971
 20
69.8621249298
 30
0.0
 10
31.0463316057
 20
69.8005408734
 30
0.0
 10
31.0460710948
 20
69.7593737798
 30
0.0
 10
31.0467310841
 20
69.7398546974
 30
0.0
 10
31.0469757855
 20
69.7347801285
 30
0.0
  0
SPLINE
  5
506
100
AcDbEntity
  8
0
100
AcDbSpline
 62
7
  6
BYLAYER
 70
0
 71
3
 72
10
 73
6
 74
0
 42
0.0000001
 43
0.0000001
 44
0.0000000001
 40
0.0
 40
0.0
 40
0.0
 40
0.0
 40
0.1199047188
 40
0.465062375
 40
1.0
 40
1.0
 40
1.0
 40
1.0
 10
35.9500330312
 20
69.6923425315
 30
0.0
 10
35.9501030714
 20
69.683741395
 30
0.0
 10
35.9502853673
 20
69.6503807547
 30
0.0
 10
35.9501370874
 20
69.578645455
 30
0.0
 10
35.9500896897
 20
69.5155122455
 30
0.0
 10
35.9500268863
 20
69.4771386538
 30
0.0
  0
SPLINE
  5
507
100
AcDbEntity
  8
0
100
AcDbSpline
 62
7
  6
BYLAYER
 70
0
 71
3
 72
10
 73
6
 74
0
 42
0.0000001
 43
0.0000001
 44
0.0000000001
 40
0.0
 40
0.0
 40
0.0
 40
0.0
 40
0.5366076122
 40
0.8816373296
 40
1.0
 40
1.0
 40
1.0
 40
1.0
 10
33.5943609931
 20
69.4966816327
 30
0.0
 10
33.5941398775
 20
69.535231025
 30
0.0
 10
33.5940039143
 20
69.5985652845
 30
0.0
 10
33.5934961868
 20
69.6704113731
 30
0.0
 10
33.594117231
 20
69.7036955991
 30
0.0
 10
33.5943528236
 20
69.7121964588
 30
0.0
  0
LINE
  5
508
100
AcDbEntity
  8
0
100
AcDbLine
 62
7
  6
BYLAYER
 10
33.5943609931
 20
69.4966816327
 11
35.9500268863
 21
69.4771386538
  0
LINE
  5
509
100
AcDbEntity
  8
0
100
AcDbLine
 62
7
  6
BYLAYER
 10
35.9500268904
 20
69.4771386523
 11
33.5943616484
 21
69.4966856623
  0
SPLINE
  5
50A
100
AcDbEntity
  8
0
100
AcDbSpline
 62
7
  6
BYLAYER
 70
0
 71
3
 72
10
 73
6
 74
0
 42
0.0000001
 43
0.0000001
 44
0.0000000001
 40
0.0
 40
0.0
 40
0.0
 40
0.0
 40
0.5349376234
 40
0.8800952791
 40
1.0
 40
1.0
 40
1.0
 40
1.0
 10
35.9500268904
 20
69.4771386523
 30
0.0
 10
35.9500896951
 20
69.515512244
 30
0.0
 10
35.950137094
 20
69.5786454535
 30
0.0
 10
35.9502853767
 20
69.6503807534
 30
0.0
 10
35.9501030784
 20
69.6837413939
 30
0.0
 10
35.9500330371
 20
69.6923425305
 30
0.0
  0
SPLINE
  5
50B
100
AcDbEntity
  8
0
100
AcDbSpline
 62
7
  6
BYLAYER
 70
0
 71
3
 72
10
 73
6
 74
0
 42
0.0000001
 43
0.0000001
 44
0.0000000001
 40
0.0
 40
0.0
 40
0.0
 40
0.0
 40
0.1183625233
 40
0.4633987411
 40
1.0
 40
1.0
 40
1.0
 40
1.0
 10
33.5943568026
 20
69.712196425
 30
0.0
 10
33.5941197466
 20
69.7036957638
 30
0.0
 10
33.5934946582
 20
69.6704117767
 30
0.0
 10
33.5940041151
 20
69.5985669457
 30
0.0
 10
33.5941399031
 20
69.5352338797
 30
0.0
 10
33.5943616484
 20
69.4966856623
 30
0.0
  0
SPLINE
  5
50C
100
AcDbEntity
  8
0
100
AcDbSpline
 62
7
  6
BYLAYER
 70
0
 71
3
 72
10
 73
6
 74
0
 42
0.0000001
 43
0.0000001
 44
0.0000000001
 40
0.0
 40
0.0
 40
0.0
 40
0.0
 40
0.3573580461
 40
0.6957562824
 40
1.0
 40
1.0
 40
1.0
 40
1.0
 10
33.5943578249
 20
69.4964845201
 30
0.0
 10
33.548299498
 20
69.496712766
 30
0.0
 10
33.4584664159
 20
69.5041417383
 30
0.0
 10
33.3329351618
 20
69.5356745694
 30
0.0
 10
33.2571623178
 20
69.5711261884
 30
0.0
 10
33.2241663458
 20
69.5923142898
 30
0.0
  0
SPLINE
  5
50D
100
AcDbEntity
  8
0
100
AcDbSpline
 62
7
  6
BYLAYER
 70
0
 71
3
 72
12
 73
8
 74
0
 42
0.0000001
 43
0.0000001
 44
0.0000000001
 40
0.0
 40
0.0
 40
0.0
 40
0.0
 40
0.1762425678
 40
0.3621790495
 40
0.562846825
 40
0.7773111214
 40
1.0
 40
1.0
 40
1.0
 40
1.0
 10
33.0987210926
 20
69.3271510462
 30
0.0
 10
33.0987210926
 20
69.2863255928
 30
0.0
 10
33.1162961716
 20
69.2016182249
 30
0.0
 10
33.1901926874
 20
69.0910082462
 30
0.0
 10
33.3022477545
 20
69.0048053787
 30
0.0
 10
33.4411357949
 20
68.9498343866
 30
0.0
 10
33.5427745821
 20
68.9368926149
 30
0.0
 10
33.5943578249
 20
68.9365409273
 30
0.0
  0
SPLINE
  5
50E
100
AcDbEntity
  8
0
100
AcDbSpline
 62
7
  6
BYLAYER
 70
0
 71
3
 72
10
 73
6
 74
0
 42
0.0000001
 43
0.0000001
 44
0.0000000001
 40
0.0
 40
0.0
 40
0.0
 40
0.0
 40
0.211225899
 40
0.5377202153
 40
1.0
 40
1.0
 40
1.0
 40
1.0
 10
33.0987210926
 20
69.5186125758
 30
0.0
 10
33.0987210926
 20
69.5294407241
 30
0.0
 10
33.1138467711
 20
69.5562952051
 30
0.0
 10
33.1620108129
 20
69.5773060315
 30
0.0
 10
33.2008252348
 20
69.5882197772
 30
0.0
 10
33.2241669087
 20
69.5923139283
 30
0.0
  0
SPLINE
  5
50F
100
AcDbEntity
  8
0
100
AcDbSpline
 62
7
  6
BYLAYER
 70
0
 71
3
 72
10
 73
6
 74
0
 42
0.0000001
 43
0.0000001
 44
0.0000000001
 40
0.0
 40
0.0
 40
0.0
 40
0.0
 40
0.3223025415
 40
0.6444438838
 40
1.0
 40
1.0
 40
1.0
 40
1.0
 10
35.9500300729
 20
16.330371341
 30
0.0
 10
35.949479881
 20
16.322223639
 30
0.0
 10
35.9450227682
 20
16.3057882132
 30
0.0
 10
35.9264174238
 20
16.286972974
 30
0.0
 10
35.9093805732
 20
16.2818909474
 30
0.0
 10
35.9004663997
 20
16.280588569
 30
0.0
  0
SPLINE
  5
510
100
AcDbEntity
  8
0
100
AcDbSpline
 62
7
  6
BYLAYER
 70
0
 71
3
 72
13
 73
9
 74
0
 42
0.0000001
 43
0.0000001
 44
0.0000000001
 40
0.0
 40
0.0
 40
0.0
 40
0.0
 40
0.272995577
 40
0.5201253097
 40
0.6897086083
 40
0.8353259862
 40
0.9426536505
 40
1.0
 40
1.0
 40
1.0
 40
1.0
 10
36.9211752665
 20
76.6480114772
 30
0.0
 10
36.9129249854
 20
76.8337425234
 30
0.0
 10
36.8943279098
 20
77.1872037127
 30
0.0
 10
36.8563897591
 20
77.6565654497
 30
0.0
 10
36.8129585503
 20
78.0344334632
 30
0.0
 10
36.7600101965
 20
78.3250259844
 30
0.0
 10
36.7127358391
 20
78.5133333842
 30
0.0
 10
36.6421369166
 20
78.635992974
 30
0.0
 10
36.603084413
 20
78.6363047531
 30
0.0
  0
SPLINE
  5
511
100
AcDbEntity
  8
0
100
AcDbSpline
 62
7
  6
BYLAYER
 70
0
 71
3
 72
23
 73
19
 74
0
 42
0.0000001
 43
0.0000001
 44
0.0000000001
 40
0.0
 40
0.0
 40
0.0
 40
0.0
 40
0.0688061353
 40
0.1374151413
 40
0.2056702433
 40
0.2734148406
 40
0.340497999
 40
0.4067868903
 40
0.4721497102
 40
0.5364431761
 40
0.5995338862
 40
0.6613279291
 40
0.721739222
 40
0.780676668
 40
0.8380497523
 40
0.8937770122
 40
0.9477853276
 40
1.0
 40
1.0
 40
1.0
 40
1.0
 10
36.5987206955
 20
21.2174743415
 30
0.0
 10
36.59880857
 20
22.4888210006
 30
0.0
 10
36.6001187303
 20
25.0278719979
 30
0.0
 10
36.6055682703
 20
28.8280846034
 30
0.0
 10
36.6143715424
 20
32.6086765914
 30
0.0
 10
36.6264545149
 20
36.361065935
 30
0.0
 10
36.6417379132
 20
40.0771131697
 30
0.0
 10
36.6600907442
 20
43.7491373203
 30
0.0
 10
36.681360268
 20
47.3695990218
 30
0.0
 10
36.7051648358
 20
50.9309500576
 30
0.0
 10
36.7311802036
 20
54.4263426491
 30
0.0
 10
36.758811967
 20
57.8499886378
 30
0.0
 10
36.7874267644
 20
61.1968829043
 30
0.0
 10
36.8162273563
 20
64.4620853513
 30
0.0
 10
36.8445487027
 20
67.6407406868
 30
0.0
 10
36.8717959645
 20
70.7283253039
 30
0.0
 10
36.8974923535
 20
73.7206067101
 30
0.0
 10
36.9134899136
 20
75.6832479703
 30
0.0
 10
36.9211605967
 20
76.6479998926
 30
0.0
  0
SPLINE
  5
512
100
AcDbEntity
  8
0
100
AcDbSpline
 62
7
  6
BYLAYER
 70
0
 71
3
 72
12
 73
8
 74
0
 42
0.0000001
 43
0.0000001
 44
0.0000000001
 40
0.0
 40
0.0
 40
0.0
 40
0.0
 40
0.2959648887
 40
0.4326828948
 40
0.5609366978
 40
0.7926872512
 40
1.0
 40
1.0
 40
1.0
 40
1.0
 10
36.9211605967
 20
76.6479998926
 30
0.0
 10
36.9488368499
 20
76.6327818683
 30
0.0
 10
36.9873533681
 20
76.6064674136
 30
0.0
 10
37.0303116378
 20
76.5646106511
 30
0.0
 10
37.0634774655
 20
76.5230939206
 30
0.0
 10
37.0910572756
 20
76.468184412
 30
0.0
 10
37.0987209565
 20
76.4210940208
 30
0.0
 10
37.0987210926
 20
76.3989704085
 30
0.0
  0
SPLINE
  5
513
100
AcDbEntity
  8
0
100
AcDbSpline
 62
7
  6
BYLAYER
 70
0
 71
3
 72
12
 73
8
 74
0
 42
0.0000001
 43
0.0000001
 44
0.0000000001
 40
0.0
 40
0.0
 40
0.0
 40
0.0
 40
0.3100509638
 40
0.590492242
 40
0.81236758
 40
0.9529454436
 40
1.0
 40
1.0
 40
1.0
 40
1.0
 10
36.5987300953
 20
21.2174743457
 30
0.0
 10
36.6504071325
 20
21.2174743433
 30
0.0
 10
36.749797243
 20
21.2183524864
 30
0.0
 10
36.881443702
 20
21.2147813593
 30
0.0
 10
36.9981592865
 20
21.2228090392
 30
0.0
 10
37.0484068353
 20
21.2057930013
 30
0.0
 10
37.0987416065
 20
21.2225587378
 30
0.0
 10
37.0987210925
 20
21.2147160538
 30
0.0
  0
SPLINE
  5
514
100
AcDbEntity
  8
0
100
AcDbSpline
 62
7
  6
BYLAYER
 70
0
 71
3
 72
12
 73
8
 74
0
 42
0.0000001
 43
0.0000001
 44
0.0000000001
 40
0.0
 40
0.0
 40
0.0
 40
0.0
 40
0.2014547156
 40
0.4023489874
 40
0.6023472326
 40
0.8014504899
 40
1.0
 40
1.0
 40
1.0
 40
1.0
 10
36.6030843604
 20
20.7223324789
 30
0.0
 10
36.6549188603
 20
20.7227779592
 30
0.0
 10
36.7590095826
 20
20.7397699969
 30
0.0
 10
36.8992615283
 20
20.8111526103
 30
0.0
 10
37.0107011186
 20
20.9216910179
 30
0.0
 10
37.0822626038
 20
21.0605774469
 30
0.0
 10
37.0987210926
 20
21.1636287318
 30
0.0
 10
37.0987210926
 20
21.2147176061
 30
0.0
  0
SPLINE
  5
515
100
AcDbEntity
  8
0
100
AcDbSpline
 62
7
  6
BYLAYER
 70
0
 71
3
 72
19
 73
15
 74
0
 42
0.0000001
 43
0.0000001
 44
0.0000000001
 40
0.0
 40
0.0
 40
0.0
 40
0.0
 40
0.0182400366
 40
0.0401053818
 40
0.0678354019
 40
0.1029502837
 40
0.1463724445
 40
0.1980843276
 40
0.2577333654
 40
0.3248890902
 40
0.4786473728
 40
0.6495322925
 40
0.82656059
 40
1.0
 40
1.0
 40
1.0
 40
1.0
 10
37.0987182664
 20
14.0950599032
 30
0.0
 10
37.098718844
 20
14.0918844279
 30
0.0
 10
37.0970344466
 20
14.0848619189
 30
0.0
 10
37.0901108803
 20
14.075073347
 30
0.0
 10
37.0788155972
 20
14.06544096
 30
0.0
 10
37.0628662307
 20
14.0559486339
 30
0.0
 10
37.0421244311
 20
14.0467006634
 30
0.0
 10
37.0166877711
 20
14.037743156
 30
0.0
 10
36.986778623
 20
14.0292396648
 30
0.0
 10
36.9391681179
 20
14.018256124
 30
0.0
 10
36.8717916924
 20
14.0072295519
 30
0.0
 10
36.7849278957
 20
13.9978521072
 30
0.0
 10
36.6942961424
 20
13.9924282259
 30
0.0
 10
36.6332791379
 20
13.9911593087
 30
0.0
 10
36.6030844802
 20
13.991104521
 30
0.0
  0
SPLINE
  5
516
100
AcDbEntity
  8
0
100
AcDbSpline
 62
7
  6
BYLAYER
 70
0
 71
3
 72
13
 73
9
 74
0
 42
0.0000001
 43
0.0000001
 44
0.0000000001
 40
0.0
 40
0.0
 40
0.0
 40
0.0
 40
0.2412962572
 40
0.3707887839
 40
0.5024715169
 40
0.6337390982
 40
0.7621041565
 40
1.0
 40
1.0
 40
1.0
 40
1.0
 10
36.6030844706
 20
17.0985487141
 30
0.0
 10
36.6651898019
 20
17.0990824811
 30
0.0
 10
36.7617236724
 20
17.1178237166
 30
0.0
 10
36.8768739788
 20
17.1780205718
 30
0.0
 10
36.9563033621
 20
17.2416292005
 30
0.0
 10
37.0202730038
 20
17.3204059848
 30
0.0
 10
37.080389438
 20
17.4341745581
 30
0.0
 10
37.0987197979
 20
17.5297266818
 30
0.0
 10
37.0987162095
 20
17.5909590689
 30
0.0
  0
SPLINE
  5
517
100
AcDbEntity
  8
0
100
AcDbSpline
 62
7
  6
BYLAYER
 70
0
 71
3
 72
10
 73
6
 74
0
 42
0.0000001
 43
0.0000001
 44
0.0000000001
 40
0.0
 40
0.0
 40
0.0
 40
0.0
 40
0.1270959163
 40
0.4810662158
 40
1.0
 40
1.0
 40
1.0
 40
1.0
 10
31.3987218261
 20
13.3352633152
 30
0.0
 10
31.39872903
 20
13.3421868591
 30
0.0
 10
31.3987045694
 20
13.3683921784
 30
0.0
 10
31.3985252116
 20
13.4228634255
 30
0.0
 10
31.3993935754
 20
13.4704242731
 30
0.0
 10
31.3987210998
 20
13.4986845384
 30
0.0
  0
SPLINE
  5
518
100
AcDbEntity
  8
0
100
AcDbSpline
 62
7
  6
BYLAYER
 70
0
 71
3
 72
11
 73
7
 74
0
 42
0.0000001
 43
0.0000001
 44
0.0000000001
 40
0.0
 40
0.0
 40
0.0
 40
0.0
 40
0.3694809524
 40
0.6968630996
 40
0.9207202306
 40
1.0
 40
1.0
 40
1.0
 40
1.0
 10
31.3987210998
 20
8.2111744226
 30
0.0
 10
31.3994404911
 20
8.24153518
 30
0.0
 10
31.3984105422
 20
8.2988255136
 30
0.0
 10
31.3988023583
 20
8.3744994644
 30
0.0
 10
31.398699055
 20
8.4263252098
 30
0.0
 10
31.3987106629
 20
8.451241407
 30
0.0
 10
31.398721754
 20
8.4577577258
 30
0.0
  0
SPLINE
  5
519
100
AcDbEntity
  8
0
100
AcDbSpline
 62
7
  6
BYLAYER
 70
0
 71
3
 72
14
 73
10
 74
0
 42
0.0000001
 43
0.0000001
 44
0.0000000001
 40
0.0
 40
0.0
 40
0.0
 40
0.0
 40
0.1437545866
 40
0.2866104202
 40
0.4289298497
 40
0.5710701503
 40
0.7133895798
 40
0.8562454134
 40
1.0
 40
1.0
 40
1.0
 40
1.0
 10
27.6487210926
 20
67.2902790929
 30
0.0
 10
27.6495174363
 20
67.4345810195
 30
0.0
 10
27.6853884491
 20
67.7236382928
 30
0.0
 10
27.8481784787
 20
68.1272190698
 30
0.0
 10
28.105390464
 20
68.4761792714
 30
0.0
 10
28.441354931
 20
68.7493645969
 30
0.0
 10
28.8354396142
 20
68.9299981767
 30
0.0
 10
29.2637390117
 20
69.0070544119
 30
0.0
 10
29.5540364681
 20
68.9832169704
 30
0.0
 10
29.6954676465
 20
68.9545655835
 30
0.0
  0
SPLINE
  5
51A
100
AcDbEntity
  8
0
100
AcDbSpline
 62
7
  6
BYLAYER
 70
0
 71
3
 72
12
 73
8
 74
0
 42
0.0000001
 43
0.0000001
 44
0.0000000001
 40
0.0
 40
0.0
 40
0.0
 40
0.0
 40
0.2004993474
 40
0.4002537881
 40
0.5997733794
 40
0.7995185035
 40
1.0
 40
1.0
 40
1.0
 40
1.0
 10
32.695439008
 20
68.3295715498
 30
0.0
 10
32.8467060563
 20
68.2971254879
 30
0.0
 10
33.1422410711
 20
68.1933010931
 30
0.0
 10
33.5244177446
 20
67.9222440192
 30
0.0
 10
33.8195141738
 20
67.5591306363
 30
0.0
 10
34.0066850073
 20
67.1296224193
 30
0.0
 10
34.047889303
 20
66.819124429
 30
0.0
 10
34.0487210926
 20
66.6644327574
 30
0.0
  0
SPLINE
  5
51B
100
AcDbEntity
  8
0
100
AcDbSpline
 62
7
  6
BYLAYER
 70
0
 71
3
 72
12
 73
8
 74
0
 42
0.0000001
 43
0.0000001
 44
0.0000000001
 40
0.0
 40
0.0
 40
0.0
 40
0.0
 40
0.2004993264
 40
0.4002537811
 40
0.5997733864
 40
0.7995185246
 40
1.0
 40
1.0
 40
1.0
 40
1.0
 10
34.0487210926
 20
19.1047209337
 30
0.0
 10
34.0478085966
 20
18.950015969
 30
0.0
 10
34.0064421643
 20
18.639517575
 30
0.0
 10
33.8190291654
 20
18.2100908745
 30
0.0
 10
33.5237344432
 20
17.8471387264
 30
0.0
 10
33.1414286168
 20
17.5763021323
 30
0.0
 10
32.8458609819
 20
17.4726365468
 30
0.0
 10
32.6945905359
 20
17.4402722272
 30
0.0
  0
SPLINE
  5
51C
100
AcDbEntity
  8
0
100
AcDbSpline
 62
7
  6
BYLAYER
 70
0
 71
3
 72
14
 73
10
 74
0
 42
0.0000001
 43
0.0000001
 44
0.0000000001
 40
0.0
 40
0.0
 40
0.0
 40
0.0
 40
0.1437545866
 40
0.2866104202
 40
0.4289298497
 40
0.5710701503
 40
0.7133895798
 40
0.8562454134
 40
1.0
 40
1.0
 40
1.0
 40
1.0
 10
29.6954676465
 20
16.8154549586
 30
0.0
 10
29.5540364681
 20
16.7868035716
 30
0.0
 10
29.2637390117
 20
16.7629661302
 30
0.0
 10
28.8354396142
 20
16.8400223653
 30
0.0
 10
28.441354931
 20
17.0206559451
 30
0.0
 10
28.105390464
 20
17.2938412707
 30
0.0
 10
27.8481784787
 20
17.6428014722
 30
0.0
 10
27.6853884491
 20
18.0463822492
 30
0.0
 10
27.6495174363
 20
18.3354395225
 30
0.0
 10
27.6487210926
 20
18.4797414492
 30
0.0
  0
SPLINE
  5
51D
100
AcDbEntity
  8
0
100
AcDbSpline
 62
7
  6
BYLAYER
 70
0
 71
3
 72
18
 73
14
 74
0
 42
0.0000001
 43
0.0000001
 44
0.0000000001
 40
0.0
 40
0.0
 40
0.0
 40
0.0
 40
0.0912294701
 40
0.1820722478
 40
0.2722845281
 40
0.3625575027
 40
0.4534038637
 40
0.5440478634
 40
0.6348243336
 40
0.7255322164
 40
0.81663329
 40
0.9083829328
 40
1.0
 40
1.0
 40
1.0
 40
1.0
 10
30.8487210926
 20
12.293510271
 30
0.0
 10
30.9820126843
 20
12.2926076419
 30
0.0
 10
31.2496074258
 20
12.25540907
 30
0.0
 10
31.6160148615
 20
12.0870160379
 30
0.0
 10
31.9198001971
 20
11.8241380555
 30
0.0
 10
32.1378184262
 20
11.486622339
 30
0.0
 10
32.2525774421
 20
11.1008317134
 30
0.0
 10
32.254201166
 20
10.6976155379
 30
0.0
 10
32.1424531332
 20
10.3103908991
 30
0.0
 10
31.9259835785
 20
9.9696223621
 30
0.0
 10
31.6210828366
 20
9.7027986003
 30
0.0
 10
31.2520843964
 20
9.5321365426
 30
0.0
 10
30.9825801433
 20
9.4942257668
 30
0.0
 10
30.8487210926
 20
9.493510271
 30
0.0
  0
SPLINE
  5
51E
100
AcDbEntity
  8
0
100
AcDbSpline
 62
7
  6
BYLAYER
 70
0
 71
3
 72
18
 73
14
 74
0
 42
0.0000001
 43
0.0000001
 44
0.0000000001
 40
0.0
 40
0.0
 40
0.0
 40
0.0
 40
0.0912294701
 40
0.1820722478
 40
0.2722845281
 40
0.3625575027
 40
0.4534038637
 40
0.5440478634
 40
0.6348243336
 40
0.7255322164
 40
0.81663329
 40
0.9083829328
 40
1.0
 40
1.0
 40
1.0
 40
1.0
 10
30.8487210926
 20
9.493510271
 30
0.0
 10
30.7154295009
 20
9.4944129001
 30
0.0
 10
30.4478347594
 20
9.531611472
 30
0.0
 10
30.0814273237
 20
9.7000045041
 30
0.0
 10
29.7776419881
 20
9.9628824865
 30
0.0
 10
29.559623759
 20
10.3003982031
 30
0.0
 10
29.4448647431
 20
10.6861888287
 30
0.0
 10
29.4432410192
 20
11.0894050042
 30
0.0
 10
29.554989052
 20
11.476629643
 30
0.0
 10
29.7714586067
 20
11.8173981799
 30
0.0
 10
30.0763593486
 20
12.0842219418
 30
0.0
 10
30.4453577888
 20
12.2548839995
 30
0.0
 10
30.7148620419
 20
12.2927947752
 30
0.0
 10
30.8487210926
 20
12.293510271
 30
0.0
  0
SPLINE
  5
51F
100
AcDbEntity
  8
0
100
AcDbSpline
 62
7
  6
BYLAYER
 70
0
 71
3
 72
18
 73
14
 74
0
 42
0.0000001
 43
0.0000001
 44
0.0000000001
 40
0.0
 40
0.0
 40
0.0
 40
0.0
 40
0.0912294701
 40
0.1820722478
 40
0.2722845281
 40
0.3625575027
 40
0.4534038637
 40
0.5440478634
 40
0.6348243336
 40
0.7255322164
 40
0.81663329
 40
0.9083829328
 40
1.0
 40
1.0
 40
1.0
 40
1.0
 10
30.8487210926
 20
76.276510271
 30
0.0
 10
30.9820126843
 20
76.2756076419
 30
0.0
 10
31.2496074258
 20
76.23840907
 30
0.0
 10
31.6160148615
 20
76.0700160379
 30
0.0
 10
31.9198001971
 20
75.8071380555
 30
0.0
 10
32.1378184262
 20
75.469622339
 30
0.0
 10
32.2525774421
 20
75.0838317134
 30
0.0
 10
32.254201166
 20
74.6806155379
 30
0.0
 10
32.1424531332
 20
74.2933908991
 30
0.0
 10
31.9259835785
 20
73.9526223621
 30
0.0
 10
31.6210828366
 20
73.6857986003
 30
0.0
 10
31.2520843964
 20
73.5151365426
 30
0.0
 10
30.9825801433
 20
73.4772257668
 30
0.0
 10
30.8487210926
 20
73.476510271
 30
0.0
  0
SPLINE
  5
520
100
AcDbEntity
  8
0
100
AcDbSpline
 62
7
  6
BYLAYER
 70
0
 71
3
 72
18
 73
14
 74
0
 42
0.0000001
 43
0.0000001
 44
0.0000000001
 40
0.0
 40
0.0
 40
0.0
 40
0.0
 40
0.0912294701
 40
0.1820722478
 40
0.2722845281
 40
0.3625575027
 40
0.4534038637
 40
0.5440478634
 40
0.6348243336
 40
0.7255322164
 40
0.81663329
 40
0.9083829328
 40
1.0
 40
1.0
 40
1.0
 40
1.0
 10
30.8487210926
 20
73.476510271
 30
0.0
 10
30.7154295009
 20
73.4774129001
 30
0.0
 10
30.4478347594
 20
73.514611472
 30
0.0
 10
30.0814273237
 20
73.6830045041
 30
0.0
 10
29.7776419881
 20
73.9458824865
 30
0.0
 10
29.559623759
 20
74.2833982031
 30
0.0
 10
29.4448647431
 20
74.6691888287
 30
0.0
 10
29.4432410192
 20
75.0724050042
 30
0.0
 10
29.554989052
 20
75.459629643
 30
0.0
 10
29.7714586067
 20
75.8003981799
 30
0.0
 10
30.0763593486
 20
76.0672219418
 30
0.0
 10
30.4453577888
 20
76.2378839995
 30
0.0
 10
30.7148620419
 20
76.2757947752
 30
0.0
 10
30.8487210926
 20
76.276510271
 30
0.0
  0
SPLINE
  5
521
100
AcDbEntity
  8
0
100
AcDbSpline
 62
7
  6
BYLAYER
 70
0
 71
3
 72
11
 73
7
 74
0
 42
0.0000001
 43
0.0000001
 44
0.0000000001
 40
0.0
 40
0.0
 40
0.0
 40
0.0
 40
0.0761847471
 40
0.2929516554
 40
0.6173476573
 40
1.0
 40
1.0
 40
1.0
 40
1.0
 10
30.6504663997
 20
69.7347801285
 30
0.0
 10
30.6507111011
 20
69.7398546974
 30
0.0
 10
30.6513710904
 20
69.7593737798
 30
0.0
 10
30.6511105795
 20
69.8005408734
 30
0.0
 10
30.6510743881
 20
69.8621249298
 30
0.0
 10
30.6506890028
 20
69.9092627762
 30
0.0
 10
30.6504663997
 20
69.9347725131
 30
0.0
  0
SPLINE
  5
522
100
AcDbEntity
  8
0
100
AcDbSpline
 62
7
  6
BYLAYER
 70
0
 71
3
 72
10
 73
6
 74
0
 42
0.0000001
 43
0.0000001
 44
0.0000000001
 40
0.0
 40
0.0
 40
0.0
 40
0.0
 40
0.118364944
 40
0.4634010782
 40
1.0
 40
1.0
 40
1.0
 40
1.0
 10
28.1030878508
 20
69.7121964461
 30
0.0
 10
28.1033240757
 20
69.7036955945
 30
0.0
 10
28.1039468641
 20
69.6704113977
 30
0.0
 10
28.1034384227
 20
69.5985666152
 30
0.0
 10
28.1033025354
 20
69.5352337113
 30
0.0
 10
28.1030811472
 20
69.4966856629
 30
0.0
  0
SPLINE
  5
523
100
AcDbEntity
  8
0
100
AcDbSpline
 62
7
  6
BYLAYER
 70
0
 71
3
 72
10
 73
6
 74
0
 42
0.0000001
 43
0.0000001
 44
0.0000000001
 40
0.0
 40
0.0
 40
0.0
 40
0.0
 40
0.5349463162
 40
0.8800975225
 40
1.0
 40
1.0
 40
1.0
 40
1.0
 10
25.7474153172
 20
69.4771346313
 30
0.0
 10
25.7473524982
 20
69.5155095637
 30
0.0
 10
25.7473050892
 20
69.578644114
 30
0.0
 10
25.7471568027
 20
69.6503807546
 30
0.0
 10
25.747339105
 20
69.683741395
 30
0.0
 10
25.7474091475
 20
69.6923425315
 30
0.0
  0
LINE
  5
524
100
AcDbEntity
  8
0
100
AcDbLine
 62
7
  6
BYLAYER
 10
25.7474153172
 20
69.4771346313
 11
28.1030811472
 21
69.4966856629
  0
SPLINE
  5
525
100
AcDbEntity
  8
0
100
AcDbSpline
 62
7
  6
BYLAYER
 70
0
 71
3
 72
10
 73
6
 74
0
 42
0.0000001
 43
0.0000001
 44
0.0000000001
 40
0.0
 40
0.0
 40
0.0
 40
0.0
 40
0.4895104621
 40
0.7913254464
 40
1.0
 40
1.0
 40
1.0
 40
1.0
 10
28.4732758406
 20
69.5923142906
 30
0.0
 10
28.4978139082
 20
69.5870247881
 30
0.0
 10
28.5371220001
 20
69.5773200776
 30
0.0
 10
28.5845664284
 20
69.5548683674
 30
0.0
 10
28.5987210926
 20
69.5293132406
 30
0.0
 10
28.5987210926
 20
69.5186125763
 30
0.0
  0
SPLINE
  5
526
100
AcDbEntity
  8
0
100
AcDbSpline
 62
7
  6
BYLAYER
 70
0
 71
3
 72
10
 73
6
 74
0
 42
0.0000001
 43
0.0000001
 44
0.0000000001
 40
0.0
 40
0.0
 40
0.0
 40
0.0
 40
0.2096769542
 40
0.5126247977
 40
1.0
 40
1.0
 40
1.0
 40
1.0
 10
28.5987210926
 20
69.5186125763
 30
0.0
 10
28.5987210926
 20
69.5293640922
 30
0.0
 10
28.5844342839
 20
69.5550066485
 30
0.0
 10
28.5369578201
 20
69.577336789
 30
0.0
 10
28.4977160175
 20
69.5870947667
 30
0.0
 10
28.4732762926
 20
69.5923145808
 30
0.0
  0
SPLINE
  5
527
100
AcDbEntity
  8
0
100
AcDbSpline
 62
7
  6
BYLAYER
 70
0
 71
3
 72
10
 73
6
 74
0
 42
0.0000001
 43
0.0000001
 44
0.0000000001
 40
0.0
 40
0.0
 40
0.0
 40
0.0
 40
0.3042436275
 40
0.6426418772
 40
1.0
 40
1.0
 40
1.0
 40
1.0
 10
28.4732762926
 20
69.5923145808
 30
0.0
 10
28.4402803113
 20
69.5711264149
 30
0.0
 10
28.3645073966
 20
69.5356746865
 30
0.0
 10
28.2389759796
 20
69.5041417609
 30
0.0
 10
28.1491427608
 20
69.4967127663
 30
0.0
 10
28.1030843603
 20
69.4964845201
 30
0.0
  0
SPLINE
  5
528
100
AcDbEntity
  8
0
100
AcDbSpline
 62
7
  6
BYLAYER
 70
0
 71
3
 72
12
 73
8
 74
0
 42
0.0000001
 43
0.0000001
 44
0.0000000001
 40
0.0
 40
0.0
 40
0.0
 40
0.0
 40
0.2226895789
 40
0.4371545932
 40
0.6378229638
 40
0.823759957
 40
1.0
 40
1.0
 40
1.0
 40
1.0
 10
28.1030843603
 20
68.9365408892
 30
0.0
 10
28.1546677663
 20
68.9368925779
 30
0.0
 10
28.256306888
 20
68.9498344304
 30
0.0
 10
28.3951953117
 20
69.0048057808
 30
0.0
 10
28.5072505206
 20
69.0910092031
 30
0.0
 10
28.5811463877
 20
69.2016192685
 30
0.0
 10
28.5987210926
 20
69.286326146
 30
0.0
 10
28.5987210926
 20
69.3271510154
 30
0.0
  0
LINE
  5
529
100
AcDbEntity
  8
0
100
AcDbLine
 62
7
  6
BYLAYER
 10
28.1030811697
 20
69.4966856623
 11
25.7474153007
 21
69.4771386531
  0
SPLINE
  5
52A
100
AcDbEntity
  8
0
100
AcDbSpline
 62
7
  6
BYLAYER
 70
0
 71
3
 72
10
 73
6
 74
0
 42
0.0000001
 43
0.0000001
 44
0.0000000001
 40
0.0
 40
0.0
 40
0.0
 40
0.0
 40
0.5365989023
 40
0.8816350283
 40
1.0
 40
1.0
 40
1.0
 40
1.0
 10
28.1030811697
 20
69.4966856623
 30
0.0
 10
28.1033026739
 20
69.5352337103
 30
0.0
 10
28.1034385321
 20
69.5985666094
 30
0.0
 10
28.1039472972
 20
69.6704114088
 30
0.0
 10
28.1033237674
 20
69.7036955941
 30
0.0
 10
28.1030872728
 20
69.7121964425
 30
0.0
  0
SPLINE
  5
52B
100
AcDbEntity
  8
0
100
AcDbSpline
 62
7
  6
BYLAYER
 70
0
 71
3
 72
11
 73
7
 74
0
 42
0.0000001
 43
0.0000001
 44
0.0000000001
 40
0.0
 40
0.0
 40
0.0
 40
0.0
 40
0.2587542802
 40
0.507899301
 40
0.7623881167
 40
1.0
 40
1.0
 40
1.0
 40
1.0
 10
24.776278196
 20
76.6479794314
 30
0.0
 10
25.1649892685
 20
76.6617516618
 30
0.0
 10
25.9277839066
 20
76.695013441
 30
0.0
 10
27.0716013312
 20
76.7664970045
 30
0.0
 10
28.1829459151
 20
76.846625184
 30
0.0
 10
28.9212614193
 20
76.8924136623
 30
0.0
 10
29.2778488621
 20
76.9128764275
 30
0.0
  0
SPLINE
  5
52C
100
AcDbEntity
  8
0
100
AcDbSpline
 62
7
  6
BYLAYER
 70
0
 71
3
 72
19
 73
15
 74
0
 42
0.0000001
 43
0.0000001
 44
0.0000000001
 40
0.0
 40
0.0
 40
0.0
 40
0.0
 40
0.0823033355
 40
0.1704686752
 40
0.262304101
 40
0.3321097592
 40
0.4118410964
 40
0.4873527174
 40
0.5705212281
 40
0.6582682353
 40
0.756619508
 40
0.8422302913
 40
0.9209004584
 40
1.0
 40
1.0
 40
1.0
 40
1.0
 10
29.2778488621
 20
76.9128764275
 30
0.0
 10
29.138544975
 20
76.8080087165
 30
0.0
 10
28.8774676552
 20
76.553365696
 30
0.0
 10
28.5662725986
 20
76.0879223421
 30
0.0
 10
28.382794875
 20
75.5854149277
 30
0.0
 10
28.3125132778
 20
75.0762772954
 30
0.0
 10
28.3416475265
 20
74.5966508903
 30
0.0
 10
28.4751628699
 20
74.1061865102
 30
0.0
 10
28.715383214
 20
73.6379528354
 30
0.0
 10
29.0839470675
 20
73.1963211475
 30
0.0
 10
29.5515589467
 20
72.8500330411
 30
0.0
 10
30.0666551368
 20
72.6288699727
 30
0.0
 10
30.5747348887
 20
72.5242266496
 30
0.0
 10
30.9114199437
 20
72.5219883217
 30
0.0
 10
31.0783716918
 20
72.5364462909
 30
0.0
  0
SPLINE
  5
52D
100
AcDbEntity
  8
0
100
AcDbSpline
 62
7
  6
BYLAYER
 70
0
 71
3
 72
23
 73
19
 74
0
 42
0.0000001
 43
0.0000001
 44
0.0000000001
 40
0.0
 40
0.0
 40
0.0
 40
0.0
 40
0.0522143657
 40
0.1062226418
 40
0.1619500903
 40
0.2193235037
 40
0.2782613512
 40
0.3386729514
 40
0.4004670153
 40
0.4635575944
 40
0.5278509447
 40
0.5932136068
 40
0.6595022792
 40
0.7265852549
 40
0.7943297374
 40
0.8625847803
 40
0.9311937901
 40
1.0
 40
1.0
 40
1.0
 40
1.0
 10
24.7762866926
 20
76.6479746083
 30
0.0
 10
24.7839572184
 20
75.6832287874
 30
0.0
 10
24.7999540708
 20
73.7205947994
 30
0.0
 10
24.8256471186
 20
70.7283176198
 30
0.0
 10
24.8528914031
 20
67.6407255237
 30
0.0
 10
24.8812102023
 20
64.4620546088
 30
0.0
 10
24.9100113827
 20
61.1968344555
 30
0.0
 10
24.9386291026
 20
57.8499282349
 30
0.0
 10
24.9662636311
 20
54.426280161
 30
0.0
 10
24.9922806596
 20
50.9308933224
 30
0.0
 10
25.0160851349
 20
47.3695513598
 30
0.0
 10
25.0373532893
 20
43.7491003765
 30
0.0
 10
25.0557043146
 20
40.0770882055
 30
0.0
 10
25.0709865956
 20
36.3610521791
 30
0.0
 10
25.0830697625
 20
32.6086711127
 30
0.0
 10
25.0918739052
 20
28.8280839702
 30
0.0
 10
25.0973241221
 20
25.0278727179
 30
0.0
 10
25.0986338682
 20
22.4888214139
 30
0.0
 10
25.098721383
 20
21.2174739486
 30
0.0
  0
SPLINE
  5
52E
100
AcDbEntity
  8
0
100
AcDbSpline
 62
7
  6
BYLAYER
 70
0
 71
3
 72
12
 73
8
 74
0
 42
0.0000001
 43
0.0000001
 44
0.0000000001
 40
0.0
 40
0.0
 40
0.0
 40
0.0
 40
0.3094417131
 40
0.5879440886
 40
0.808838976
 40
0.9508783698
 40
1.0
 40
1.0
 40
1.0
 40
1.0
 10
25.0987188596
 20
21.2174739555
 30
0.0
 10
25.047142759
 20
21.217473955
 30
0.0
 10
24.9481894318
 20
21.2184163125
 30
0.0
 10
24.8170664227
 20
21.2147153877
 30
0.0
 10
24.7007145296
 20
21.2228469208
 30
0.0
 10
24.6500950373
 20
21.2056217226
 30
0.0
 10
24.5986879507
 20
21.2229025968
 30
0.0
 10
24.5987210928
 20
21.2147153316
 30
0.0
  0
SPLINE
  5
52F
100
AcDbEntity
  8
0
100
AcDbSpline
 62
7
  6
BYLAYER
 70
0
 71
3
 72
12
 73
8
 74
0
 42
0.0000001
 43
0.0000001
 44
0.0000000001
 40
0.0
 40
0.0
 40
0.0
 40
0.0
 40
0.2957641976
 40
0.432444533
 40
0.5606954256
 40
0.7925274618
 40
1.0
 40
1.0
 40
1.0
 40
1.0
 10
24.7762605591
 20
76.6479876633
 30
0.0
 10
24.748605939
 20
76.6327806563
 30
0.0
 10
24.71011355
 20
76.6064853669
 30
0.0
 10
24.6671699721
 20
76.5646584
 30
0.0
 10
24.6339953362
 20
76.5231492551
 30
0.0
 10
24.6063947332
 20
76.4682276477
 30
0.0
 10
24.5987205587
 20
76.4211154119
 30
0.0
 10
24.5987210927
 20
76.3989767452
 30
0.0
  0
SPLINE
  5
530
100
AcDbEntity
  8
0
100
AcDbSpline
 62
7
  6
BYLAYER
 70
0
 71
3
 72
13
 73
9
 74
0
 42
0.0000001
 43
0.0000001
 44
0.0000000001
 40
0.0
 40
0.0
 40
0.0
 40
0.0
 40
0.2633794244
 40
0.5150214556
 40
0.6877793102
 40
0.8350383972
 40
0.9429115464
 40
1.0
 40
1.0
 40
1.0
 40
1.0
 10
24.7762534819
 20
76.647998517
 30
0.0
 10
24.7872736015
 20
76.827028268
 30
0.0
 10
24.8010823443
 20
77.1772779218
 30
0.0
 10
24.8402246925
 20
77.6452774122
 30
0.0
 10
24.883623111
 20
78.0294977464
 30
0.0
 10
24.9371945214
 20
78.3237518826
 30
0.0
 10
24.9845310448
 20
78.5134399202
 30
0.0
 10
25.055480505
 20
78.6359534262
 30
0.0
 10
25.0943578248
 20
78.6362927036
 30
0.0
  0
SPLINE
  5
531
100
AcDbEntity
  8
0
100
AcDbSpline
 62
7
  6
BYLAYER
 70
0
 71
3
 72
11
 73
7
 74
0
 42
0.0000001
 43
0.0000001
 44
0.0000000001
 40
0.0
 40
0.0
 40
0.0
 40
0.0
 40
0.0937645994
 40
0.3017817024
 40
0.6087891892
 40
1.0
 40
1.0
 40
1.0
 40
1.0
 10
31.2987210926
 20
78.6825831805
 30
0.0
 10
31.2987418025
 20
78.6434179059
 30
0.0
 10
31.2987553434
 20
78.5173641966
 30
0.0
 10
31.298635455
 20
78.2630737281
 30
0.0
 10
31.2991969856
 20
77.8845431218
 30
0.0
 10
31.2973859944
 20
77.5928911098
 30
0.0
 10
31.2987227423
 20
77.4294885174
 30
0.0
  0
SPLINE
  5
532
100
AcDbEntity
  8
0
100
AcDbSpline
 62
7
  6
BYLAYER
 70
0
 71
3
 72
23
 73
19
 74
0
 42
0.0000001
 43
0.0000001
 44
0.0000000001
 40
0.0
 40
0.0
 40
0.0
 40
0.0
 40
0.0188592321
 40
0.0307922087
 40
0.0450605556
 40
0.0702620271
 40
0.1008091819
 40
0.1759267354
 40
0.2192714651
 40
0.2654144599
 40
0.3133937841
 40
0.3624148174
 40
0.4136793112
 40
0.4686843865
 40
0.5879022546
 40
0.7145642684
 40
0.84075986
 40
1.0
 40
1.0
 40
1.0
 40
1.0
 10
29.4489387374
 20
76.6445271883
 30
0.0
 10
29.4505375774
 20
76.6458171251
 30
0.0
 10
29.4522488427
 20
76.6490140296
 30
0.0
 10
29.4529210355
 20
76.6538702277
 30
0.0
 10
29.4527756957
 20
76.659497194
 30
0.0
 10
29.4513798563
 20
76.6670202582
 30
0.0
 10
29.4473158037
 20
76.6806992196
 30
0.0
 10
29.4409181722
 20
76.6956689807
 30
0.0
 10
29.4328809989
 20
76.7116950677
 30
0.0
 10
29.4256790028
 20
76.7248283417
 30
0.0
 10
29.4177832747
 20
76.7382755857
 30
0.0
 10
29.4092503904
 20
76.7519897114
 30
0.0
 10
29.3999897049
 20
76.7661468637
 30
0.0
 10
29.3861045929
 20
76.7864096147
 30
0.0
 10
29.3667292134
 20
76.8128570112
 30
0.0
 10
29.3414485789
 20
76.8445510175
 30
0.0
 10
29.3120659087
 20
76.8785002207
 30
0.0
 10
29.2904327783
 20
76.9008814957
 30
0.0
 10
29.2778521355
 20
76.9128233169
 30
0.0
  0
SPLINE
  5
533
100
AcDbEntity
  8
0
100
AcDbSpline
 62
7
  6
BYLAYER
 70
0
 71
3
 72
12
 73
8
 74
0
 42
0.0000001
 43
0.0000001
 44
0.0000000001
 40
0.0
 40
0.0
 40
0.0
 40
0.0
 40
0.2382620736
 40
0.5131639492
 40
0.7644546547
 40
0.9386499025
 40
1.0
 40
1.0
 40
1.0
 40
1.0
 10
31.2987181876
 20
77.4294382747
 30
0.0
 10
31.2995105878
 20
77.4021896769
 30
0.0
 10
31.2983089438
 20
77.3434596493
 30
0.0
 10
31.2987991642
 20
77.2560044711
 30
0.0
 10
31.2987223245
 20
77.1758695773
 30
0.0
 10
31.2987137761
 20
77.1201698106
 30
0.0
 10
31.2987262017
 20
77.0932205403
 30
0.0
 10
31.2987306702
 20
77.0862013177
 30
0.0
  0
SPLINE
  5
534
100
AcDbEntity
  8
0
100
AcDbSpline
 62
7
  6
BYLAYER
 70
0
 71
3
 72
12
 73
8
 74
0
 42
0.0000001
 43
0.0000001
 44
0.0000000001
 40
0.0
 40
0.0
 40
0.0
 40
0.0
 40
0.2014549317
 40
0.4023496237
 40
0.6023481824
 40
0.8014513246
 40
1.0
 40
1.0
 40
1.0
 40
1.0
 10
25.0943578248
 20
20.7223324789
 30
0.0
 10
25.0425232693
 20
20.7227779597
 30
0.0
 10
24.9384323813
 20
20.7397700417
 30
0.0
 10
24.7981802517
 20
20.8111528654
 30
0.0
 10
24.6867406784
 20
20.9216915321
 30
0.0
 10
24.6151794697
 20
21.0605779151
 30
0.0
 10
24.5987210926
 20
21.1636289466
 30
0.0
 10
24.5987210926
 20
21.2147176061
 30
0.0
  0
SPLINE
  5
535
100
AcDbEntity
  8
0
100
AcDbSpline
 62
7
  6
BYLAYER
 70
0
 71
3
 72
10
 73
6
 74
0
 42
0.0000001
 43
0.0000001
 44
0.0000000001
 40
0.0
 40
0.0
 40
0.0
 40
0.0
 40
0.3326439965
 40
0.6649861911
 40
1.0
 40
1.0
 40
1.0
 40
1.0
 10
30.851577862
 20
21.1659719838
 30
0.0
 10
30.9011595231
 20
21.1661621092
 30
0.0
 10
31.0002785212
 20
21.1667243848
 30
0.0
 10
31.1493142515
 20
21.1691873304
 30
0.0
 10
31.2487862779
 20
21.169770919
 30
0.0
 10
31.2987210926
 20
21.1699809483
 30
0.0
  0
LINE
  5
536
100
AcDbEntity
  8
0
100
AcDbLine
 62
7
  6
BYLAYER
 10
31.2987210926
 20
21.1699809483
 11
31.2987210912
 21
20.6753979694
  0
SPLINE
  5
537
100
AcDbEntity
  8
0
100
AcDbSpline
 62
7
  6
BYLAYER
 70
0
 71
3
 72
11
 73
7
 74
0
 42
0.0000001
 43
0.0000001
 44
0.0000000001
 40
0.0
 40
0.0
 40
0.0
 40
0.0
 40
0.1209891357
 40
0.3474201781
 40
0.6521985375
 40
1.0
 40
1.0
 40
1.0
 40
1.0
 10
30.8487210924
 20
20.6714136704
 30
0.0
 10
30.8489298889
 20
20.6913584769
 30
0.0
 10
30.8493723993
 20
20.7486315045
 30
0.0
 10
30.8502973959
 20
20.8561467505
 30
0.0
 10
30.8519526493
 20
21.0010499867
 30
0.0
 10
30.851768348
 20
21.1086348134
 30
0.0
 10
30.851577862
 20
21.1659719838
 30
0.0
  0
SPLINE
  5
538
100
AcDbEntity
  8
0
100
AcDbSpline
 62
7
  6
BYLAYER
 70
0
 71
3
 72
11
 73
7
 74
0
 42
0.0000001
 43
0.0000001
 44
0.0000000001
 40
0.0
 40
0.0
 40
0.0
 40
0.0
 40
0.2687030777
 40
0.5285138913
 40
0.7754074715
 40
1.0
 40
1.0
 40
1.0
 40
1.0
 10
30.8487210926
 20
22.8163841426
 30
0.0
 10
30.5696798107
 20
22.8185980189
 30
0.0
 10
30.0208502926
 20
22.8319378119
 30
0.0
 10
29.2168731208
 20
22.8810797006
 30
0.0
 10
28.4611836728
 20
22.958466268
 30
0.0
 10
27.9765439172
 20
23.0304459272
 30
0.0
 10
27.7472014559
 20
23.0729120708
 30
0.0
  0
SPLINE
  5
539
100
AcDbEntity
  8
0
100
AcDbSpline
 62
7
  6
BYLAYER
 70
0
 71
3
 72
11
 73
7
 74
0
 42
0.0000001
 43
0.0000001
 44
0.0000000001
 40
0.0
 40
0.0
 40
0.0
 40
0.0
 40
0.2314770672
 40
0.4793286438
 40
0.7362099847
 40
1.0
 40
1.0
 40
1.0
 40
1.0
 10
27.7472014559
 20
23.0729120708
 30
0.0
 10
27.9721847435
 20
23.1701790504
 30
0.0
 10
28.4518905156
 20
23.3402007045
 30
0.0
 10
29.2109915961
 20
23.5227085071
 30
0.0
 10
30.0179537721
 20
23.6364152486
 30
0.0
 10
30.5694051774
 20
23.664230016
 30
0.0
 10
30.8487210926
 20
23.6664470156
 30
0.0
  0
SPLINE
  5
53A
100
AcDbEntity
  8
0
100
AcDbSpline
 62
7
  6
BYLAYER
 70
0
 71
3
 72
11
 73
7
 74
0
 42
0.0000001
 43
0.0000001
 44
0.0000000001
 40
0.0
 40
0.0
 40
0.0
 40
0.0
 40
0.2687030778
 40
0.5285138914
 40
0.7754074716
 40
1.0
 40
1.0
 40
1.0
 40
1.0
 10
30.8487210926
 20
24.7859996486
 30
0.0
 10
30.5696798106
 20
24.788213525
 30
0.0
 10
30.0208502924
 20
24.8015533179
 30
0.0
 10
29.2168731205
 20
24.8506952066
 30
0.0
 10
28.4611836726
 20
24.928081774
 30
0.0
 10
27.9765439171
 20
25.0000614332
 30
0.0
 10
27.7472014559
 20
25.0425275769
 30
0.0
  0
SPLINE
  5
53B
100
AcDbEntity
  8
0
100
AcDbSpline
 62
7
  6
BYLAYER
 70
0
 71
3
 72
11
 73
7
 74
0
 42
0.0000001
 43
0.0000001
 44
0.0000000001
 40
0.0
 40
0.0
 40
0.0
 40
0.0
 40
0.2314770695
 40
0.4793286486
 40
0.7362099921
 40
1.0
 40
1.0
 40
1.0
 40
1.0
 10
27.7472014559
 20
25.0425275769
 30
0.0
 10
27.9721847435
 20
25.1397945564
 30
0.0
 10
28.4518905155
 20
25.3098162105
 30
0.0
 10
29.210991596
 20
25.4923240131
 30
0.0
 10
30.0179537614
 20
25.606030753
 30
0.0
 10
30.569405156
 20
25.6338455211
 30
0.0
 10
30.8487210606
 20
25.6360625204
 30
0.0
  0
SPLINE
  5
53C
100
AcDbEntity
  8
0
100
AcDbSpline
 62
7
  6
BYLAYER
 70
0
 71
3
 72
23
 73
19
 74
0
 42
0.0000001
 43
0.0000001
 44
0.0000000001
 40
0.0
 40
0.0
 40
0.0
 40
0.0
 40
0.1697886439
 40
0.3354163741
 40
0.492752476
 40
0.5669207146
 40
0.6373330097
 40
0.7034210894
 40
0.7645823084
 40
0.8202177084
 40
0.8697536662
 40
0.9126907547
 40
0.9315867447
 40
0.9487315876
 40
0.9641151896
 40
0.9777483594
 40
0.9896759481
 40
1.0
 40
1.0
 40
1.0
 40
1.0
 10
30.8487207845
 20
25.7526624021
 30
0.0
 10
30.5631834382
 20
25.7551835519
 30
0.0
 10
29.9990078661
 20
25.752657375
 30
0.0
 10
29.1706235107
 20
25.7262536682
 30
0.0
 10
28.5038773209
 20
25.6848839086
 30
0.0
 10
27.9981085996
 20
25.6396531372
 30
0.0
 10
27.6459001194
 20
25.6009548763
 30
0.0
 10
27.3163654128
 20
25.5569501736
 30
0.0
 10
27.0126746672
 20
25.5079588596
 30
0.0
 10
26.7380588314
 20
25.45433552
 30
0.0
 10
26.495711629
 20
25.3964372026
 30
0.0
 10
26.3160721353
 20
25.3428586859
 30
0.0
 10
26.191268864
 20
25.2972880369
 30
0.0
 10
26.1114898001
 20
25.2637937617
 30
0.0
 10
26.0417333716
 20
25.2295993281
 30
0.0
 10
25.9822381633
 20
25.1947596247
 30
0.0
 10
25.9332483941
 20
25.1593393654
 30
0.0
 10
25.905873099
 20
25.1335597093
 30
0.0
 10
25.8944207674
 20
25.1205093001
 30
0.0
  0
SPLINE
  5
53D
100
AcDbEntity
  8
0
100
AcDbSpline
 62
7
  6
BYLAYER
 70
0
 71
3
 72
19
 73
15
 74
0
 42
0.0000001
 43
0.0000001
 44
0.0000000001
 40
0.0
 40
0.0
 40
0.0
 40
0.0
 40
0.0248669577
 40
0.05512108
 40
0.0910787856
 40
0.1328199288
 40
0.1802854413
 40
0.2332718615
 40
0.2915133531
 40
0.3547177607
 40
0.4947583768
 40
0.6508032677
 40
0.8201421365
 40
1.0
 40
1.0
 40
1.0
 40
1.0
 10
25.894421146
 20
24.9097035658
 30
0.0
 10
25.9109730111
 20
24.890543556
 30
0.0
 10
25.9532468201
 20
24.8529411211
 30
0.0
 10
26.031357328
 20
24.8026255182
 30
0.0
 10
26.1296772125
 20
24.7531171537
 30
0.0
 10
26.2476518448
 20
24.7046896548
 30
0.0
 10
26.3846253155
 20
24.6575920263
 30
0.0
 10
26.5396777175
 20
24.6119784014
 30
0.0
 10
26.7117950687
 20
24.5680369119
 30
0.0
 10
26.9716572739
 20
24.509947606
 30
0.0
 10
27.3316419471
 20
24.444078998
 30
0.0
 10
27.8007268277
 20
24.3762068109
 30
0.0
 10
28.3119264869
 20
24.3180261925
 30
0.0
 10
28.666141414
 20
24.2868081949
 30
0.0
 10
28.8487300225
 20
24.2727366209
 30
0.0
  0
SPLINE
  5
53E
100
AcDbEntity
  8
0
100
AcDbSpline
 62
7
  6
BYLAYER
 70
0
 71
3
 72
10
 73
6
 74
0
 42
0.0000001
 43
0.0000001
 44
0.0000000001
 40
0.0
 40
0.0
 40
0.0
 40
0.0
 40
0.3321773733
 40
0.6694815846
 40
1.0
 40
1.0
 40
1.0
 40
1.0
 10
30.7026649287
 20
22.4052790469
 30
0.0
 10
30.7028249282
 20
22.4392548766
 30
0.0
 10
30.7145569598
 20
22.5082661596
 30
0.0
 10
30.765953427
 20
22.599070336
 30
0.0
 10
30.8195462926
 20
22.6440191877
 30
0.0
 10
30.8487210926
 20
22.6610987669
 30
0.0
  0
SPLINE
  5
53F
100
AcDbEntity
  8
0
100
AcDbSpline
 62
7
  6
BYLAYER
 70
0
 71
3
 72
10
 73
6
 74
0
 42
0.0000001
 43
0.0000001
 44
0.0000000001
 40
0.0
 40
0.0
 40
0.0
 40
0.0
 40
0.3230565216
 40
0.6614205385
 40
1.0
 40
1.0
 40
1.0
 40
1.0
 10
33.3974005381
 20
23.6984455964
 30
0.0
 10
33.3970524997
 20
23.6786525826
 30
0.0
 10
33.3889728553
 20
23.6379165494
 30
0.0
 10
33.3563705809
 20
23.5846538564
 30
0.0
 10
33.3236196661
 20
23.5578406054
 30
0.0
 10
33.305745683
 20
23.5473063599
 30
0.0
  0
SPLINE
  5
540
100
AcDbEntity
  8
0
100
AcDbSpline
 62
7
  6
BYLAYER
 70
0
 71
3
 72
10
 73
6
 74
0
 42
0.0000001
 43
0.0000001
 44
0.0000000001
 40
0.0
 40
0.0
 40
0.0
 40
0.0
 40
0.3288488854
 40
0.6580114463
 40
1.0
 40
1.0
 40
1.0
 40
1.0
 10
33.3057457803
 20
22.9114179424
 30
0.0
 10
33.3229753877
 20
22.9072884685
 30
0.0
 10
33.3565274518
 20
22.8919442573
 30
0.0
 10
33.3902534176
 20
22.8472461675
 30
0.0
 10
33.3971315112
 20
22.8105336975
 30
0.0
 10
33.3974005381
 20
22.7921101692
 30
0.0
  0
LINE
  5
541
100
AcDbEntity
  8
0
100
AcDbLine
 62
7
  6
BYLAYER
 10
33.3974005381
 20
22.7261823008
 11
33.5487210926
 21
22.7531090854
  0
LINE
  5
542
100
AcDbEntity
  8
0
100
AcDbLine
 62
7
  6
BYLAYER
 10
33.5487210926
 20
25.7596152192
 11
33.3973995381
 21
25.7342055189
  0
SPLINE
  5
543
100
AcDbEntity
  8
0
100
AcDbSpline
 62
7
  6
BYLAYER
 70
0
 71
3
 72
10
 73
6
 74
0
 42
0.0000001
 43
0.0000001
 44
0.0000000001
 40
0.0
 40
0.0
 40
0.0
 40
0.0
 40
0.3230365392
 40
0.6614101764
 40
1.0
 40
1.0
 40
1.0
 40
1.0
 10
33.3974005381
 20
25.6680611024
 30
0.0
 10
33.3970532897
 20
25.6482693034
 30
0.0
 10
33.3889734983
 20
25.607533847
 30
0.0
 10
33.3563717321
 20
25.5542709721
 30
0.0
 10
33.3236201017
 20
25.5274566146
 30
0.0
 10
33.3057456829
 20
25.5169218659
 30
0.0
  0
SPLINE
  5
544
100
AcDbEntity
  8
0
100
AcDbSpline
 62
7
  6
BYLAYER
 70
0
 71
3
 72
10
 73
6
 74
0
 42
0.0000001
 43
0.0000001
 44
0.0000000001
 40
0.0
 40
0.0
 40
0.0
 40
0.0
 40
0.3288521534
 40
0.6580165773
 40
1.0
 40
1.0
 40
1.0
 40
1.0
 10
33.3057457803
 20
24.8810334484
 30
0.0
 10
33.3229755237
 20
24.8769038342
 30
0.0
 10
33.3565277867
 20
24.8615593928
 30
0.0
 10
33.3902534344
 20
24.8168611452
 30
0.0
 10
33.3971316287
 20
24.7801489172
 30
0.0
 10
33.3974005381
 20
24.7617256753
 30
0.0
  0
SPLINE
  5
545
100
AcDbEntity
  8
0
100
AcDbSpline
 62
7
  6
BYLAYER
 70
0
 71
3
 72
11
 73
7
 74
0
 42
0.0000001
 43
0.0000001
 44
0.0000000001
 40
0.0
 40
0.0
 40
0.0
 40
0.0
 40
0.261292236
 40
0.5181203598
 40
0.7657398301
 40
1.0
 40
1.0
 40
1.0
 40
1.0
 10
30.8482545719
 20
23.5801833665
 30
0.0
 10
30.5730073849
 20
23.585174463
 30
0.0
 10
30.0264672265
 20
23.5716514443
 30
0.0
 10
29.2238859774
 20
23.4794254977
 30
0.0
 10
28.4612233864
 20
23.3184647053
 30
0.0
 10
27.9768296991
 20
23.1623950436
 30
0.0
 10
27.7468108457
 20
23.0729105318
 30
0.0
  0
SPLINE
  5
546
100
AcDbEntity
  8
0
100
AcDbSpline
 62
7
  6
BYLAYER
 70
0
 71
3
 72
11
 73
7
 74
0
 42
0.0000001
 43
0.0000001
 44
0.0000000001
 40
0.0
 40
0.0
 40
0.0
 40
0.0
 40
0.228173703
 40
0.4750673879
 40
0.7345494436
 40
1.0
 40
1.0
 40
1.0
 40
1.0
 10
27.7468183771
 20
23.0729105615
 30
0.0
 10
27.9806863129
 20
23.0373305861
 30
0.0
 10
28.4696781653
 20
22.9765369308
 30
0.0
 10
29.2290132335
 20
22.9160498135
 30
0.0
 10
30.0287188006
 20
22.8833679476
 30
0.0
 10
30.5730716143
 20
22.880940017
 30
0.0
 10
30.8482544978
 20
22.8844859289
 30
0.0
  0
SPLINE
  5
547
100
AcDbEntity
  8
0
100
AcDbSpline
 62
7
  6
BYLAYER
 70
0
 71
3
 72
10
 73
6
 74
0
 42
0.0000001
 43
0.0000001
 44
0.0000000001
 40
0.0
 40
0.0
 40
0.0
 40
0.0
 40
0.3297978682
 40
0.6626861207
 40
1.0
 40
1.0
 40
1.0
 40
1.0
 10
30.8487210926
 20
22.6610987669
 30
0.0
 10
30.8636069683
 20
22.6694975745
 30
0.0
 10
30.8949760503
 20
22.6839073736
 30
0.0
 10
30.9451474175
 20
22.6977728666
 30
0.0
 10
30.9799324531
 20
22.7010288969
 30
0.0
 10
30.9974121123
 20
22.7012689114
 30
0.0
  0
SPLINE
  5
548
100
AcDbEntity
  8
0
100
AcDbSpline
 62
7
  6
BYLAYER
 70
0
 71
3
 72
11
 73
7
 74
0
 42
0.0000001
 43
0.0000001
 44
0.0000000001
 40
0.0
 40
0.0
 40
0.0
 40
0.0
 40
0.3369898571
 40
0.64459674
 40
0.8776772125
 40
1.0
 40
1.0
 40
1.0
 40
1.0
 10
33.3973985498
 20
25.7342058036
 30
0.0
 10
33.3972155729
 20
25.753772925
 30
0.0
 10
33.3969949303
 20
25.7912010816
 30
0.0
 10
33.3967485149
 20
25.8421687287
 30
0.0
 10
33.3970021891
 20
25.8806589556
 30
0.0
 10
33.3970172303
 20
25.9013082444
 30
0.0
 10
33.3973975631
 20
25.908400967
 30
0.0
  0
LINE
  5
549
100
AcDbEntity
  8
0
100
AcDbLine
 62
7
  6
BYLAYER
 10
30.8500299703
 20
25.9264334526
 11
30.8487207845
 21
25.7526624021
  0
SPLINE
  5
54A
100
AcDbEntity
  8
0
100
AcDbSpline
 62
7
  6
BYLAYER
 70
0
 71
3
 72
10
 73
6
 74
0
 42
0.0000001
 43
0.0000001
 44
0.0000000001
 40
0.0
 40
0.0
 40
0.0
 40
0.0
 40
0.3821403174
 40
0.7264212855
 40
1.0
 40
1.0
 40
1.0
 40
1.0
 10
30.997434122
 20
26.0030829686
 30
0.0
 10
30.966207974
 20
26.0034394716
 30
0.0
 10
30.9068435668
 20
26.0055590341
 30
0.0
 10
30.8254570391
 20
26.0132910017
 30
0.0
 10
30.7755958013
 20
26.0219812527
 30
0.0
 10
30.7539264177
 20
26.0274818262
 30
0.0
  0
SPLINE
  5
54B
100
AcDbEntity
  8
0
100
AcDbSpline
 62
7
  6
BYLAYER
 70
0
 71
3
 72
10
 73
6
 74
0
 42
0.0000001
 43
0.0000001
 44
0.0000000001
 40
0.0
 40
0.0
 40
0.0
 40
0.0
 40
0.3122024519
 40
0.6478860764
 40
1.0
 40
1.0
 40
1.0
 40
1.0
 10
30.7539264177
 20
26.0274818262
 30
0.0
 10
30.7432501863
 20
26.0241423433
 30
0.0
 10
30.7210147973
 20
26.0174637797
 30
0.0
 10
30.6864674984
 20
26.0079561604
 30
0.0
 10
30.662667895
 20
26.0015599832
 30
0.0
 10
30.6504666826
 20
25.998350094
 30
0.0
  0
SPLINE
  5
54C
100
AcDbEntity
  8
0
100
AcDbSpline
 62
7
  6
BYLAYER
 70
0
 71
3
 72
14
 73
10
 74
0
 42
0.0000001
 43
0.0000001
 44
0.0000000001
 40
0.0
 40
0.0
 40
0.0
 40
0.0
 40
0.0580329725
 40
0.1456730236
 40
0.2611587487
 40
0.4308819532
 40
0.5868300168
 40
0.7787620574
 40
1.0
 40
1.0
 40
1.0
 40
1.0
 10
25.7474121123
 20
25.2721202765
 30
0.0
 10
25.817100109
 20
25.3444956925
 30
0.0
 10
26.0471075745
 20
25.4661222176
 30
0.0
 10
26.4798030861
 20
25.5917900121
 30
0.0
 10
27.1149044678
 20
25.7160022115
 30
0.0
 10
27.8730197598
 20
25.8096543139
 30
0.0
 10
28.766565611
 20
25.8807285985
 30
0.0
 10
29.751134371
 20
25.9239960512
 30
0.0
 10
30.4665943529
 20
25.9284687283
 30
0.0
 10
30.8496162634
 20
25.9264360806
 30
0.0
  0
SPLINE
  5
54D
100
AcDbEntity
  8
0
100
AcDbSpline
 62
7
  6
BYLAYER
 70
0
 71
3
 72
11
 73
7
 74
0
 42
0.0000001
 43
0.0000001
 44
0.0000000001
 40
0.0
 40
0.0
 40
0.0
 40
0.0
 40
0.1213594549
 40
0.3495728932
 40
0.6551931883
 40
1.0
 40
1.0
 40
1.0
 40
1.0
 10
30.6504666795
 20
25.9983503537
 30
0.0
 10
30.650879044
 20
26.01945174
 30
0.0
 10
30.6508962498
 20
26.080250117
 30
0.0
 10
30.6511544339
 20
26.1941902292
 30
0.0
 10
30.6509055577
 20
26.3469945374
 30
0.0
 10
30.6506702719
 20
26.4601085767
 30
0.0
 10
30.6504664392
 20
26.5200729927
 30
0.0
  0
SPLINE
  5
54E
100
AcDbEntity
  8
0
100
AcDbSpline
 62
7
  6
BYLAYER
 70
0
 71
3
 72
11
 73
7
 74
0
 42
0.0000001
 43
0.0000001
 44
0.0000000001
 40
0.0
 40
0.0
 40
0.0
 40
0.0
 40
0.3446551323
 40
0.650336479
 40
0.8786082516
 40
1.0
 40
1.0
 40
1.0
 40
1.0
 10
25.7474113645
 20
26.5556895957
 30
0.0
 10
25.7472802894
 20
26.4957405048
 30
0.0
 10
25.747066263
 20
26.3826214646
 30
0.0
 10
25.7469154368
 20
26.2297960454
 30
0.0
 10
25.7470498555
 20
26.1158066664
 30
0.0
 10
25.7471460001
 20
26.0549847197
 30
0.0
 10
25.7474120967
 20
26.0338715438
 30
0.0
  0
LINE
  5
54F
100
AcDbEntity
  8
0
100
AcDbLine
 62
7
  6
BYLAYER
 10
25.7474113645
 20
26.5556895957
 11
30.6504664392
 21
26.5200729927
  0
SPLINE
  5
550
100
AcDbEntity
  8
0
100
AcDbSpline
 62
7
  6
BYLAYER
 70
0
 71
3
 72
11
 73
7
 74
0
 42
0.0000001
 43
0.0000001
 44
0.0000000001
 40
0.0
 40
0.0
 40
0.0
 40
0.0
 40
0.3816722001
 40
0.7047894469
 40
0.9211030766
 40
1.0
 40
1.0
 40
1.0
 40
1.0
 10
30.6504662625
 20
26.5200729787
 30
0.0
 10
30.6757999923
 20
26.5200859504
 30
0.0
 10
30.7226562959
 20
26.5203114869
 30
0.0
 10
30.7835045648
 20
26.5235704734
 30
0.0
 10
30.8249667282
 20
26.5244719856
 30
0.0
 10
30.8437895629
 20
26.5298711134
 30
0.0
 10
30.848721092
 20
26.5318071581
 30
0.0
  0
SPLINE
  5
551
100
AcDbEntity
  8
0
100
AcDbSpline
 62
7
  6
BYLAYER
 70
0
 71
3
 72
11
 73
7
 74
0
 42
0.0000001
 43
0.0000001
 44
0.0000000001
 40
0.0
 40
0.0
 40
0.0
 40
0.0
 40
0.0847112016
 40
0.3008744099
 40
0.6216579097
 40
1.0
 40
1.0
 40
1.0
 40
1.0
 10
30.848721092
 20
31.0973173218
 30
0.0
 10
30.8487168123
 20
31.0916439021
 30
0.0
 10
30.8202803183
 20
31.0874894713
 30
0.0
 10
30.7865300825
 20
31.0809409472
 30
0.0
 10
30.7215684154
 20
31.0775920752
 30
0.0
 10
30.675805216
 20
31.0764943011
 30
0.0
 10
30.6504662625
 20
31.0764712518
 30
0.0
  0
SPLINE
  5
552
100
AcDbEntity
  8
0
100
AcDbSpline
 62
7
  6
BYLAYER
 70
0
 71
3
 72
12
 73
8
 74
0
 42
0.0000001
 43
0.0000001
 44
0.0000000001
 40
0.0
 40
0.0
 40
0.0
 40
0.0
 40
0.3563475149
 40
0.6601444485
 40
0.8790550273
 40
0.9895837163
 40
1.0
 40
1.0
 40
1.0
 40
1.0
 10
30.6504664028
 20
31.0764711011
 30
0.0
 10
30.6506890919
 20
31.1296563024
 30
0.0
 10
30.6506042334
 20
31.2228840457
 30
0.0
 10
30.6523028769
 20
31.3731752589
 30
0.0
 10
30.6492424993
 20
31.4253689547
 30
0.0
 10
30.6535662865
 20
31.5369533562
 30
0.0
 10
30.6504998574
 20
31.516482204
 30
0.0
 10
30.6504663449
 20
31.5149279114
 30
0.0
  0
SPLINE
  5
553
100
AcDbEntity
  8
0
100
AcDbSpline
 62
7
  6
BYLAYER
 70
0
 71
3
 72
12
 73
8
 74
0
 42
0.0000001
 43
0.0000001
 44
0.0000000001
 40
0.0
 40
0.0
 40
0.0
 40
0.0
 40
0.0031848819
 40
0.118760076
 40
0.3402738624
 40
0.6445504003
 40
1.0
 40
1.0
 40
1.0
 40
1.0
 10
25.747412487
 20
31.4663937175
 30
0.0
 10
25.7474052422
 20
31.4668644325
 30
0.0
 10
25.740248968
 20
31.4841941543
 30
0.0
 10
25.7526830897
 20
31.3714550765
 30
0.0
 10
25.7440192359
 20
31.3199714769
 30
0.0
 10
25.7480868832
 20
31.1704690199
 30
0.0
 10
25.7472726878
 20
31.0782642032
 30
0.0
 10
25.7474121058
 20
31.0257238913
 30
0.0
  0
LINE
  5
554
100
AcDbEntity
  8
0
100
AcDbLine
 62
7
  6
BYLAYER
 10
30.6504664564
 20
34.6856662865
 11
25.7474122999
 21
34.7259619893
  0
SPLINE
  5
555
100
AcDbEntity
  8
0
100
AcDbSpline
 62
7
  6
BYLAYER
 70
0
 71
3
 72
11
 73
7
 74
0
 42
0.0000001
 43
0.0000001
 44
0.0000000001
 40
0.0
 40
0.0
 40
0.0
 40
0.0
 40
0.2521856755
 40
0.5030843639
 40
0.7521750344
 40
1.0
 40
1.0
 40
1.0
 40
1.0
 10
30.6504664564
 20
31.5149236307
 30
0.0
 10
30.6763150705
 20
31.5151449701
 30
0.0
 10
30.7283386443
 20
31.5256217742
 30
0.0
 10
30.7941832911
 20
31.5692543382
 30
0.0
 10
30.8383622427
 20
31.6342537903
 30
0.0
 10
30.8487217186
 20
31.685754456
 30
0.0
 10
30.8487210925
 20
31.7111570358
 30
0.0
  0
SPLINE
  5
556
100
AcDbEntity
  8
0
100
AcDbSpline
 62
7
  6
BYLAYER
 70
0
 71
3
 72
11
 73
7
 74
0
 42
0.0000001
 43
0.0000001
 44
0.0000000001
 40
0.0
 40
0.0
 40
0.0
 40
0.0
 40
0.2596168805
 40
0.5089030315
 40
0.7495297423
 40
1.0
 40
1.0
 40
1.0
 40
1.0
 10
25.7474125451
 20
25.0535221735
 30
0.0
 10
25.739666211
 20
25.0713748874
 30
0.0
 10
25.7279423832
 20
25.1079854883
 30
0.0
 10
25.7216873228
 20
25.1642185259
 30
0.0
 10
25.727803738
 20
25.2198470032
 30
0.0
 10
25.739891865
 20
25.2549170932
 30
0.0
 10
25.7474125202
 20
25.2721202619
 30
0.0
  0
SPLINE
  5
557
100
AcDbEntity
  8
0
100
AcDbSpline
 62
7
  6
BYLAYER
 70
0
 71
3
 72
11
 73
7
 74
0
 42
0.0000001
 43
0.0000001
 44
0.0000000001
 40
0.0
 40
0.0
 40
0.0
 40
0.0
 40
0.2517649941
 40
0.5024915483
 40
0.7517611989
 40
1.0
 40
1.0
 40
1.0
 40
1.0
 10
25.7474121123
 20
26.033871284
 30
0.0
 10
25.7280228024
 20
26.0340379213
 30
0.0
 10
25.6889786895
 20
26.0419343458
 30
0.0
 10
25.63959366
 20
26.0748003181
 30
0.0
 10
25.6064807277
 20
26.1237287539
 30
0.0
 10
25.5987210926
 20
26.1624683709
 30
0.0
 10
25.5987210926
 20
26.1815868222
 30
0.0
  0
SPLINE
  5
558
100
AcDbEntity
  8
0
100
AcDbSpline
 62
7
  6
BYLAYER
 70
0
 71
3
 72
11
 73
7
 74
0
 42
0.0000001
 43
0.0000001
 44
0.0000000001
 40
0.0
 40
0.0
 40
0.0
 40
0.0
 40
0.2482389444
 40
0.49750874
 40
0.7482354407
 40
1.0
 40
1.0
 40
1.0
 40
1.0
 10
25.5987210926
 20
22.8022791864
 30
0.0
 10
25.5987210926
 20
22.783160724
 30
0.0
 10
25.606480737
 20
22.7444210842
 30
0.0
 10
25.6395937062
 20
22.6954926299
 30
0.0
 10
25.6889787471
 20
22.6626266911
 30
0.0
 10
25.7280228359
 20
22.6547302852
 30
0.0
 10
25.7474121123
 20
22.6545636482
 30
0.0
  0
SPLINE
  5
559
100
AcDbEntity
  8
0
100
AcDbSpline
 62
7
  6
BYLAYER
 70
0
 71
3
 72
10
 73
6
 74
0
 42
0.0000001
 43
0.0000001
 44
0.0000000001
 40
0.0
 40
0.0
 40
0.0
 40
0.0
 40
0.311439801
 40
0.6716929044
 40
1.0
 40
1.0
 40
1.0
 40
1.0
 10
25.7474121123
 20
23.4906897793
 30
0.0
 10
25.7368977038
 20
23.5114950094
 30
0.0
 10
25.7241356233
 20
23.5610844518
 30
0.0
 10
25.7220259481
 20
23.6366329715
 30
0.0
 10
25.7368852076
 20
23.6870819524
 30
0.0
 10
25.7474121123
 20
23.7092866775
 30
0.0
  0
SPLINE
  5
55A
100
AcDbEntity
  8
0
100
AcDbSpline
 62
7
  6
BYLAYER
 70
0
 71
3
 72
10
 73
6
 74
0
 42
0.0000001
 43
0.0000001
 44
0.0000000001
 40
0.0
 40
0.0
 40
0.0
 40
0.0
 40
0.3724941647
 40
0.6865095914
 40
1.0
 40
1.0
 40
1.0
 40
1.0
 10
25.8944176259
 20
24.909703401
 30
0.0
 10
25.875488306
 20
24.9315134359
 30
0.0
 10
25.8467786676
 20
24.979208345
 30
0.0
 10
25.8482856258
 20
25.0614323793
 30
0.0
 10
25.8780752678
 20
25.1025179695
 30
0.0
 10
25.8944161382
 20
25.1205092293
 30
0.0
  0
SPLINE
  5
55B
100
AcDbEntity
  8
0
100
AcDbSpline
 62
7
  6
BYLAYER
 70
0
 71
3
 72
13
 73
9
 74
0
 42
0.0000001
 43
0.0000001
 44
0.0000000001
 40
0.0
 40
0.0
 40
0.0
 40
0.0
 40
0.1170070816
 40
0.2417521029
 40
0.4993072801
 40
0.7573071872
 40
0.8824979884
 40
1.0
 40
1.0
 40
1.0
 40
1.0
 10
25.8944161382
 20
25.1205092293
 30
0.0
 10
25.8944179299
 20
25.1295533205
 30
0.0
 10
25.8923514216
 20
25.1482792336
 30
0.0
 10
25.8813163558
 20
25.1853705714
 30
0.0
 10
25.854621617
 20
25.228793147
 30
0.0
 10
25.8120142463
 20
25.2568171154
 30
0.0
 10
25.7752043541
 20
25.2690905875
 30
0.0
 10
25.7564893524
 20
25.2718038027
 30
0.0
 10
25.7474125202
 20
25.2721202619
 30
0.0
  0
SPLINE
  5
55C
100
AcDbEntity
  8
0
100
AcDbSpline
 62
7
  6
BYLAYER
 70
0
 71
3
 72
13
 73
9
 74
0
 42
0.0000001
 43
0.0000001
 44
0.0000000001
 40
0.0
 40
0.0
 40
0.0
 40
0.0
 40
0.1182699143
 40
0.2432634941
 40
0.4989950353
 40
0.7553638511
 40
0.8809959831
 40
1.0
 40
1.0
 40
1.0
 40
1.0
 10
25.894421146
 20
24.9097035658
 30
0.0
 10
25.8944229197
 20
24.9186868562
 30
0.0
 10
25.8923857733
 20
24.9372080038
 30
0.0
 10
25.8814297512
 20
24.9735996966
 30
0.0
 10
25.8546939308
 20
25.0158435456
 30
0.0
 10
25.8118482942
 20
25.0416806562
 30
0.0
 10
25.7751081687
 20
25.0519733337
 30
0.0
 10
25.7564497493
 20
25.0536824012
 30
0.0
 10
25.7474121166
 20
25.0535223409
 30
0.0
  0
SPLINE
  5
55D
100
AcDbEntity
  8
0
100
AcDbSpline
 62
7
  6
BYLAYER
 70
0
 71
3
 72
19
 73
15
 74
0
 42
0.0000001
 43
0.0000001
 44
0.0000000001
 40
0.0
 40
0.0
 40
0.0
 40
0.0
 40
0.1791061145
 40
0.3480516344
 40
0.5040150894
 40
0.6442204796
 40
0.7075761944
 40
0.7659958402
 40
0.8191702436
 40
0.8668167726
 40
0.90871589
 40
0.9447941851
 40
0.9751191391
 40
1.0
 40
1.0
 40
1.0
 40
1.0
 10
28.8488239214
 20
24.3922400968
 30
0.0
 10
28.6579866127
 20
24.4064931311
 30
0.0
 10
28.2874256683
 20
24.4382755108
 30
0.0
 10
27.7521453
 20
24.4979117344
 30
0.0
 10
27.2600549638
 20
24.5678831363
 30
0.0
 10
26.8818742067
 20
24.6360789799
 30
0.0
 10
26.6085009907
 20
24.6964077743
 30
0.0
 10
26.4272195587
 20
24.7421423956
 30
0.0
 10
26.2638099645
 20
24.7896919487
 30
0.0
 10
26.1193903359
 20
24.8388581436
 30
0.0
 10
25.9949791243
 20
24.889478253
 30
0.0
 10
25.8913100062
 20
24.9412809164
 30
0.0
 10
25.8090081723
 20
24.9939658205
 30
0.0
 10
25.7644946973
 20
25.0334047647
 30
0.0
 10
25.7471096728
 20
25.0535166774
 30
0.0
  0
SPLINE
  5
55E
100
AcDbEntity
  8
0
100
AcDbSpline
 62
7
  6
BYLAYER
 70
0
 71
3
 72
12
 73
8
 74
0
 42
0.0000001
 43
0.0000001
 44
0.0000000001
 40
0.0
 40
0.0
 40
0.0
 40
0.0
 40
0.0880950283
 40
0.2346573393
 40
0.4314660141
 40
0.6879423525
 40
1.0
 40
1.0
 40
1.0
 40
1.0
 10
25.7474121123
 20
23.7092866774
 30
0.0
 10
25.8078657465
 20
23.7809312896
 30
0.0
 10
26.0411733838
 20
23.8973286566
 30
0.0
 10
26.4759744159
 20
24.0303019372
 30
0.0
 10
27.1060644756
 20
24.1505305874
 30
0.0
 10
27.913444593
 20
24.2524911806
 30
0.0
 10
28.517250353
 20
24.2975252648
 30
0.0
 10
28.8487211188
 20
24.3173216867
 30
0.0
  0
SPLINE
  5
55F
100
AcDbEntity
  8
0
100
AcDbSpline
 62
7
  6
BYLAYER
 70
0
 71
3
 72
13
 73
9
 74
0
 42
0.0000001
 43
0.0000001
 44
0.0000000001
 40
0.0
 40
0.0
 40
0.0
 40
0.0
 40
0.1176158358
 40
0.2428975409
 40
0.5009867733
 40
0.7584521392
 40
0.8831063926
 40
1.0
 40
1.0
 40
1.0
 40
1.0
 10
25.7474121229
 20
23.7092864079
 30
0.0
 10
25.75649779
 20
23.7089697259
 30
0.0
 10
25.7752286803
 20
23.7062515784
 30
0.0
 10
25.8120564544
 20
23.6939590447
 30
0.0
 10
25.8546620663
 20
23.6659186334
 30
0.0
 10
25.8813403699
 20
23.6224943432
 30
0.0
 10
25.8923568125
 20
23.5854211108
 30
0.0
 10
25.894418803
 20
23.5667110308
 30
0.0
 10
25.8944170176
 20
23.5576756717
 30
0.0
  0
SPLINE
  5
560
100
AcDbEntity
  8
0
100
AcDbSpline
 62
7
  6
BYLAYER
 70
0
 71
3
 72
10
 73
6
 74
0
 42
0.0000001
 43
0.0000001
 44
0.0000000001
 40
0.0
 40
0.0
 40
0.0
 40
0.0
 40
0.3299555578
 40
0.6669377936
 40
1.0
 40
1.0
 40
1.0
 40
1.0
 10
30.8487210926
 20
19.5354315689
 30
0.0
 10
30.8196353606
 20
19.5184347148
 30
0.0
 10
30.7661345755
 20
19.4737522463
 30
0.0
 10
30.7145478096
 20
19.3832475381
 30
0.0
 10
30.702851134
 20
19.3142833185
 30
0.0
 10
30.7026649287
 20
19.2802787711
 30
0.0
  0
SPLINE
  5
561
100
AcDbEntity
  8
0
100
AcDbSpline
 62
7
  6
BYLAYER
 70
0
 71
3
 72
19
 73
15
 74
0
 42
0.0000001
 43
0.0000001
 44
0.0000000001
 40
0.0
 40
0.0
 40
0.0
 40
0.0
 40
0.1801745451
 40
0.3497569804
 40
0.5059603664
 40
0.6460535336
 40
0.7092397531
 40
0.7674342829
 40
0.8203469829
 40
0.8677143456
 40
0.9093359536
 40
0.9451576768
 40
0.9752680619
 40
1.0
 40
1.0
 40
1.0
 40
1.0
 10
28.8487271869
 20
24.1422567617
 30
0.0
 10
28.6662068088
 20
24.1314161961
 30
0.0
 10
28.3121147145
 20
24.1064044004
 30
0.0
 10
27.8009647811
 20
24.057159973
 30
0.0
 10
27.3318685766
 20
23.9976773876
 30
0.0
 10
26.9717903967
 20
23.9382975458
 30
0.0
 10
26.7118530825
 20
23.8848382442
 30
0.0
 10
26.5397351869
 20
23.8439559902
 30
0.0
 10
26.3846880243
 20
23.8010906249
 30
0.0
 10
26.2477204445
 20
23.756420155
 30
0.0
 10
26.1297454801
 20
23.7100909608
 30
0.0
 10
26.0314154446
 20
23.6623346372
 30
0.0
 10
25.9532807517
 20
23.613410051
 30
0.0
 10
25.9109720444
 20
23.5765395368
 30
0.0
 10
25.8944170176
 20
23.5576756717
 30
0.0
  0
SPLINE
  5
562
100
AcDbEntity
  8
0
100
AcDbSpline
 62
7
  6
BYLAYER
 70
0
 71
3
 72
10
 73
6
 74
0
 42
0.0000001
 43
0.0000001
 44
0.0000000001
 40
0.0
 40
0.0
 40
0.0
 40
0.0
 40
0.3349901266
 40
0.6712729206
 40
1.0
 40
1.0
 40
1.0
 40
1.0
 10
25.8944161294
 20
23.5576756305
 30
0.0
 10
25.8765931014
 20
23.5387940685
 30
0.0
 10
25.8454946499
 20
23.4936743658
 30
0.0
 10
25.8491554685
 20
23.4107826352
 30
0.0
 10
25.8783911586
 20
23.366678856
 30
0.0
 10
25.8944161295
 20
23.3468697498
 30
0.0
  0
SPLINE
  5
563
100
AcDbEntity
  8
0
100
AcDbSpline
 62
7
  6
BYLAYER
 70
0
 71
3
 72
23
 73
19
 74
0
 42
0.0000001
 43
0.0000001
 44
0.0000000001
 40
0.0
 40
0.0
 40
0.0
 40
0.0
 40
0.0103938287
 40
0.022397455
 40
0.0361083185
 40
0.0515684341
 40
0.0687867936
 40
0.0877520784
 40
0.1308119236
 40
0.1804459168
 40
0.2361529387
 40
0.2973587896
 40
0.3634643547
 40
0.4338670168
 40
0.5079984973
 40
0.665179886
 40
0.8305496058
 40
1.0
 40
1.0
 40
1.0
 40
1.0
 10
25.8944241608
 20
23.346870104
 30
0.0
 10
25.9058784949
 20
23.3336139256
 30
0.0
 10
25.9332459706
 20
23.3073546265
 30
0.0
 10
25.9822297663
 20
23.2710639193
 30
0.0
 10
26.0417232669
 20
23.2351639408
 30
0.0
 10
26.111480854
 20
23.1997253873
 30
0.0
 10
26.1912623623
 20
23.1648089879
 30
0.0
 10
26.3160339159
 20
23.1170286364
 30
0.0
 10
26.4956413819
 20
23.0602602276
 30
0.0
 10
26.7380017097
 20
22.9980494421
 30
0.0
 10
27.0126288558
 20
22.939546838
 30
0.0
 10
27.3163295474
 20
22.8851664747
 30
0.0
 10
27.6458736274
 20
22.835320522
 30
0.0
 10
27.9980915212
 20
22.7903855954
 30
0.0
 10
28.5037835998
 20
22.7362151766
 30
0.0
 10
29.1704339666
 20
22.6830612829
 30
0.0
 10
29.9988128814
 20
22.6420186835
 30
0.0
 10
30.5631141965
 20
22.6295282011
 30
0.0
 10
30.8487209174
 20
22.6270097295
 30
0.0
  0
SPLINE
  5
564
100
AcDbEntity
  8
0
100
AcDbSpline
 62
7
  6
BYLAYER
 70
0
 71
3
 72
11
 73
7
 74
0
 42
0.0000001
 43
0.0000001
 44
0.0000000001
 40
0.0
 40
0.0
 40
0.0
 40
0.0
 40
0.231476054
 40
0.4793273563
 40
0.7362095324
 40
1.0
 40
1.0
 40
1.0
 40
1.0
 10
27.7472014559
 20
22.2538673971
 30
0.0
 10
27.9721837365
 20
22.1566007967
 30
0.0
 10
28.4518881944
 20
21.9865795391
 30
0.0
 10
29.2109887533
 20
21.8040716795
 30
0.0
 10
30.017951934
 20
21.6903643945
 30
0.0
 10
30.5694047005
 20
21.6625494507
 30
0.0
 10
30.8487210926
 20
21.6603324524
 30
0.0
  0
SPLINE
  5
565
100
AcDbEntity
  8
0
100
AcDbSpline
 62
7
  6
BYLAYER
 70
0
 71
3
 72
11
 73
7
 74
0
 42
0.0000001
 43
0.0000001
 44
0.0000000001
 40
0.0
 40
0.0
 40
0.0
 40
0.0
 40
0.2687035264
 40
0.5285151362
 40
0.7754084298
 40
1.0
 40
1.0
 40
1.0
 40
1.0
 10
30.8487210926
 20
20.5407798165
 30
0.0
 10
30.5696793444
 20
20.5385660109
 30
0.0
 10
30.0208485302
 20
20.5252261959
 30
0.0
 10
29.2168703802
 20
20.4760839744
 30
0.0
 10
28.4611814162
 20
20.3986973033
 30
0.0
 10
27.9765429347
 20
20.3267178737
 30
0.0
 10
27.7472014559
 20
20.2842518911
 30
0.0
  0
SPLINE
  5
566
100
AcDbEntity
  8
0
100
AcDbSpline
 62
7
  6
BYLAYER
 70
0
 71
3
 72
10
 73
6
 74
0
 42
0.0000001
 43
0.0000001
 44
0.0000000001
 40
0.0
 40
0.0
 40
0.0
 40
0.0
 40
0.2840053297
 40
0.627810587
 40
1.0
 40
1.0
 40
1.0
 40
1.0
 10
30.8487223561
 20
19.7769501153
 30
0.0
 10
30.848892108
 20
19.7687882021
 30
0.0
 10
30.849028288
 20
19.7507413722
 30
0.0
 10
30.8490071107
 20
19.7219966881
 30
0.0
 10
30.8488441343
 20
19.7014159068
 30
0.0
 10
30.8487223664
 20
19.6907180872
 30
0.0
  0
SPLINE
  5
567
100
AcDbEntity
  8
0
100
AcDbSpline
 62
7
  6
BYLAYER
 70
0
 71
3
 72
11
 73
7
 74
0
 42
0.0000001
 43
0.0000001
 44
0.0000000001
 40
0.0
 40
0.0
 40
0.0
 40
0.0
 40
0.2640327192
 40
0.5221774865
 40
0.7691941801
 40
1.0
 40
1.0
 40
1.0
 40
1.0
 10
30.8487214273
 20
19.6906908299
 30
0.0
 10
30.5691470819
 20
19.6927692693
 30
0.0
 10
30.0161033774
 20
19.7209155986
 30
0.0
 10
29.2084553276
 20
19.8348846376
 30
0.0
 10
28.4496900353
 20
20.0176877722
 30
0.0
 10
27.971538364
 20
20.1872801402
 30
0.0
 10
27.7472014559
 20
20.2842518911
 30
0.0
  0
SPLINE
  5
568
100
AcDbEntity
  8
0
100
AcDbSpline
 62
7
  6
BYLAYER
 70
0
 71
3
 72
11
 73
7
 74
0
 42
0.0000001
 43
0.0000001
 44
0.0000000001
 40
0.0
 40
0.0
 40
0.0
 40
0.0
 40
0.2609570402
 40
0.5187106351
 40
0.7666110069
 40
1.0
 40
1.0
 40
1.0
 40
1.0
 10
30.8483177126
 20
19.7769823228
 30
0.0
 10
30.5734203813
 20
19.7718836528
 30
0.0
 10
30.0262489033
 20
19.7855720343
 30
0.0
 10
29.2227243606
 20
19.8778355766
 30
0.0
 10
28.4597723426
 20
20.0391868936
 30
0.0
 10
27.9759286845
 20
20.1949702893
 30
0.0
 10
27.7468112821
 20
20.2842534284
 30
0.0
  0
SPLINE
  5
569
100
AcDbEntity
  8
0
100
AcDbSpline
 62
7
  6
BYLAYER
 70
0
 71
3
 72
10
 73
6
 74
0
 42
0.0000001
 43
0.0000001
 44
0.0000000001
 40
0.0
 40
0.0
 40
0.0
 40
0.0
 40
0.3344785214
 40
0.667095789
 40
1.0
 40
1.0
 40
1.0
 40
1.0
 10
30.9974121122
 20
19.5751510593
 30
0.0
 10
30.9800911401
 20
19.5749885064
 30
0.0
 10
30.9454867886
 20
19.5718424762
 30
0.0
 10
30.8952799356
 20
19.5582461966
 30
0.0
 10
30.8637692349
 20
19.5438445412
 30
0.0
 10
30.8487210926
 20
19.5354315689
 30
0.0
  0
SPLINE
  5
56A
100
AcDbEntity
  8
0
100
AcDbSpline
 62
7
  6
BYLAYER
 70
0
 71
3
 72
10
 73
6
 74
0
 42
0.0000001
 43
0.0000001
 44
0.0000000001
 40
0.0
 40
0.0
 40
0.0
 40
0.0
 40
0.3288399042
 40
0.6579966605
 40
1.0
 40
1.0
 40
1.0
 40
1.0
 10
33.3057457839
 20
20.4457460204
 30
0.0
 10
33.3229750069
 20
20.4498751524
 30
0.0
 10
33.3565264423
 20
20.4652187341
 30
0.0
 10
33.3902534532
 20
20.5099162644
 30
0.0
 10
33.3971311932
 20
20.5466294391
 30
0.0
 10
33.3974005381
 20
20.5650537911
 30
0.0
  0
SPLINE
  5
56B
100
AcDbEntity
  8
0
100
AcDbSpline
 62
7
  6
BYLAYER
 70
0
 71
3
 72
10
 73
6
 74
0
 42
0.0000001
 43
0.0000001
 44
0.0000000001
 40
0.0
 40
0.0
 40
0.0
 40
0.0
 40
0.3231108366
 40
0.6614484334
 40
1.0
 40
1.0
 40
1.0
 40
1.0
 10
33.3974005381
 20
21.6283338723
 30
0.0
 10
33.3970504391
 20
21.6481301895
 30
0.0
 10
33.388971327
 20
21.6888678541
 30
0.0
 10
33.3563672919
 20
21.742129824
 30
0.0
 10
33.3236184472
 20
21.7689401348
 30
0.0
 10
33.3057456846
 20
21.7794731071
 30
0.0
  0
SPLINE
  5
56C
100
AcDbEntity
  8
0
100
AcDbSpline
 62
7
  6
BYLAYER
 70
0
 71
3
 72
10
 73
6
 74
0
 42
0.0000001
 43
0.0000001
 44
0.0000000001
 40
0.0
 40
0.0
 40
0.0
 40
0.0
 40
0.3288426228
 40
0.658001232
 40
1.0
 40
1.0
 40
1.0
 40
1.0
 10
33.3057457839
 20
22.4153615264
 30
0.0
 10
33.3229751245
 20
22.4194907558
 30
0.0
 10
33.3565267611
 20
22.4348345277
 30
0.0
 10
33.390253431
 20
22.4795322445
 30
0.0
 10
33.3971312887
 20
22.5162451999
 30
0.0
 10
33.3974005381
 20
22.5346692972
 30
0.0
  0
LINE
  5
56D
100
AcDbEntity
  8
0
100
AcDbLine
 62
7
  6
BYLAYER
 10
33.3973995379
 20
22.6008141067
 11
33.5487210926
 21
22.5736703826
  0
LINE
  5
56E
100
AcDbEntity
  8
0
100
AcDbLine
 62
7
  6
BYLAYER
 10
33.5487210926
 20
19.5671642488
 11
33.3973995381
 21
19.5925739491
  0
SPLINE
  5
56F
100
AcDbEntity
  8
0
100
AcDbSpline
 62
7
  6
BYLAYER
 70
0
 71
3
 72
10
 73
6
 74
0
 42
0.0000001
 43
0.0000001
 44
0.0000000001
 40
0.0
 40
0.0
 40
0.0
 40
0.0
 40
0.3231268839
 40
0.6614565779
 40
1.0
 40
1.0
 40
1.0
 40
1.0
 10
33.3974005672
 20
19.658718455
 30
0.0
 10
33.3974005672
 20
19.6785188254
 30
0.0
 10
33.3888137594
 20
19.7192772346
 30
0.0
 10
33.3563629774
 20
19.77242412
 30
0.0
 10
33.3237325403
 20
19.7995213232
 30
0.0
 10
33.3057458916
 20
19.8098575604
 30
0.0
  0
SPLINE
  5
570
100
AcDbEntity
  8
0
100
AcDbSpline
 62
7
  6
BYLAYER
 70
0
 71
3
 72
11
 73
7
 74
0
 42
0.0000001
 43
0.0000001
 44
0.0000000001
 40
0.0
 40
0.0
 40
0.0
 40
0.0
 40
0.2281737046
 40
0.4750673883
 40
0.7345494443
 40
1.0
 40
1.0
 40
1.0
 40
1.0
 10
27.7468183471
 20
20.2842534006
 30
0.0
 10
27.9806862865
 20
20.3198333794
 30
0.0
 10
28.4696781436
 20
20.3806270389
 30
0.0
 10
29.2290132201
 20
20.4411141554
 30
0.0
 10
30.0287187936
 20
20.4737960117
 30
0.0
 10
30.5730716121
 20
20.4762239392
 30
0.0
 10
30.8482544974
 20
20.4726780258
 30
0.0
  0
SPLINE
  5
571
100
AcDbEntity
  8
0
100
AcDbSpline
 62
7
  6
BYLAYER
 70
0
 71
3
 72
11
 73
7
 74
0
 42
0.0000001
 43
0.0000001
 44
0.0000000001
 40
0.0
 40
0.0
 40
0.0
 40
0.0
 40
0.2612922481
 40
0.5181203836
 40
0.7657398599
 40
1.0
 40
1.0
 40
1.0
 40
1.0
 10
30.8482545744
 20
21.746596109
 30
0.0
 10
30.5730073824
 20
21.7416049889
 30
0.0
 10
30.0264672119
 20
21.7551279727
 30
0.0
 10
29.2238859492
 20
21.8473538992
 30
0.0
 10
28.4612233949
 20
22.008314709
 30
0.0
 10
27.9768297567
 20
22.1643844028
 30
0.0
 10
27.7468109522
 20
22.2538689357
 30
0.0
  0
SPLINE
  5
572
100
AcDbEntity
  8
0
100
AcDbSpline
 62
7
  6
BYLAYER
 70
0
 71
3
 72
11
 73
7
 74
0
 42
0.0000001
 43
0.0000001
 44
0.0000000001
 40
0.0
 40
0.0
 40
0.0
 40
0.0
 40
0.2273159127
 40
0.4744794117
 40
0.7348921544
 40
1.0
 40
1.0
 40
1.0
 40
1.0
 10
27.7468197094
 20
22.2538689012
 30
0.0
 10
27.9797888437
 20
22.2893737686
 30
0.0
 10
28.4681597648
 20
22.3500453532
 30
0.0
 10
29.2278030736
 20
22.4106943395
 30
0.0
 10
30.0283639527
 20
22.4433841874
 30
0.0
 10
30.5733020026
 20
22.4458797593
 30
0.0
 10
30.8481167351
 20
22.4422946449
 30
0.0
  0
SPLINE
  5
573
100
AcDbEntity
  8
0
100
AcDbSpline
 62
7
  6
BYLAYER
 70
0
 71
3
 72
11
 73
7
 74
0
 42
0.0000001
 43
0.0000001
 44
0.0000000001
 40
0.0
 40
0.0
 40
0.0
 40
0.0
 40
0.2239389745
 40
0.4699794635
 40
0.7310576051
 40
1.0
 40
1.0
 40
1.0
 40
1.0
 10
27.7472014559
 20
22.2538673971
 30
0.0
 10
27.9758773846
 20
22.2962060639
 30
0.0
 10
28.4589584188
 20
22.3680092655
 30
0.0
 10
29.2143850363
 20
22.4455387127
 30
0.0
 10
30.0190372281
 20
22.4947374292
 30
0.0
 10
30.5694291687
 20
22.5083565709
 30
0.0
 10
30.8487202037
 20
22.5104310892
 30
0.0
  0
SPLINE
  5
574
100
AcDbEntity
  8
0
100
AcDbSpline
 62
7
  6
BYLAYER
 70
0
 71
3
 72
13
 73
9
 74
0
 42
0.0000001
 43
0.0000001
 44
0.0000000001
 40
0.0
 40
0.0
 40
0.0
 40
0.0
 40
0.1403092266
 40
0.3977513271
 40
0.6082468467
 40
0.7832846073
 40
0.9241887855
 40
1.0
 40
1.0
 40
1.0
 40
1.0
 10
30.8487202037
 20
22.5104310892
 30
0.0
 10
30.8487451153
 20
22.5072444497
 30
0.0
 10
30.8488031666
 20
22.4982108131
 30
0.0
 10
30.8488315639
 20
22.4843960204
 30
0.0
 10
30.8487646229
 20
22.469792879
 30
0.0
 10
30.8486126
 20
22.4578364406
 30
0.0
 10
30.8483779406
 20
22.4489430776
 30
0.0
 10
30.848141181
 20
22.4440236837
 30
0.0
 10
30.847976105
 20
22.4423097725
 30
0.0
  0
SPLINE
  5
575
100
AcDbEntity
  8
0
100
AcDbSpline
 62
7
  6
BYLAYER
 70
0
 71
3
 72
11
 73
7
 74
0
 42
0.0000001
 43
0.0000001
 44
0.0000000001
 40
0.0
 40
0.0
 40
0.0
 40
0.0
 40
0.0109695768
 40
0.2038309669
 40
0.5498915325
 40
1.0
 40
1.0
 40
1.0
 40
1.0
 10
33.3973975639
 20
22.7229167468
 30
0.0
 10
33.3973737093
 20
22.7233628177
 30
0.0
 10
33.3936879642
 20
22.7069980287
 30
0.0
 10
33.3994071253
 20
22.6977610236
 30
0.0
 10
33.3957928485
 20
22.6488125199
 30
0.0
 10
33.3972274353
 20
22.6191425574
 30
0.0
 10
33.3973985494
 20
22.6008138257
 30
0.0
  0
SPLINE
  5
576
100
AcDbEntity
  8
0
100
AcDbSpline
 62
7
  6
BYLAYER
 70
0
 71
3
 72
11
 73
7
 74
0
 42
0.0000001
 43
0.0000001
 44
0.0000000001
 40
0.0
 40
0.0
 40
0.0
 40
0.0
 40
0.0113160389
 40
0.2047072285
 40
0.5508737667
 40
1.0
 40
1.0
 40
1.0
 40
1.0
 10
30.8487210071
 20
22.7486830811
 30
0.0
 10
30.8487440634
 20
22.7491416956
 30
0.0
 10
30.8523280246
 20
22.7327159303
 30
0.0
 10
30.8467805764
 20
22.723546658
 30
0.0
 10
30.8502898547
 20
22.6747610358
 30
0.0
 10
30.8488824474
 20
22.6452325352
 30
0.0
 10
30.8487209572
 20
22.627008153
 30
0.0
  0
SPLINE
  5
577
100
AcDbEntity
  8
0
100
AcDbSpline
 62
7
  6
BYLAYER
 70
0
 71
3
 72
13
 73
9
 74
0
 42
0.0000001
 43
0.0000001
 44
0.0000000001
 40
0.0
 40
0.0
 40
0.0
 40
0.0
 40
0.1182005018
 40
0.2431397698
 40
0.4988182293
 40
0.755239927
 40
0.8809265005
 40
1.0
 40
1.0
 40
1.0
 40
1.0
 10
25.8944241608
 20
23.346870104
 30
0.0
 10
25.8944259266
 20
23.3558482286
 30
0.0
 10
25.8923914243
 20
23.3743601096
 30
0.0
 10
25.8814464968
 20
23.4107415152
 30
0.0
 10
25.8547203812
 20
23.452987067
 30
0.0
 10
25.8118749601
 20
23.4788342442
 30
0.0
 10
25.7751233281
 20
23.4891375639
 30
0.0
 10
25.7564551036
 20
23.4908488283
 30
0.0
 10
25.7474120901
 20
23.4906884841
 30
0.0
  0
SPLINE
  5
578
100
AcDbEntity
  8
0
100
AcDbSpline
 62
7
  6
BYLAYER
 70
0
 71
3
 72
14
 73
10
 74
0
 42
0.0000001
 43
0.0000001
 44
0.0000000001
 40
0.0
 40
0.0
 40
0.0
 40
0.0
 40
0.2159911469
 40
0.4114455825
 40
0.5745906701
 40
0.7467130584
 40
0.8626048664
 40
0.9466963097
 40
1.0
 40
1.0
 40
1.0
 40
1.0
 10
30.8491800062
 20
22.7486781182
 30
0.0
 10
30.4744524035
 20
22.7526789692
 30
0.0
 10
29.7606278844
 20
22.7698089992
 30
0.0
 10
28.7653427555
 20
22.8299596135
 30
0.0
 10
27.8484724593
 20
22.9189955231
 30
0.0
 10
27.0738249727
 20
23.030398813
 30
0.0
 10
26.4405985949
 20
23.1676292699
 30
0.0
 10
26.0251811601
 20
23.3030493232
 30
0.0
 10
25.8084182242
 20
23.4211818385
 30
0.0
 10
25.7474121123
 20
23.4906897793
 30
0.0
  0
SPLINE
  5
579
100
AcDbEntity
  8
0
100
AcDbSpline
 62
7
  6
BYLAYER
 70
0
 71
3
 72
11
 73
7
 74
0
 42
0.0000001
 43
0.0000001
 44
0.0000000001
 40
0.0
 40
0.0
 40
0.0
 40
0.0
 40
0.1662519565
 40
0.4064571678
 40
0.6866680901
 40
1.0
 40
1.0
 40
1.0
 40
1.0
 10
30.6504663997
 20
22.619852162
 30
0.0
 10
30.6675198673
 20
22.629057372
 30
0.0
 10
30.7130896061
 20
22.6436958927
 30
0.0
 10
30.7914996027
 20
22.6596877887
 30
0.0
 10
30.8885349703
 20
22.6680806533
 30
0.0
 10
30.9577173059
 20
22.6697149019
 30
0.0
 10
30.9942404955
 20
22.6695091681
 30
0.0
  0
SPLINE
  5
57A
100
AcDbEntity
  8
0
100
AcDbSpline
 62
7
  6
BYLAYER
 70
0
 71
3
 72
11
 73
7
 74
0
 42
0.0000001
 43
0.0000001
 44
0.0000000001
 40
0.0
 40
0.0
 40
0.0
 40
0.0
 40
0.3832481327
 40
0.7074759097
 40
0.9238846736
 40
1.0
 40
1.0
 40
1.0
 40
1.0
 10
30.65046642
 20
21.6121355986
 30
0.0
 10
30.6757995492
 20
21.6121386394
 30
0.0
 10
30.7210240535
 20
21.6135936014
 30
0.0
 10
30.7875078461
 20
21.6094275007
 30
0.0
 10
30.8175897929
 20
21.6193605006
 30
0.0
 10
30.8487239233
 20
21.609855085
 30
0.0
 10
30.8487210926
 20
21.6148863923
 30
0.0
  0
SPLINE
  5
57B
100
AcDbEntity
  8
0
100
AcDbSpline
 62
7
  6
BYLAYER
 70
0
 71
3
 72
11
 73
7
 74
0
 42
0.0000001
 43
0.0000001
 44
0.0000000001
 40
0.0
 40
0.0
 40
0.0
 40
0.0
 40
0.2482424478
 40
0.4975108893
 40
0.7482362271
 40
1.0
 40
1.0
 40
1.0
 40
1.0
 10
30.8487210926
 20
22.4154698171
 30
0.0
 10
30.8487212929
 20
22.4409615819
 30
0.0
 10
30.8383752007
 20
22.4926150131
 30
0.0
 10
30.7942243428
 20
22.5578533366
 30
0.0
 10
30.7283776443
 20
22.6016746372
 30
0.0
 10
30.6763188314
 20
22.6122032064
 30
0.0
 10
30.65046642
 20
22.612425392
 30
0.0
  0
SPLINE
  5
57C
100
AcDbEntity
  8
0
100
AcDbSpline
 62
7
  6
BYLAYER
 70
0
 71
3
 72
10
 73
6
 74
0
 42
0.0000001
 43
0.0000001
 44
0.0000000001
 40
0.0
 40
0.0
 40
0.0
 40
0.0
 40
0.1183630444
 40
0.4633992426
 40
1.0
 40
1.0
 40
1.0
 40
1.0
 10
28.1030857964
 20
16.0608241131
 30
0.0
 10
28.1033227518
 20
16.0693248137
 30
0.0
 10
28.1039475629
 20
16.1026088421
 30
0.0
 10
28.1034382499
 20
16.1744536677
 30
0.0
 10
28.1033024633
 20
16.2377866981
 30
0.0
 10
28.1030807713
 20
16.2763348797
 30
0.0
  0
SPLINE
  5
57D
100
AcDbEntity
  8
0
100
AcDbSpline
 62
7
  6
BYLAYER
 70
0
 71
3
 72
10
 73
6
 74
0
 42
0.0000001
 43
0.0000001
 44
0.0000000001
 40
0.0
 40
0.0
 40
0.0
 40
0.0
 40
0.534946314
 40
0.88009752
 40
1.0
 40
1.0
 40
1.0
 40
1.0
 10
25.7474153172
 20
16.2958859121
 30
0.0
 10
25.7473524982
 20
16.2575109797
 30
0.0
 10
25.7473050892
 20
16.1943764293
 30
0.0
 10
25.7471568027
 20
16.1226397883
 30
0.0
 10
25.747339105
 20
16.0892791476
 30
0.0
 10
25.7474091476
 20
16.0806780109
 30
0.0
  0
LINE
  5
57E
100
AcDbEntity
  8
0
100
AcDbLine
 62
7
  6
BYLAYER
 10
25.7474153172
 20
16.2958859121
 11
28.1030807713
 21
16.2763348797
  0
SPLINE
  5
57F
100
AcDbEntity
  8
0
100
AcDbSpline
 62
7
  6
BYLAYER
 70
0
 71
3
 72
10
 73
6
 74
0
 42
0.0000001
 43
0.0000001
 44
0.0000000001
 40
0.0
 40
0.0
 40
0.0
 40
0.0
 40
0.3435252054
 40
0.6734262426
 40
1.0
 40
1.0
 40
1.0
 40
1.0
 10
28.59217045
 20
16.2333119896
 30
0.0
 10
28.5937631592
 20
16.2353318708
 30
0.0
 10
28.5963002643
 20
16.2397756522
 30
0.0
 10
28.5983717315
 20
16.2470285377
 30
0.0
 10
28.5987210926
 20
16.251962613
 30
0.0
 10
28.5987210926
 20
16.2544079658
 30
0.0
  0
SPLINE
  5
580
100
AcDbEntity
  8
0
100
AcDbSpline
 62
7
  6
BYLAYER
 70
0
 71
3
 72
11
 73
7
 74
0
 42
0.0000001
 43
0.0000001
 44
0.0000000001
 40
0.0
 40
0.0
 40
0.0
 40
0.0
 40
0.2889174882
 40
0.5582713885
 40
0.7951984876
 40
1.0
 40
1.0
 40
1.0
 40
1.0
 10
28.1030845249
 20
16.508484415
 30
0.0
 10
28.1605663154
 20
16.508155204
 30
0.0
 10
28.2720408475
 20
16.4950851971
 30
0.0
 10
28.4218755461
 20
16.4391456939
 30
0.0
 10
28.5368718849
 20
16.3524774162
 30
0.0
 10
28.5823206961
 20
16.2728506892
 30
0.0
 10
28.59217045
 20
16.2333119896
 30
0.0
  0
SPLINE
  5
581
100
AcDbEntity
  8
0
100
AcDbSpline
 62
7
  6
BYLAYER
 70
0
 71
3
 72
13
 73
9
 74
0
 42
0.0000001
 43
0.0000001
 44
0.0000000001
 40
0.0
 40
0.0
 40
0.0
 40
0.0
 40
0.2373429031
 40
0.3655242738
 40
0.4967242512
 40
0.6284744586
 40
0.7581501596
 40
1.0
 40
1.0
 40
1.0
 40
1.0
 10
28.598721256
 20
16.3604901346
 30
0.0
 10
28.5987212645
 20
16.3361150991
 30
0.0
 10
28.6060650738
 20
16.2980641784
 30
0.0
 10
28.6301131633
 20
16.2527955862
 30
0.0
 10
28.6557063979
 20
16.2214435709
 30
0.0
 10
28.6874777882
 20
16.1961333327
 30
0.0
 10
28.7335471252
 20
16.1721759445
 30
0.0
 10
28.772138797
 20
16.1647266309
 30
0.0
 10
28.796975785
 20
16.1645142017
 30
0.0
  0
SPLINE
  5
582
100
AcDbEntity
  8
0
100
AcDbSpline
 62
7
  6
BYLAYER
 70
0
 71
3
 72
11
 73
7
 74
0
 42
0.0000001
 43
0.0000001
 44
0.0000000001
 40
0.0
 40
0.0
 40
0.0
 40
0.0
 40
0.2994957944
 40
0.5612154263
 40
0.7921732106
 40
1.0
 40
1.0
 40
1.0
 40
1.0
 10
28.3714495272
 20
16.8327171582
 30
0.0
 10
28.3646254997
 20
16.8284856671
 30
0.0
 10
28.351126685
 20
16.8216000705
 30
0.0
 10
28.3304730394
 20
16.8159722439
 30
0.0
 10
28.3115127306
 20
16.815390293
 30
0.0
 10
28.2999017796
 20
16.8182653446
 30
0.0
 10
28.2947761116
 20
16.8204500694
 30
0.0
  0
SPLINE
  5
583
100
AcDbEntity
  8
0
100
AcDbSpline
 62
7
  6
BYLAYER
 70
0
 71
3
 72
10
 73
6
 74
0
 42
0.0000001
 43
0.0000001
 44
0.0000000001
 40
0.0
 40
0.0
 40
0.0
 40
0.0
 40
0.3560383422
 40
0.688077257
 40
1.0
 40
1.0
 40
1.0
 40
1.0
 10
28.1030843897
 20
16.9408529301
 30
0.0
 10
28.1351533843
 20
16.9285698218
 30
0.0
 10
28.1970117185
 20
16.9045263074
 30
0.0
 10
28.2867262706
 20
16.8690967092
 30
0.0
 10
28.3439000928
 20
16.8448050831
 30
0.0
 10
28.3714512341
 20
16.8327183203
 30
0.0
  0
SPLINE
  5
584
100
AcDbEntity
  8
0
100
AcDbSpline
 62
7
  6
BYLAYER
 70
0
 71
3
 72
18
 73
14
 74
0
 42
0.0000001
 43
0.0000001
 44
0.0000000001
 40
0.0
 40
0.0
 40
0.0
 40
0.0
 40
0.0934408908
 40
0.1875304852
 40
0.2823410378
 40
0.377748477
 40
0.473145702
 40
0.5679370516
 40
0.6615543489
 40
0.7530993918
 40
0.8413683563
 40
0.9246024643
 40
1.0
 40
1.0
 40
1.0
 40
1.0
 10
28.3714512341
 20
16.8327183203
 30
0.0
 10
28.3953041287
 20
16.8221682369
 30
0.0
 10
28.4420173844
 20
16.7982566663
 30
0.0
 10
28.5077818313
 20
16.7545387675
 30
0.0
 10
28.5686314902
 20
16.7033333003
 30
0.0
 10
28.623610445
 20
16.6453713639
 30
0.0
 10
28.6718110959
 20
16.581672391
 30
0.0
 10
28.7125003211
 20
16.5135213351
 30
0.0
 10
28.7452017948
 20
16.4423884006
 30
0.0
 10
28.7697168954
 20
16.3699684521
 30
0.0
 10
28.7861718974
 20
16.2982886698
 30
0.0
 10
28.7951204047
 20
16.2298593535
 30
0.0
 10
28.7969776594
 20
16.185559715
 30
0.0
 10
28.7969757868
 20
16.1645142177
 30
0.0
  0
SPLINE
  5
585
100
AcDbEntity
  8
0
100
AcDbSpline
 62
7
  6
BYLAYER
 70
0
 71
3
 72
10
 73
6
 74
0
 42
0.0000001
 43
0.0000001
 44
0.0000000001
 40
0.0
 40
0.0
 40
0.0
 40
0.0
 40
0.1138746872
 40
0.4513076686
 40
1.0
 40
1.0
 40
1.0
 40
1.0
 10
28.1030843617
 20
16.8604712299
 30
0.0
 10
28.1031626472
 20
16.8635217191
 30
0.0
 10
28.1033726351
 20
16.875612385
 30
0.0
 10
28.1031962356
 20
16.9024087439
 30
0.0
 10
28.1031549801
 20
16.9261510958
 30
0.0
 10
28.1030843824
 20
16.940852851
 30
0.0
  0
LINE
  5
586
100
AcDbEntity
  8
0
100
AcDbLine
 62
7
  6
BYLAYER
 10
28.1030843824
 20
16.940852851
 11
25.747412113
 21
16.9617440981
  0
LINE
  5
587
100
AcDbEntity
  8
0
100
AcDbLine
 62
7
  6
BYLAYER
 10
25.747412113
 20
16.9617440981
 11
25.747412109
 21
16.8810288702
  0
SPLINE
  5
588
100
AcDbEntity
  8
0
100
AcDbSpline
 62
7
  6
BYLAYER
 70
0
 71
3
 72
11
 73
7
 74
0
 42
0.0000001
 43
0.0000001
 44
0.0000000001
 40
0.0
 40
0.0
 40
0.0
 40
0.0
 40
0.3826523427
 40
0.7070483446
 40
0.9238152529
 40
1.0
 40
1.0
 40
1.0
 40
1.0
 10
30.6504663997
 20
15.8382480289
 30
0.0
 10
30.6506890028
 20
15.8637577659
 30
0.0
 10
30.6510743881
 20
15.9108956123
 30
0.0
 10
30.6511105795
 20
15.9724796686
 30
0.0
 10
30.6513710904
 20
16.0136467623
 30
0.0
 10
30.6507111011
 20
16.0331658447
 30
0.0
 10
30.6504663997
 20
16.0382404135
 30
0.0
  0
SPLINE
  5
589
100
AcDbEntity
  8
0
100
AcDbSpline
 62
7
  6
BYLAYER
 70
0
 71
3
 72
11
 73
7
 74
0
 42
0.0000001
 43
0.0000001
 44
0.0000000001
 40
0.0
 40
0.0
 40
0.0
 40
0.0
 40
0.3361452409
 40
0.6439579989
 40
0.8772471932
 40
1.0
 40
1.0
 40
1.0
 40
1.0
 10
33.3973945893
 20
22.4787358838
 30
0.0
 10
33.3972125761
 20
22.4982053936
 30
0.0
 10
33.396993742
 20
22.5355034313
 30
0.0
 10
33.3967490613
 20
22.58631932
 30
0.0
 10
33.3970013754
 20
22.6247627211
 30
0.0
 10
33.3970173849
 20
22.645397595
 30
0.0
 10
33.3973975607
 20
22.6524975689
 30
0.0
  0
SPLINE
  5
58A
100
AcDbEntity
  8
0
100
AcDbSpline
 62
7
  6
BYLAYER
 70
0
 71
3
 72
11
 73
7
 74
0
 42
0.0000001
 43
0.0000001
 44
0.0000000001
 40
0.0
 40
0.0
 40
0.0
 40
0.0
 40
0.1221074531
 40
0.3550116322
 40
0.6632796478
 40
1.0
 40
1.0
 40
1.0
 40
1.0
 10
30.9942404044
 20
22.6695092357
 30
0.0
 10
30.9945952194
 20
22.6624453801
 30
0.0
 10
30.9946537007
 20
22.641872475
 30
0.0
 10
30.9948606651
 20
22.6034608344
 30
0.0
 10
30.9946562039
 20
22.5526081527
 30
0.0
 10
30.9944132104
 20
22.5152504269
 30
0.0
 10
30.9942404011
 20
22.4957475296
 30
0.0
  0
SPLINE
  5
58B
100
AcDbEntity
  8
0
100
AcDbSpline
 62
7
  6
BYLAYER
 70
0
 71
3
 72
11
 73
7
 74
0
 42
0.0000001
 43
0.0000001
 44
0.0000000001
 40
0.0
 40
0.0
 40
0.0
 40
0.0
 40
0.3369889911
 40
0.6445959869
 40
0.8776771828
 40
1.0
 40
1.0
 40
1.0
 40
1.0
 10
33.3973985498
 20
19.5925736644
 30
0.0
 10
33.3972155716
 20
19.5730065972
 30
0.0
 10
33.3969949042
 20
19.5355784766
 30
0.0
 10
33.396748611
 20
19.4846108997
 30
0.0
 10
33.3970020627
 20
19.446120492
 30
0.0
 10
33.3970172642
 20
19.4254713635
 30
0.0
 10
33.3973945877
 20
19.4183784799
 30
0.0
  0
SPLINE
  5
58C
100
AcDbEntity
  8
0
100
AcDbSpline
 62
7
  6
BYLAYER
 70
0
 71
3
 72
11
 73
7
 74
0
 42
0.0000001
 43
0.0000001
 44
0.0000000001
 40
0.0
 40
0.0
 40
0.0
 40
0.0
 40
0.1221069424
 40
0.3550129257
 40
0.6632838108
 40
1.0
 40
1.0
 40
1.0
 40
1.0
 10
30.997412102
 20
19.4013892862
 30
0.0
 10
30.9977669217
 20
19.4084531146
 30
0.0
 10
30.9978253985
 20
19.4290261031
 30
0.0
 10
30.9980323683
 20
19.4674379993
 30
0.0
 10
30.9978279028
 20
19.5182907303
 30
0.0
 10
30.9975849093
 20
19.5556483955
 30
0.0
 10
30.997412102
 20
19.5751510592
 30
0.0
  0
SPLINE
  5
58D
100
AcDbEntity
  8
0
100
AcDbSpline
 62
7
  6
BYLAYER
 70
0
 71
3
 72
12
 73
8
 74
0
 42
0.0000001
 43
0.0000001
 44
0.0000000001
 40
0.0
 40
0.0
 40
0.0
 40
0.0
 40
0.1985495101
 40
0.3976527674
 40
0.5976510126
 40
0.7985452844
 40
1.0
 40
1.0
 40
1.0
 40
1.0
 10
24.5987210926
 20
17.5968587475
 30
0.0
 10
24.5987210926
 20
17.5457698732
 30
0.0
 10
24.6151795814
 20
17.4427185882
 30
0.0
 10
24.6867410666
 20
17.3038321593
 30
0.0
 10
24.7981806569
 20
17.1932937517
 30
0.0
 10
24.9384326026
 20
17.1219111381
 30
0.0
 10
25.0425233249
 20
17.1049191008
 30
0.0
 10
25.0943578248
 20
17.1044736202
 30
0.0
  0
SPLINE
  5
58E
100
AcDbEntity
  8
0
100
AcDbSpline
 62
7
  6
BYLAYER
 70
0
 71
3
 72
12
 73
8
 74
0
 42
0.0000001
 43
0.0000001
 44
0.0000000001
 40
0.0
 40
0.0
 40
0.0
 40
0.0
 40
0.2950197455
 40
0.5620380813
 40
0.7770461864
 40
0.9229883422
 40
1.0
 40
1.0
 40
1.0
 40
1.0
 10
25.0943578248
 20
13.957875539
 30
0.0
 10
25.0431735391
 20
13.9579684087
 30
0.0
 10
24.9455254588
 20
13.9613746082
 30
0.0
 10
24.8117065405
 20
13.9743225656
 30
0.0
 10
24.7034119898
 20
13.9969168509
 30
0.0
 10
24.6336559778
 20
14.0182001286
 30
0.0
 10
24.5987210926
 20
14.0484663096
 30
0.0
 10
24.5987210926
 20
14.0618274261
 30
0.0
  0
SPLINE
  5
58F
100
AcDbEntity
  8
0
100
AcDbSpline
 62
7
  6
BYLAYER
 70
0
 71
3
 72
11
 73
7
 74
0
 42
0.0000001
 43
0.0000001
 44
0.0000000001
 40
0.0
 40
0.0
 40
0.0
 40
0.0
 40
0.115493937
 40
0.3478475009
 40
0.6591053572
 40
1.0
 40
1.0
 40
1.0
 40
1.0
 10
30.8473562675
 20
8.3945569841
 30
0.0
 10
30.8480483966
 20
8.3853574106
 30
0.0
 10
30.8479372524
 20
8.3575366554
 30
0.0
 10
30.8487514378
 20
8.3049163007
 30
0.0
 10
30.8487761551
 20
8.2342509672
 30
0.0
 10
30.8488001246
 20
8.1821604016
 30
0.0
 10
30.8487211267
 20
8.1549300966
 30
0.0
  0
SPLINE
  5
590
100
AcDbEntity
  8
0
100
AcDbSpline
 62
7
  6
BYLAYER
 70
0
 71
3
 72
12
 73
8
 74
0
 42
0.0000001
 43
0.0000001
 44
0.0000000001
 40
0.0
 40
0.0
 40
0.0
 40
0.0
 40
0.3644943394
 40
0.6774464738
 40
0.8929393892
 40
0.9601623604
 40
1.0
 40
1.0
 40
1.0
 40
1.0
 10
30.8487210286
 20
13.5549289731
 30
0.0
 10
30.8487441948
 20
13.5359506312
 30
0.0
 10
30.8488358564
 20
13.5006774794
 30
0.0
 10
30.849110834
 20
13.4541855768
 30
0.0
 10
30.8494317636
 20
13.4231708099
 30
0.0
 10
30.8497916796
 20
13.4063808383
 30
0.0
 10
30.8499575018
 20
13.4008078287
 30
0.0
 10
30.8500770063
 20
13.3987370226
 30
0.0
  0
SPLINE
  5
591
100
AcDbEntity
  8
0
100
AcDbSpline
 62
7
  6
BYLAYER
 70
0
 71
3
 72
11
 73
7
 74
0
 42
0.0000001
 43
0.0000001
 44
0.0000000001
 40
0.0
 40
0.0
 40
0.0
 40
0.0
 40
0.3971328275
 40
0.7185993224
 40
0.9275316878
 40
1.0
 40
1.0
 40
1.0
 40
1.0
 10
25.0943578249
 20
7.5327569129
 30
0.0
 10
25.09397908
 20
7.4803304077
 30
0.0
 10
25.0964131685
 20
7.3886852416
 30
0.0
 10
25.0858592554
 20
7.2553524176
 30
0.0
 10
25.1053870469
 20
7.1964909005
 30
0.0
 10
25.084791215
 20
7.136811325
 30
0.0
 10
25.0943578249
 20
7.1367278385
 30
0.0
  0
SPLINE
  5
592
100
AcDbEntity
  8
0
100
AcDbSpline
 62
7
  6
BYLAYER
 70
0
 71
3
 72
12
 73
8
 74
0
 42
0.0000001
 43
0.0000001
 44
0.0000000001
 40
0.0
 40
0.0
 40
0.0
 40
0.0
 40
0.0770116571
 40
0.2229538113
 40
0.437961914
 40
0.704980247
 40
1.0
 40
1.0
 40
1.0
 40
1.0
 10
24.5987210926
 20
7.6367088
 30
0.0
 10
24.5987210926
 20
7.6233476836
 30
0.0
 10
24.6336559773
 20
7.5930815028
 30
0.0
 10
24.7034119885
 20
7.5717982252
 30
0.0
 10
24.811706538
 20
7.54920394
 30
0.0
 10
24.9455254566
 20
7.5362559823
 30
0.0
 10
25.0431735378
 20
7.5328497826
 30
0.0
 10
25.0943578248
 20
7.5327569129
 30
0.0
  0
LINE
  5
593
100
AcDbEntity
  8
0
100
AcDbLine
 62
7
  6
BYLAYER
 10
31.2987210926
 20
7.486466436
 11
31.2987210926
 21
7.0904373615
  0
SPLINE
  5
594
100
AcDbEntity
  8
0
100
AcDbSpline
 62
7
  6
BYLAYER
 70
0
 71
3
 72
11
 73
7
 74
0
 42
0.0000001
 43
0.0000001
 44
0.0000000001
 40
0.0
 40
0.0
 40
0.0
 40
0.0
 40
0.0724309629
 40
0.2813456289
 40
0.6028171972
 40
1.0
 40
1.0
 40
1.0
 40
1.0
 10
30.8487210926
 20
7.086510271
 30
0.0
 10
30.8391594137
 20
7.0864268275
 30
0.0
 10
30.8597504365
 20
7.1464905412
 30
0.0
 10
30.8402212108
 20
7.2049800183
 30
0.0
 10
30.8507853028
 20
7.3385113992
 30
0.0
 10
30.8483236458
 20
7.4301063834
 30
0.0
 10
30.8487210901
 20
7.4825393454
 30
0.0
  0
SPLINE
  5
595
100
AcDbEntity
  8
0
100
AcDbSpline
 62
7
  6
BYLAYER
 70
0
 71
3
 72
10
 73
6
 74
0
 42
0.0000001
 43
0.0000001
 44
0.0000000001
 40
0.0
 40
0.0
 40
0.0
 40
0.0
 40
0.3352732257
 40
0.6639990059
 40
1.0
 40
1.0
 40
1.0
 40
1.0
 10
31.2114424591
 20
8.1791699028
 30
0.0
 10
31.230347058
 20
8.1515386246
 30
0.0
 10
31.2628117808
 20
8.0931301395
 30
0.0
 10
31.2925420244
 20
7.9970929997
 30
0.0
 10
31.298714144
 20
7.9304790563
 30
0.0
 10
31.2987210926
 20
7.8969269666
 30
0.0
  0
SPLINE
  5
596
100
AcDbEntity
  8
0
100
AcDbSpline
 62
7
  6
BYLAYER
 70
0
 71
3
 72
10
 73
6
 74
0
 42
0.0000001
 43
0.0000001
 44
0.0000000001
 40
0.0
 40
0.0
 40
0.0
 40
0.0
 40
0.2669081087
 40
0.5962584733
 40
1.0
 40
1.0
 40
1.0
 40
1.0
 10
25.5987384089
 20
60.0229534656
 30
0.0
 10
25.598737878
 20
60.0367275949
 30
0.0
 10
25.6063584513
 20
60.0679543538
 30
0.0
 10
25.6421672633
 20
60.1074983338
 30
0.0
 10
25.6768714121
 20
60.1243610113
 30
0.0
 10
25.6965880331
 20
60.1310972323
 30
0.0
  0
SPLINE
  5
597
100
AcDbEntity
  8
0
100
AcDbSpline
 62
7
  6
BYLAYER
 70
0
 71
3
 72
10
 73
6
 74
0
 42
0.0000001
 43
0.0000001
 44
0.0000000001
 40
0.0
 40
0.0
 40
0.0
 40
0.0
 40
0.3938719539
 40
0.7220841106
 40
1.0
 40
1.0
 40
1.0
 40
1.0
 10
25.6714790638
 20
69.4355186059
 30
0.0
 10
25.6579780688
 20
69.4309396972
 30
0.0
 10
25.6339742818
 20
69.4198511753
 30
0.0
 10
25.6064280367
 20
69.3950673525
 30
0.0
 10
25.5987168694
 20
69.3729990928
 30
0.0
 10
25.5987108124
 20
69.362939826
 30
0.0
  0
SPLINE
  5
598
100
AcDbEntity
  8
0
100
AcDbSpline
 62
7
  6
BYLAYER
 70
0
 71
3
 72
10
 73
6
 74
0
 42
0.0000001
 43
0.0000001
 44
0.0000000001
 40
0.0
 40
0.0
 40
0.0
 40
0.0
 40
0.3239410203
 40
0.6574638984
 40
1.0
 40
1.0
 40
1.0
 40
1.0
 10
25.6714790638
 20
69.4355186059
 30
0.0
 10
25.6742456384
 20
68.4308241718
 30
0.0
 10
25.679832488
 20
66.3917173495
 30
0.0
 10
25.6882103127
 20
63.290243578
 30
0.0
 10
25.6937879477
 20
61.1934641529
 30
0.0
 10
25.6965880331
 20
60.1310972323
 30
0.0
  0
SPLINE
  5
599
100
AcDbEntity
  8
0
100
AcDbSpline
 62
7
  6
BYLAYER
 70
0
 71
3
 72
10
 73
6
 74
0
 42
0.0000001
 43
0.0000001
 44
0.0000000001
 40
0.0
 40
0.0
 40
0.0
 40
0.0
 40
0.3338767143
 40
0.6673440099
 40
1.0
 40
1.0
 40
1.0
 40
1.0
 10
25.6965857142
 20
60.1311000705
 30
0.0
 10
25.7175885912
 20
60.1346016081
 30
0.0
 10
25.7596057558
 20
60.1413739427
 30
0.0
 10
25.822619571
 20
60.1512083085
 30
0.0
 10
25.8647334071
 20
60.1568161657
 30
0.0
 10
25.8857854246
 20
60.1594400769
 30
0.0
  0
SPLINE
  5
59A
100
AcDbEntity
  8
0
100
AcDbSpline
 62
7
  6
BYLAYER
 70
0
 71
3
 72
23
 73
19
 74
0
 42
0.0000001
 43
0.0000001
 44
0.0000000001
 40
0.0
 40
0.0
 40
0.0
 40
0.0
 40
0.1219391343
 40
0.2455621582
 40
0.3705318671
 40
0.4965690747
 40
0.6234116214
 40
0.6870467751
 40
0.7507584681
 40
0.8144639666
 40
0.8779920143
 40
0.9095722478
 40
0.9408326087
 40
0.9562371472
 40
0.971378011
 40
0.9788630183
 40
0.986177538
 40
1.0
 40
1.0
 40
1.0
 40
1.0
 10
25.8857844083
 20
60.1594337159
 30
0.0
 10
26.019075312
 20
60.177298455
 30
0.0
 10
26.2866232199
 20
60.2199698396
 30
0.0
 10
26.6874266562
 20
60.3000361111
 30
0.0
 10
27.0898066121
 20
60.3941265906
 30
0.0
 10
27.4926847618
 20
60.5008330151
 30
0.0
 10
27.8274595041
 20
60.599950103
 30
0.0
 10
28.0940905997
 20
60.6865809041
 30
0.0
 10
28.2930454871
 20
60.7560390149
 30
0.0
 10
28.4897677205
 20
60.8312656531
 30
0.0
 10
28.6505079276
 20
60.9011816016
 30
0.0
 10
28.774544825
 20
60.9648723754
 30
0.0
 10
28.8481876827
 20
61.010129066
 30
0.0
 10
28.9030358054
 20
61.0507016239
 30
0.0
 10
28.9337778064
 20
61.07947647
 30
0.0
 10
28.9546926351
 20
61.1051243811
 30
0.0
 10
28.9718425852
 20
61.1316134805
 30
0.0
 10
28.980390178
 20
61.1540488934
 30
0.0
 10
28.9823762458
 20
61.1691633155
 30
0.0
  0
SPLINE
  5
59B
100
AcDbEntity
  8
0
100
AcDbSpline
 62
7
  6
BYLAYER
 70
0
 71
3
 72
11
 73
7
 74
0
 42
0.0000001
 43
0.0000001
 44
0.0000000001
 40
0.0
 40
0.0
 40
0.0
 40
0.0
 40
0.2815263875
 40
0.5244459808
 40
0.7784949601
 40
1.0
 40
1.0
 40
1.0
 40
1.0
 10
28.9824258164
 20
61.1691614354
 30
0.0
 10
29.0776593266
 20
61.9496203748
 30
0.0
 10
29.255561561
 20
63.4034524168
 30
0.0
 10
29.5176186455
 20
65.5617775097
 30
0.0
 10
29.7679906596
 20
67.552691768
 30
0.0
 10
29.9566178541
 20
68.8674569808
 30
0.0
 10
30.0508017701
 20
69.478865243
 30
0.0
  0
SPLINE
  5
59C
100
AcDbEntity
  8
0
100
AcDbSpline
 62
7
  6
BYLAYER
 70
0
 71
3
 72
14
 73
10
 74
0
 42
0.0000001
 43
0.0000001
 44
0.0000000001
 40
0.0
 40
0.0
 40
0.0
 40
0.0
 40
0.252575849
 40
0.3977394915
 40
0.545623122
 40
0.6871905896
 40
0.8139029548
 40
0.918771269
 40
1.0
 40
1.0
 40
1.0
 40
1.0
 10
25.8857845832
 20
60.1594399336
 30
0.0
 10
25.8851205948
 20
60.1358423839
 30
0.0
 10
25.8867990368
 20
60.0985721343
 30
0.0
 10
25.8935689721
 20
60.0480119558
 30
0.0
 10
25.9014760302
 20
60.0081300207
 30
0.0
 10
25.9118683789
 20
59.9706128831
 30
0.0
 10
25.9238508291
 20
59.9377971819
 30
0.0
 10
25.9368427196
 20
59.9115483352
 30
0.0
 10
25.9467549084
 20
59.8971054283
 30
0.0
 10
25.9518164077
 20
59.8914468242
 30
0.0
  0
SPLINE
  5
59D
100
AcDbEntity
  8
0
100
AcDbSpline
 62
7
  6
BYLAYER
 70
0
 71
3
 72
14
 73
10
 74
0
 42
0.0000001
 43
0.0000001
 44
0.0000000001
 40
0.0
 40
0.0
 40
0.0
 40
0.0
 40
0.1909020132
 40
0.3647803641
 40
0.5192892748
 40
0.6508092409
 40
0.7729086159
 40
0.8925848604
 40
1.0
 40
1.0
 40
1.0
 40
1.0
 10
28.5687565807
 20
60.7684216336
 30
0.0
 10
28.6031481728
 20
60.7868591486
 30
0.0
 10
28.6682034363
 20
60.8233415818
 30
0.0
 10
28.7585677538
 20
60.8791096773
 30
0.0
 10
28.8355715854
 20
60.9331689741
 30
0.0
 10
28.8999384617
 20
60.98640819
 30
0.0
 10
28.9536764394
 20
61.0408002416
 30
0.0
 10
28.9947938029
 20
61.1000076403
 30
0.0
 10
29.0086776297
 20
61.1453489096
 30
0.0
 10
29.0113947862
 20
61.1671367573
 30
0.0
  0
SPLINE
  5
59E
100
AcDbEntity
  8
0
100
AcDbSpline
 62
7
  6
BYLAYER
 70
0
 71
3
 72
13
 73
9
 74
0
 42
0.0000001
 43
0.0000001
 44
0.0000000001
 40
0.0
 40
0.0
 40
0.0
 40
0.0
 40
0.1286172461
 40
0.2725411813
 40
0.4327235478
 40
0.61295079
 40
0.8096737165
 40
1.0
 40
1.0
 40
1.0
 40
1.0
 10
28.5687565807
 20
60.7684216336
 30
0.0
 10
28.4641992589
 20
60.7122445967
 30
0.0
 10
28.2370790978
 20
60.6036123899
 30
0.0
 10
27.8685230909
 20
60.4496793071
 30
0.0
 10
27.4495371399
 20
60.2936982312
 30
0.0
 10
26.9785783086
 20
60.1386433188
 30
0.0
 10
26.4742040615
 20
59.9976463508
 30
0.0
 10
26.1248242123
 20
59.9217463195
 30
0.0
 10
25.9518156064
 20
59.8914519336
 30
0.0
  0
SPLINE
  5
59F
100
AcDbEntity
  8
0
100
AcDbSpline
 62
7
  6
BYLAYER
 70
0
 71
3
 72
11
 73
7
 74
0
 42
0.0000001
 43
0.0000001
 44
0.0000000001
 40
0.0
 40
0.0
 40
0.0
 40
0.0
 40
0.150887005
 40
0.3718490698
 40
0.6648228548
 40
1.0
 40
1.0
 40
1.0
 40
1.0
 10
30.8487210922
 20
61.2539669885
 30
0.0
 10
30.8487192493
 20
61.2425234067
 30
0.0
 10
30.8319353506
 20
61.2157575968
 30
0.0
 10
30.7862932856
 20
61.1930458085
 30
0.0
 10
30.7236623496
 20
61.1766295219
 30
0.0
 10
30.675886654
 20
61.1730227817
 30
0.0
 10
30.6504662862
 20
61.1729328951
 30
0.0
  0
SPLINE
  5
5A0
100
AcDbEntity
  8
0
100
AcDbSpline
 62
7
  6
BYLAYER
 70
0
 71
3
 72
11
 73
7
 74
0
 42
0.0000001
 43
0.0000001
 44
0.0000000001
 40
0.0
 40
0.0
 40
0.0
 40
0.0
 40
0.2579913201
 40
0.5113313123
 40
0.7580309092
 40
1.0
 40
1.0
 40
1.0
 40
1.0
 10
30.6504664568
 20
56.8928255574
 30
0.0
 10
30.6762646158
 20
56.8930355146
 30
0.0
 10
30.7278206628
 20
56.9028316439
 30
0.0
 10
30.7936103446
 20
56.9439350747
 30
0.0
 10
30.838162598
 20
57.0056918245
 30
0.0
 10
30.8487217192
 20
57.0551350715
 30
0.0
 10
30.8487210925
 20
57.0793318693
 30
0.0
  0
SPLINE
  5
5A1
100
AcDbEntity
  8
0
100
AcDbSpline
 62
7
  6
BYLAYER
 70
0
 71
3
 72
11
 73
7
 74
0
 42
0.0000001
 43
0.0000001
 44
0.0000000001
 40
0.0
 40
0.0
 40
0.0
 40
0.0
 40
0.2398606681
 40
0.4857563175
 40
0.739978035
 40
1.0
 40
1.0
 40
1.0
 40
1.0
 10
30.8487210925
 20
59.6706654987
 30
0.0
 10
30.8487217195
 20
59.6944505626
 30
0.0
 10
30.8380911944
 20
59.7431977165
 30
0.0
 10
30.793418009
 20
59.8038497637
 30
0.0
 10
30.7276548415
 20
59.8441072619
 30
0.0
 10
30.6762499311
 20
59.8536807558
 30
0.0
 10
30.6504664568
 20
59.8538868977
 30
0.0
  0
SPLINE
  5
5A2
100
AcDbEntity
  8
0
100
AcDbSpline
 62
7
  6
BYLAYER
 70
0
 71
3
 72
24
 73
20
 74
0
 42
0.0000001
 43
0.0000001
 44
0.0000000001
 40
0.0
 40
0.0
 40
0.0
 40
0.0
 40
0.0276889438
 40
0.0561927122
 40
0.0866047857
 40
0.1220427459
 40
0.1618877132
 40
0.1978460455
 40
0.2334058002
 40
0.2759586256
 40
0.3280802473
 40
0.3933145686
 40
0.4765343943
 40
0.5322198244
 40
0.5978464238
 40
0.6753583925
 40
0.7666893779
 40
0.8740554729
 40
1.0
 40
1.0
 40
1.0
 40
1.0
 10
28.3769769443
 20
56.3108625844
 30
0.0
 10
28.3788587588
 20
56.336833268
 30
0.0
 10
28.372471958
 20
56.3916670885
 30
0.0
 10
28.3240004934
 20
56.4596631864
 30
0.0
 10
28.2574098895
 20
56.5186051921
 30
0.0
 10
28.1729491245
 20
56.5717388425
 30
0.0
 10
28.0790865524
 20
56.6181242709
 30
0.0
 10
27.9821721482
 20
56.6579714174
 30
0.0
 10
27.8810905791
 20
56.6939722326
 30
0.0
 10
27.764080777
 20
56.7302584048
 30
0.0
 10
27.6187391644
 20
56.7690078378
 30
0.0
 10
27.4346110722
 20
56.8101761365
 30
0.0
 10
27.2455732569
 20
56.8440134227
 30
0.0
 10
27.0551577499
 20
56.8713070294
 30
0.0
 10
26.8693605809
 20
56.8925222051
 30
0.0
 10
26.6495520655
 20
56.9104542539
 30
0.0
 10
26.389988919
 20
56.9219588077
 30
0.0
 10
26.0845903671
 20
56.9222786454
 30
0.0
 10
25.865328025
 20
56.9110708859
 30
0.0
 10
25.7472623039
 20
56.9016795856
 30
0.0
  0
SPLINE
  5
5A3
100
AcDbEntity
  8
0
100
AcDbSpline
 62
7
  6
BYLAYER
 70
0
 71
3
 72
10
 73
6
 74
0
 42
0.0000001
 43
0.0000001
 44
0.0000000001
 40
0.0
 40
0.0
 40
0.0
 40
0.0
 40
0.1536983965
 40
0.4786607043
 40
1.0
 40
1.0
 40
1.0
 40
1.0
 10
25.7472622987
 20
56.9016801754
 30
0.0
 10
25.7416038936
 20
56.9057846669
 30
0.0
 10
25.7142743397
 20
56.8948762699
 30
0.0
 10
25.7112205698
 20
56.8454016623
 30
0.0
 10
25.7052126015
 20
56.8087429862
 30
0.0
 10
25.705012488
 20
56.7850329651
 30
0.0
  0
SPLINE
  5
5A4
100
AcDbEntity
  8
0
100
AcDbSpline
 62
7
  6
BYLAYER
 70
0
 71
3
 72
23
 73
19
 74
0
 42
0.0000001
 43
0.0000001
 44
0.0000000001
 40
0.0
 40
0.0
 40
0.0
 40
0.0
 40
0.014027207
 40
0.0281687272
 40
0.0425815556
 40
0.0574173337
 40
0.0724323006
 40
0.0875863604
 40
0.1183023629
 40
0.1805283964
 40
0.243296329
 40
0.3063068795
 40
0.3694282621
 40
0.495748845
 40
0.6220094209
 40
0.7481297995
 40
0.8741104503
 40
1.0
 40
1.0
 40
1.0
 40
1.0
 10
28.3479813687
 20
56.3135735152
 30
0.0
 10
28.3495923948
 20
56.3264585155
 30
0.0
 10
28.3474724129
 20
56.3531818788
 30
0.0
 10
28.3311167381
 20
56.3897093582
 30
0.0
 10
28.3049103256
 20
56.4206474137
 30
0.0
 10
28.2731624216
 20
56.4467089669
 30
0.0
 10
28.2386340864
 20
56.4700954737
 30
0.0
 10
28.1896588436
 20
56.498080573
 30
0.0
 10
28.0986868834
 20
56.540114265
 30
0.0
 10
27.9622489347
 20
56.5873852355
 30
0.0
 10
27.7941696616
 20
56.6327898951
 30
0.0
 10
27.6233276823
 20
56.6703571189
 30
0.0
 10
27.3933899141
 20
56.7123212144
 30
0.0
 10
27.1037013387
 20
56.7520810546
 30
0.0
 10
26.7544226143
 20
56.7833893713
 30
0.0
 10
26.4044315803
 20
56.7996014898
 30
0.0
 10
26.0544229221
 20
56.8011067964
 30
0.0
 10
25.8213445646
 20
56.7921709413
 30
0.0
 10
25.7050187955
 20
56.7851244962
 30
0.0
  0
SPLINE
  5
5A5
100
AcDbEntity
  8
0
100
AcDbSpline
 62
7
  6
BYLAYER
 70
0
 71
3
 72
10
 73
6
 74
0
 42
0.0000001
 43
0.0000001
 44
0.0000000001
 40
0.0
 40
0.0
 40
0.0
 40
0.0
 40
0.3270400278
 40
0.6605415052
 40
1.0
 40
1.0
 40
1.0
 40
1.0
 10
25.7050124366
 20
56.7850330349
 30
0.0
 10
25.7076205433
 20
55.7533481076
 30
0.0
 10
25.7123083658
 20
53.6695934534
 30
0.0
 10
25.7192464471
 20
50.5149773689
 30
0.0
 10
25.7232405
 20
48.3920456146
 30
0.0
 10
25.7252155927
 20
47.3211836218
 30
0.0
  0
SPLINE
  5
5A6
100
AcDbEntity
  8
0
100
AcDbSpline
 62
7
  6
BYLAYER
 70
0
 71
3
 72
17
 73
13
 74
0
 42
0.0000001
 43
0.0000001
 44
0.0000000001
 40
0.0
 40
0.0
 40
0.0
 40
0.0
 40
0.1248929656
 40
0.2545236414
 40
0.3813375613
 40
0.5004354245
 40
0.6072483528
 40
0.6982008017
 40
0.7768508017
 40
0.8646892061
 40
0.932977221
 40
1.0
 40
1.0
 40
1.0
 40
1.0
 10
25.7252155927
 20
47.3211836218
 30
0.0
 10
25.7792288301
 20
47.3363022743
 30
0.0
 10
25.8889787749
 20
47.3682789206
 30
0.0
 10
26.0525776048
 20
47.4189576401
 30
0.0
 10
26.2124549966
 20
47.4727265704
 30
0.0
 10
26.3610622204
 20
47.5276575917
 30
0.0
 10
26.492627833
 20
47.5820192898
 30
0.0
 10
26.6049813209
 20
47.6348929258
 30
0.0
 10
26.7066175465
 20
47.6903333129
 30
0.0
 10
26.793831422
 20
47.7496143449
 30
0.0
 10
26.8690318379
 20
47.8176901336
 30
0.0
 10
26.8963859993
 20
47.873742528
 30
0.0
 10
26.9056200003
 20
47.9023909664
 30
0.0
  0
SPLINE
  5
5A7
100
AcDbEntity
  8
0
100
AcDbSpline
 62
7
  6
BYLAYER
 70
0
 71
3
 72
10
 73
6
 74
0
 42
0.0000001
 43
0.0000001
 44
0.0000000001
 40
0.0
 40
0.0
 40
0.0
 40
0.0
 40
0.3503584897
 40
0.6794103179
 40
1.0
 40
1.0
 40
1.0
 40
1.0
 10
26.9056200003
 20
47.9023909664
 30
0.0
 10
27.110578069
 20
48.8779318889
 30
0.0
 10
27.487550092
 20
50.7742461516
 30
0.0
 10
27.9506138432
 20
53.5817863976
 30
0.0
 10
28.2234406494
 20
55.4099840194
 30
0.0
 10
28.3481174474
 20
56.3135638937
 30
0.0
  0
SPLINE
  5
5A8
100
AcDbEntity
  8
0
100
AcDbSpline
 62
7
  6
BYLAYER
 70
0
 71
3
 72
11
 73
7
 74
0
 42
0.0000001
 43
0.0000001
 44
0.0000000001
 40
0.0
 40
0.0
 40
0.0
 40
0.0
 40
0.2369906939
 40
0.4908044841
 40
0.7336101973
 40
1.0
 40
1.0
 40
1.0
 40
1.0
 10
28.3769769493
 20
56.3108625842
 30
0.0
 10
28.2844129422
 20
55.6427562939
 30
0.0
 10
28.0810532149
 20
54.2607313689
 30
0.0
 10
27.7531626155
 20
52.1986966217
 30
0.0
 10
27.3761041075
 20
50.0599383001
 30
0.0
 10
27.0872090729
 20
48.6396647524
 30
0.0
 10
26.9301431363
 20
47.8979531861
 30
0.0
  0
LINE
  5
5A9
100
AcDbEntity
  8
0
100
AcDbLine
 62
7
  6
BYLAYER
 10
29.0943578249
 20
46.4382889596
 11
30.6504663226
 21
46.4136485567
  0
SPLINE
  5
5AA
100
AcDbEntity
  8
0
100
AcDbSpline
 62
7
  6
BYLAYER
 70
0
 71
3
 72
16
 73
12
 74
0
 42
0.0000001
 43
0.0000001
 44
0.0000000001
 40
0.0
 40
0.0
 40
0.0
 40
0.0
 40
0.0715060802
 40
0.155726073
 40
0.2588831272
 40
0.3499761876
 40
0.4606054631
 40
0.5873992753
 40
0.724277053
 40
0.864747538
 40
1.0
 40
1.0
 40
1.0
 40
1.0
 10
26.930143102
 20
47.8979531872
 30
0.0
 10
26.92315528
 20
47.8652431779
 30
0.0
 10
26.8923842692
 20
47.7969599706
 30
0.0
 10
26.8083008875
 20
47.7082231596
 30
0.0
 10
26.7038674311
 20
47.6298546909
 30
0.0
 10
26.581702151
 20
47.5560211215
 30
0.0
 10
26.4451500547
 20
47.4853481412
 30
0.0
 10
26.2856162626
 20
47.4130643209
 30
0.0
 10
26.11042082
 20
47.3419363607
 30
0.0
 10
25.9293872512
 20
47.2749766238
 30
0.0
 10
25.8074833561
 20
47.2328213776
 30
0.0
 10
25.7474121123
 20
47.2129696964
 30
0.0
  0
SPLINE
  5
5AB
100
AcDbEntity
  8
0
100
AcDbSpline
 62
7
  6
BYLAYER
 70
0
 71
3
 72
10
 73
6
 74
0
 42
0.0000001
 43
0.0000001
 44
0.0000000001
 40
0.0
 40
0.0
 40
0.0
 40
0.0
 40
0.3233543407
 40
0.6467843984
 40
1.0
 40
1.0
 40
1.0
 40
1.0
 10
28.1552211954
 20
46.4209345544
 30
0.0
 10
28.1393167922
 20
46.445128311
 30
0.0
 10
28.1146068705
 20
46.4989976976
 30
0.0
 10
28.1080638684
 20
46.5898329671
 30
0.0
 10
28.1213050742
 20
46.6497447403
 30
0.0
 10
28.1314513018
 20
46.6797000437
 30
0.0
  0
LINE
  5
5AC
100
AcDbEntity
  8
0
100
AcDbLine
 62
7
  6
BYLAYER
 10
30.6504664265
 20
45.8319575942
 11
29.0943578249
 21
45.8548374503
  0
LINE
  5
5AD
100
AcDbEntity
  8
0
100
AcDbLine
 62
7
  6
BYLAYER
 10
29.0943578249
 20
40.8356521748
 11
30.6504664265
 21
40.8637517721
  0
SPLINE
  5
5AE
100
AcDbEntity
  8
0
100
AcDbSpline
 62
7
  6
BYLAYER
 70
0
 71
3
 72
11
 73
7
 74
0
 42
0.0000001
 43
0.0000001
 44
0.0000000001
 40
0.0
 40
0.0
 40
0.0
 40
0.0
 40
0.3006289626
 40
0.5742716696
 40
0.8050220098
 40
1.0
 40
1.0
 40
1.0
 40
1.0
 10
30.6504664265
 20
40.8637517467
 30
0.0
 10
30.6760079485
 20
40.8638904035
 30
0.0
 10
30.7250250875
 20
40.8698778082
 30
0.0
 10
30.7893234595
 20
40.8955202785
 30
0.0
 10
30.8358029978
 20
40.9351543044
 30
0.0
 10
30.8487214394
 20
40.9715942171
 30
0.0
 10
30.8487210926
 20
40.9881598466
 30
0.0
  0
SPLINE
  5
5AF
100
AcDbEntity
  8
0
100
AcDbSpline
 62
7
  6
BYLAYER
 70
0
 71
3
 72
11
 73
7
 74
0
 42
0.0000001
 43
0.0000001
 44
0.0000000001
 40
0.0
 40
0.0
 40
0.0
 40
0.0
 40
0.2385477647
 40
0.4839257438
 40
0.7387009513
 40
1.0
 40
1.0
 40
1.0
 40
1.0
 10
30.8487210926
 20
45.6508002803
 30
0.0
 10
30.8487214308
 20
45.6743300655
 30
0.0
 10
30.8380415941
 20
45.7226427948
 30
0.0
 10
30.7932892898
 20
45.7825961591
 30
0.0
 10
30.72754787
 20
45.8223196088
 30
0.0
 10
30.6762395392
 20
45.8317538598
 30
0.0
 10
30.6504664265
 20
45.8319575962
 30
0.0
  0
SPLINE
  5
5B0
100
AcDbEntity
  8
0
100
AcDbSpline
 62
7
  6
BYLAYER
 70
0
 71
3
 72
10
 73
6
 74
0
 42
0.0000001
 43
0.0000001
 44
0.0000000001
 40
0.0
 40
0.0
 40
0.0
 40
0.0
 40
0.3760250762
 40
0.663784074
 40
1.0
 40
1.0
 40
1.0
 40
1.0
 10
28.1318155743
 20
40.1152662006
 30
0.0
 10
28.122692954
 20
40.1296812267
 30
0.0
 10
28.1083306893
 20
40.1573682455
 30
0.0
 10
28.1149732606
 20
40.2065257103
 30
0.0
 10
28.1413581688
 20
40.2232698536
 30
0.0
 10
28.1552211926
 20
40.2296318415
 30
0.0
  0
SPLINE
  5
5B1
100
AcDbEntity
  8
0
100
AcDbSpline
 62
7
  6
BYLAYER
 70
0
 71
3
 72
10
 73
6
 74
0
 42
0.0000001
 43
0.0000001
 44
0.0000000001
 40
0.0
 40
0.0
 40
0.0
 40
0.0
 40
0.4074350231
 40
0.7408522365
 40
1.0
 40
1.0
 40
1.0
 40
1.0
 10
29.0943577831
 20
40.0693491204
 30
0.0
 10
28.989728523
 20
40.1085820881
 30
0.0
 10
28.7968454816
 20
40.1737648942
 30
0.0
 10
28.5291381752
 20
40.2343409468
 30
0.0
 10
28.3667753331
 20
40.2530419443
 30
0.0
 10
28.2957042282
 20
40.252421716
 30
0.0
  0
SPLINE
  5
5B2
100
AcDbEntity
  8
0
100
AcDbSpline
 62
7
  6
BYLAYER
 70
0
 71
3
 72
10
 73
6
 74
0
 42
0.0000001
 43
0.0000001
 44
0.0000000001
 40
0.0
 40
0.0
 40
0.0
 40
0.0
 40
0.3939552411
 40
0.7258225629
 40
1.0
 40
1.0
 40
1.0
 40
1.0
 10
28.2957042282
 20
40.252421716
 30
0.0
 10
28.2769090232
 20
40.2522577761
 30
0.0
 10
28.2422548032
 20
40.2506978663
 30
0.0
 10
28.1949863216
 20
40.2435655156
 30
0.0
 10
28.1671685801
 20
40.2349589777
 30
0.0
 10
28.1552211926
 20
40.2296318415
 30
0.0
  0
SPLINE
  5
5B3
100
AcDbEntity
  8
0
100
AcDbSpline
 62
7
  6
BYLAYER
 70
0
 71
3
 72
13
 73
9
 74
0
 42
0.0000001
 43
0.0000001
 44
0.0000000001
 40
0.0
 40
0.0
 40
0.0
 40
0.0
 40
0.2413719947
 40
0.3684414047
 40
0.4974371985
 40
0.6268441588
 40
0.7550486348
 40
1.0
 40
1.0
 40
1.0
 40
1.0
 10
28.1552208474
 20
40.2296132186
 30
0.0
 10
28.2089947185
 20
40.227277957
 30
0.0
 10
28.2927439301
 20
40.2381750396
 30
0.0
 10
28.394963508
 20
40.2824956158
 30
0.0
 10
28.4665857026
 20
40.3310541096
 30
0.0
 10
28.527295869
 20
40.3930588721
 30
0.0
 10
28.5899568539
 20
40.4865509145
 30
0.0
 10
28.616585979
 20
40.5677028183
 30
0.0
 10
28.6247772126
 20
40.6217078799
 30
0.0
  0
SPLINE
  5
5B4
100
AcDbEntity
  8
0
100
AcDbSpline
 62
7
  6
BYLAYER
 70
0
 71
3
 72
14
 73
10
 74
0
 42
0.0000001
 43
0.0000001
 44
0.0000000001
 40
0.0
 40
0.0
 40
0.0
 40
0.0
 40
0.2970154507
 40
0.5798864324
 40
0.7106110095
 40
0.8286283739
 40
0.9279873797
 40
0.9679836341
 40
1.0
 40
1.0
 40
1.0
 40
1.0
 10
29.0943526234
 20
40.069346686
 30
0.0
 10
29.0496027782
 20
40.1255611347
 30
0.0
 10
28.9623364875
 20
40.2353938806
 30
0.0
 10
28.8543067693
 20
40.3691202888
 30
0.0
 10
28.7718754924
 20
40.4678404874
 30
0.0
 10
28.7165497454
 20
40.5313296378
 30
0.0
 10
28.6739808696
 20
40.5768160674
 30
0.0
 10
28.6440908779
 20
40.605550586
 30
0.0
 10
28.6309054769
 20
40.6169685011
 30
0.0
 10
28.6247787486
 20
40.621706642
 30
0.0
  0
SPLINE
  5
5B5
100
AcDbEntity
  8
0
100
AcDbSpline
 62
7
  6
BYLAYER
 70
0
 71
3
 72
11
 73
7
 74
0
 42
0.0000001
 43
0.0000001
 44
0.0000000001
 40
0.0
 40
0.0
 40
0.0
 40
0.0
 40
0.2074538549
 40
0.4472760116
 40
0.715483386
 40
1.0
 40
1.0
 40
1.0
 40
1.0
 10
28.62478951
 20
40.6217035551
 30
0.0
 10
28.6423230476
 20
40.6544583449
 30
0.0
 10
28.6964161393
 20
40.7165079453
 30
0.0
 10
28.8076225417
 20
40.7828806127
 30
0.0
 10
28.9441831254
 20
40.8254213297
 30
0.0
 10
29.0434052036
 20
40.8353729347
 30
0.0
 10
29.0943578249
 20
40.8356522123
 30
0.0
  0
LINE
  5
5B6
100
AcDbEntity
  8
0
100
AcDbLine
 62
7
  6
BYLAYER
 10
30.6504663836
 20
40.6527351704
 11
29.0943578249
 21
40.6214837771
  0
LINE
  5
5B7
100
AcDbEntity
  8
0
100
AcDbLine
 62
7
  6
BYLAYER
 10
25.7474121002
 20
35.2976586384
 11
30.6504663836
 21
35.257869564
  0
SPLINE
  5
5B8
100
AcDbEntity
  8
0
100
AcDbSpline
 62
7
  6
BYLAYER
 70
0
 71
3
 72
11
 73
7
 74
0
 42
0.0000001
 43
0.0000001
 44
0.0000000001
 40
0.0
 40
0.0
 40
0.0
 40
0.0
 40
0.3740159266
 40
0.6918147217
 40
0.9079232815
 40
1.0
 40
1.0
 40
1.0
 40
1.0
 10
30.6504663836
 20
35.257869564
 30
0.0
 10
30.6758109576
 20
35.2579018685
 30
0.0
 10
30.7219396181
 20
35.2590945455
 30
0.0
 10
30.7859687009
 20
35.2650346112
 30
0.0
 10
30.8222321949
 20
35.2718260863
 30
0.0
 10
30.8487206991
 20
35.2808401948
 30
0.0
 10
30.8487210926
 20
35.2870796272
 30
0.0
  0
SPLINE
  5
5B9
100
AcDbEntity
  8
0
100
AcDbSpline
 62
7
  6
BYLAYER
 70
0
 71
3
 72
11
 73
7
 74
0
 42
0.0000001
 43
0.0000001
 44
0.0000000001
 40
0.0
 40
0.0
 40
0.0
 40
0.0
 40
0.1033678373
 40
0.319677016
 40
0.6328405829
 40
1.0
 40
1.0
 40
1.0
 40
1.0
 10
30.8487210926
 20
40.6927346415
 30
0.0
 10
30.8487207638
 20
40.6855964318
 30
0.0
 10
30.8247766048
 20
40.6715163903
 30
0.0
 10
30.7854702925
 20
40.6628981404
 30
0.0
 10
30.7223946948
 20
40.65430284
 30
0.0
 10
30.6758210489
 20
40.6527794251
 30
0.0
 10
30.6504663836
 20
40.6527351707
 30
0.0
  0
SPLINE
  5
5BA
100
AcDbEntity
  8
0
100
AcDbSpline
 62
7
  6
BYLAYER
 70
0
 71
3
 72
14
 73
10
 74
0
 42
0.0000001
 43
0.0000001
 44
0.0000000001
 40
0.0
 40
0.0
 40
0.0
 40
0.0
 40
0.0477530282
 40
0.0992085344
 40
0.2110746837
 40
0.3315216266
 40
0.4581493947
 40
0.7236696537
 40
1.0
 40
1.0
 40
1.0
 40
1.0
 10
28.612968968
 20
40.5426834934
 30
0.0
 10
28.6174250277
 20
40.5193406131
 30
0.0
 10
28.6280110007
 20
40.4710961788
 30
0.0
 10
28.6544361816
 20
40.3694163097
 30
0.0
 10
28.6956697899
 20
40.2343028204
 30
0.0
 10
28.752325071
 20
40.0648924017
 30
0.0
 10
28.8373701062
 20
39.8243823598
 30
0.0
 10
28.9524278927
 20
39.5122370807
 30
0.0
 10
29.04673421
 20
39.2596132724
 30
0.0
 10
29.0943572964
 20
39.1306063037
 30
0.0
  0
SPLINE
  5
5BB
100
AcDbEntity
  8
0
100
AcDbSpline
 62
7
  6
BYLAYER
 70
0
 71
3
 72
11
 73
7
 74
0
 42
0.0000001
 43
0.0000001
 44
0.0000000001
 40
0.0
 40
0.0
 40
0.0
 40
0.0
 40
0.3165143044
 40
0.6112520112
 40
0.8489177675
 40
1.0
 40
1.0
 40
1.0
 40
1.0
 10
29.0943578249
 20
40.6214837771
 30
0.0
 10
29.0423573982
 20
40.6213952107
 30
0.0
 10
28.9419863402
 20
40.6183508674
 30
0.0
 10
28.8027733014
 20
40.6035111036
 30
0.0
 10
28.6931737639
 20
40.5839276589
 30
0.0
 10
28.6309989133
 20
40.5600974581
 30
0.0
 10
28.6128858979
 20
40.5431261794
 30
0.0
  0
SPLINE
  5
5BC
100
AcDbEntity
  8
0
100
AcDbSpline
 62
7
  6
BYLAYER
 70
0
 71
3
 72
11
 73
7
 74
0
 42
0.0000001
 43
0.0000001
 44
0.0000000001
 40
0.0
 40
0.0
 40
0.0
 40
0.0
 40
0.2401696564
 40
0.4892217122
 40
0.7443003947
 40
1.0
 40
1.0
 40
1.0
 40
1.0
 10
28.6129695258
 20
40.5426870938
 30
0.0
 10
28.6045300721
 20
40.4882446652
 30
0.0
 10
28.5656401302
 20
40.3799020668
 30
0.0
 10
28.4553037226
 20
40.2457766821
 30
0.0
 10
28.3059474515
 20
40.150723434
 30
0.0
 10
28.1903328775
 20
40.1205622365
 30
0.0
 10
28.1319343779
 20
40.1150817684
 30
0.0
  0
SPLINE
  5
5BD
100
AcDbEntity
  8
0
100
AcDbSpline
 62
7
  6
BYLAYER
 70
0
 71
3
 72
14
 73
10
 74
0
 42
0.0000001
 43
0.0000001
 44
0.0000000001
 40
0.0
 40
0.0
 40
0.0
 40
0.0
 40
0.0620303198
 40
0.1475052875
 40
0.2589605197
 40
0.3984820072
 40
0.5690650053
 40
0.7705649527
 40
1.0
 40
1.0
 40
1.0
 40
1.0
 10
28.1318155743
 20
40.1152662006
 30
0.0
 10
28.1468102707
 20
40.0910302011
 30
0.0
 10
28.1877454545
 20
40.036753861
 30
0.0
 10
28.2666406275
 20
39.9476847271
 30
0.0
 10
28.37398805
 20
39.8363958247
 30
0.0
 10
28.5115803469
 20
39.7000818032
 30
0.0
 10
28.6802213601
 20
39.5363371588
 30
0.0
 10
28.8786511861
 20
39.3439774184
 30
0.0
 10
29.0197753618
 20
39.2051005241
 30
0.0
 10
29.0943578009
 20
39.1306066213
 30
0.0
  0
SPLINE
  5
5BE
100
AcDbEntity
  8
0
100
AcDbSpline
 62
7
  6
BYLAYER
 70
0
 71
3
 72
15
 73
11
 74
0
 42
0.0000001
 43
0.0000001
 44
0.0000000001
 40
0.0
 40
0.0
 40
0.0
 40
0.0
 40
0.279162325
 40
0.5462029588
 40
0.6713152078
 40
0.7879369847
 40
0.8429934954
 40
0.8960206285
 40
0.9477921455
 40
1.0
 40
1.0
 40
1.0
 40
1.0
 10
29.0943538735
 20
46.1442333048
 30
0.0
 10
29.0495926765
 20
46.1370063036
 30
0.0
 10
28.9621058265
 20
46.122420801
 30
0.0
 10
28.8536751789
 20
46.1095401682
 30
0.0
 10
28.7710007889
 20
46.107354188
 30
0.0
 10
28.7227618159
 20
46.1120547485
 30
0.0
 10
28.6873908667
 20
46.1213971841
 30
0.0
 10
28.6633661211
 20
46.1315351104
 30
0.0
 10
28.641898728
 20
46.14559368
 30
0.0
 10
28.6299820142
 20
46.1578023306
 30
0.0
 10
28.6247899757
 20
46.1645063743
 30
0.0
  0
SPLINE
  5
5BF
100
AcDbEntity
  8
0
100
AcDbSpline
 62
7
  6
BYLAYER
 70
0
 71
3
 72
15
 73
11
 74
0
 42
0.0000001
 43
0.0000001
 44
0.0000000001
 40
0.0
 40
0.0
 40
0.0
 40
0.0
 40
0.1083172396
 40
0.2211328932
 40
0.3396545403
 40
0.4642391324
 40
0.5946988146
 40
0.7293603354
 40
0.8654316881
 40
1.0
 40
1.0
 40
1.0
 40
1.0
 10
28.6247908175
 20
46.1644994028
 30
0.0
 10
28.6207713003
 20
46.1855360812
 30
0.0
 10
28.6079581786
 20
46.2277456447
 30
0.0
 10
28.5745736842
 20
46.2866814768
 30
0.0
 10
28.526190622
 20
46.3386304637
 30
0.0
 10
28.4649135664
 20
46.3808910786
 30
0.0
 10
28.3932204684
 20
46.4104810647
 30
0.0
 10
28.3152765859
 20
46.4272262301
 30
0.0
 10
28.2348942645
 20
46.4307381697
 30
0.0
 10
28.1814569754
 20
46.4253705371
 30
0.0
 10
28.1552215562
 20
46.4209346272
 30
0.0
  0
SPLINE
  5
5C0
100
AcDbEntity
  8
0
100
AcDbSpline
 62
7
  6
BYLAYER
 70
0
 71
3
 72
13
 73
9
 74
0
 42
0.0000001
 43
0.0000001
 44
0.0000000001
 40
0.0
 40
0.0
 40
0.0
 40
0.0
 40
0.1097633207
 40
0.2372515819
 40
0.387340075
 40
0.562954009
 40
0.7665115105
 40
1.0
 40
1.0
 40
1.0
 40
1.0
 10
28.1552211954
 20
46.4209345544
 30
0.0
 10
28.173419195
 20
46.3938064172
 30
0.0
 10
28.221555243
 20
46.3408925034
 30
0.0
 10
28.3173363165
 20
46.2754085533
 30
0.0
 10
28.4412342063
 20
46.2206053091
 30
0.0
 10
28.5933462287
 20
46.1781022038
 30
0.0
 10
28.773803976
 20
46.149768982
 30
0.0
 10
28.9039275715
 20
46.1426756102
 30
0.0
 10
28.973413197
 20
46.1420709949
 30
0.0
  0
SPLINE
  5
5C1
100
AcDbEntity
  8
0
100
AcDbSpline
 62
7
  6
BYLAYER
 70
0
 71
3
 72
14
 73
10
 74
0
 42
0.0000001
 43
0.0000001
 44
0.0000000001
 40
0.0
 40
0.0
 40
0.0
 40
0.0
 40
0.2053400716
 40
0.3921933743
 40
0.5566568934
 40
0.69784839
 40
0.817852554
 40
0.9178958679
 40
1.0
 40
1.0
 40
1.0
 40
1.0
 10
29.0943576741
 20
47.9031007625
 30
0.0
 10
29.0178004584
 20
47.8279667066
 30
0.0
 10
28.873365114
 20
47.6826213331
 30
0.0
 10
28.6747260355
 20
47.4701779354
 30
0.0
 10
28.5063181791
 20
47.2755666577
 30
0.0
 10
28.3690587204
 20
47.1005010814
 30
0.0
 10
28.2618781193
 20
46.9449802457
 30
0.0
 10
28.183165031
 20
46.8079526794
 30
0.0
 10
28.1450699035
 20
46.7203704937
 30
0.0
 10
28.1314513018
 20
46.6797000437
 30
0.0
  0
SPLINE
  5
5C2
100
AcDbEntity
  8
0
100
AcDbSpline
 62
7
  6
BYLAYER
 70
0
 71
3
 72
15
 73
11
 74
0
 42
0.0000001
 43
0.0000001
 44
0.0000000001
 40
0.0
 40
0.0
 40
0.0
 40
0.0
 40
0.1353634211
 40
0.2766391666
 40
0.4193901609
 40
0.558209451
 40
0.6881729722
 40
0.7488471865
 40
0.8061630113
 40
1.0
 40
1.0
 40
1.0
 40
1.0
 10
28.1313429967
 20
46.6793986704
 30
0.0
 10
28.1588890007
 20
46.6750387292
 30
0.0
 10
28.2147545779
 20
46.6631911788
 30
0.0
 10
28.2971805948
 20
46.6367373409
 30
0.0
 10
28.3767927226
 20
46.6008911807
 30
0.0
 10
28.4497141421
 20
46.5571889209
 30
0.0
 10
28.5027265662
 20
46.5143821679
 30
0.0
 10
28.5384779711
 20
46.4777746169
 30
0.0
 10
28.5793243601
 20
46.4283072945
 30
0.0
 10
28.6042286482
 20
46.3805228508
 30
0.0
 10
28.612839095
 20
46.3415259084
 30
0.0
  0
SPLINE
  5
5C3
100
AcDbEntity
  8
0
100
AcDbSpline
 62
7
  6
BYLAYER
 70
0
 71
3
 72
13
 73
9
 74
0
 42
0.0000001
 43
0.0000001
 44
0.0000000001
 40
0.0
 40
0.0
 40
0.0
 40
0.0
 40
0.2535500949
 40
0.5092204364
 40
0.6365664808
 40
0.7621746759
 40
0.884352024
 40
1.0
 40
1.0
 40
1.0
 40
1.0
 10
29.0943518171
 20
47.9031045603
 30
0.0
 10
29.0456112256
 20
47.773654267
 30
0.0
 10
28.9488934601
 20
47.5132245582
 30
0.0
 10
28.8350854117
 20
47.1850720653
 30
0.0
 10
28.7511198333
 20
46.9205851183
 30
0.0
 10
28.6942835972
 20
46.7239510549
 30
0.0
 10
28.6459646153
 20
46.5316131789
 30
0.0
 10
28.6216762854
 20
46.404008568
 30
0.0
 10
28.6128367373
 20
46.3415400801
 30
0.0
  0
SPLINE
  5
5C4
100
AcDbEntity
  8
0
100
AcDbSpline
 62
7
  6
BYLAYER
 70
0
 71
3
 72
11
 73
7
 74
0
 42
0.0000001
 43
0.0000001
 44
0.0000000001
 40
0.0
 40
0.0
 40
0.0
 40
0.0
 40
0.1616975186
 40
0.3903602415
 40
0.6691585427
 40
1.0
 40
1.0
 40
1.0
 40
1.0
 10
28.6128186596
 20
46.3414138908
 30
0.0
 10
28.632018513
 20
46.3601298567
 30
0.0
 10
28.6937049391
 20
46.3865334084
 30
0.0
 10
28.7998776125
 20
46.4159831357
 30
0.0
 10
28.9385280255
 20
46.4335637442
 30
0.0
 10
29.0394977479
 20
46.4381730285
 30
0.0
 10
29.0943578249
 20
46.4382889596
 30
0.0
  0
SPLINE
  5
5C5
100
AcDbEntity
  8
0
100
AcDbSpline
 62
7
  6
BYLAYER
 70
0
 71
3
 72
11
 73
7
 74
0
 42
0.0000001
 43
0.0000001
 44
0.0000000001
 40
0.0
 40
0.0
 40
0.0
 40
0.0
 40
0.3587847585
 40
0.6664400564
 40
0.883425273
 40
1.0
 40
1.0
 40
1.0
 40
1.0
 10
30.6504663226
 20
46.413648623
 30
0.0
 10
30.6758345786
 20
46.4137056531
 30
0.0
 10
30.7228091891
 20
46.4157425529
 30
0.0
 10
30.7853085091
 20
46.4266736917
 30
0.0
 10
30.8272316914
 20
46.4385188616
 30
0.0
 10
30.8487196787
 20
46.4569252133
 30
0.0
 10
30.8487210924
 20
46.4651677735
 30
0.0
  0
SPLINE
  5
5C6
100
AcDbEntity
  8
0
100
AcDbSpline
 62
7
  6
BYLAYER
 70
0
 71
3
 72
11
 73
7
 74
0
 42
0.0000001
 43
0.0000001
 44
0.0000000001
 40
0.0
 40
0.0
 40
0.0
 40
0.0
 40
0.1397865969
 40
0.3591119499
 40
0.6568856482
 40
1.0
 40
1.0
 40
1.0
 40
1.0
 10
30.8487210924
 20
56.3892653691
 30
0.0
 10
30.8487198104
 20
56.378916504
 30
0.0
 10
30.830627765
 20
56.3546208105
 30
0.0
 10
30.7858069573
 20
56.3356838726
 30
0.0
 10
30.7233997052
 20
56.3210950036
 30
0.0
 10
30.6758680925
 20
56.3180179852
 30
0.0
 10
30.6504663226
 20
56.3179389247
 30
0.0
  0
SPLINE
  5
5C7
100
AcDbEntity
  8
0
100
AcDbSpline
 62
7
  6
BYLAYER
 70
0
 71
3
 72
11
 73
7
 74
0
 42
0.0000001
 43
0.0000001
 44
0.0000000001
 40
0.0
 40
0.0
 40
0.0
 40
0.0
 40
0.1690832756
 40
0.3934685138
 40
0.6784931539
 40
1.0
 40
1.0
 40
1.0
 40
1.0
 10
30.8487210918
 20
69.6804364011
 30
0.0
 10
30.8487186527
 20
69.6670454551
 30
0.0
 10
30.8337709772
 20
69.6363543201
 30
0.0
 10
30.7873737709
 20
69.6070027354
 30
0.0
 10
30.7241444622
 20
69.5872218393
 30
0.0
 10
30.6759285
 20
69.5826955001
 30
0.0
 10
30.6504662441
 20
69.5825867822
 30
0.0
  0
SPLINE
  5
5C8
100
AcDbEntity
  8
0
100
AcDbSpline
 62
7
  6
BYLAYER
 70
0
 71
3
 72
15
 73
11
 74
0
 42
0.0000001
 43
0.0000001
 44
0.0000000001
 40
0.0
 40
0.0
 40
0.0
 40
0.0
 40
0.1841420562
 40
0.3433833875
 40
0.4823676155
 40
0.6037956469
 40
0.7088554943
 40
0.8159688723
 40
0.9152987161
 40
1.0
 40
1.0
 40
1.0
 40
1.0
 10
30.6504662441
 20
69.5825867765
 30
0.0
 10
30.6135388072
 20
69.5814031739
 30
0.0
 10
30.5446889895
 20
69.5786928157
 30
0.0
 10
30.4480892745
 20
69.5726677216
 30
0.0
 10
30.364186782
 20
69.5653374244
 30
0.0
 10
30.2913891127
 20
69.5567219384
 30
0.0
 10
30.2251008825
 20
69.5465586116
 30
0.0
 10
30.1645062348
 20
69.5323602355
 30
0.0
 10
30.1068656422
 20
69.5179796332
 30
0.0
 10
30.078612278
 20
69.4911374323
 30
0.0
 10
30.0696508462
 20
69.476697669
 30
0.0
  0
SPLINE
  5
5C9
100
AcDbEntity
  8
0
100
AcDbSpline
 62
7
  6
BYLAYER
 70
0
 71
3
 72
11
 73
7
 74
0
 42
0.0000001
 43
0.0000001
 44
0.0000000001
 40
0.0
 40
0.0
 40
0.0
 40
0.0
 40
0.2457326479
 40
0.4943503237
 40
0.7458068118
 40
1.0
 40
1.0
 40
1.0
 40
1.0
 10
30.0696371566
 20
69.4766947482
 30
0.0
 10
29.9642808475
 20
68.7986702412
 30
0.0
 10
29.7776278446
 20
67.4307980212
 30
0.0
 10
29.5199698058
 20
65.3643074329
 30
0.0
 10
29.2677804601
 20
63.2733022104
 30
0.0
 10
29.098231344
 20
61.871590476
 30
0.0
 10
29.0113972553
 20
61.1671364487
 30
0.0
  0
SPLINE
  5
5CA
100
AcDbEntity
  8
0
100
AcDbSpline
 62
7
  6
BYLAYER
 70
0
 71
3
 72
10
 73
6
 74
0
 42
0.0000001
 43
0.0000001
 44
0.0000000001
 40
0.0
 40
0.0
 40
0.0
 40
0.0
 40
0.1701914303
 40
0.491092751
 40
1.0
 40
1.0
 40
1.0
 40
1.0
 10
25.7474121123
 20
69.691991822
 30
0.0
 10
25.7318686406
 20
69.6918561756
 30
0.0
 10
25.7050695997
 20
69.6412005782
 30
0.0
 10
25.6870343001
 20
69.5599448581
 30
0.0
 10
25.6745754195
 20
69.4819205863
 30
0.0
 10
25.6714500781
 20
69.4355458455
 30
0.0
  0
SPLINE
  5
5CB
100
AcDbEntity
  8
0
100
AcDbSpline
 62
7
  6
BYLAYER
 70
0
 71
3
 72
13
 73
9
 74
0
 42
0.0000001
 43
0.0000001
 44
0.0000000001
 40
0.0
 40
0.0
 40
0.0
 40
0.0
 40
0.1205186943
 40
0.2610007454
 40
0.4013974276
 40
0.5648561647
 40
0.7606537575
 40
1.0
 40
1.0
 40
1.0
 40
1.0
 10
30.0508021198
 20
69.4788635655
 30
0.0
 10
30.0591167819
 20
69.5036192412
 30
0.0
 10
30.0948616054
 20
69.5532543293
 30
0.0
 10
30.1799273685
 20
69.5804312997
 30
0.0
 10
30.2708799215
 20
69.6104576361
 30
0.0
 10
30.3783056295
 20
69.627593754
 30
0.0
 10
30.5069095851
 20
69.6435526467
 30
0.0
 10
30.6011435981
 20
69.6490499845
 30
0.0
 10
30.6529464474
 20
69.6515457385
 30
0.0
  0
SPLINE
  5
5CC
100
AcDbEntity
  8
0
100
AcDbSpline
 62
7
  6
BYLAYER
 70
0
 71
3
 72
10
 73
6
 74
0
 42
0.0000001
 43
0.0000001
 44
0.0000000001
 40
0.0
 40
0.0
 40
0.0
 40
0.0
 40
0.5480339082
 40
0.8855463972
 40
1.0
 40
1.0
 40
1.0
 40
1.0
 10
30.6529464474
 20
69.6515457385
 30
0.0
 10
30.6527721023
 20
69.6667620128
 30
0.0
 10
30.6522317905
 20
69.6913305623
 30
0.0
 10
30.6521237451
 20
69.7191374349
 30
0.0
 10
30.6508869064
 20
69.7316250504
 30
0.0
 10
30.6504691577
 20
69.7347801526
 30
0.0
  0
SPLINE
  5
5CD
100
AcDbEntity
  8
0
100
AcDbSpline
 62
7
  6
BYLAYER
 70
0
 71
3
 72
11
 73
7
 74
0
 42
0.0000001
 43
0.0000001
 44
0.0000000001
 40
0.0
 40
0.0
 40
0.0
 40
0.0
 40
0.261292236
 40
0.5181203597
 40
0.7657398301
 40
1.0
 40
1.0
 40
1.0
 40
1.0
 10
30.8482545719
 20
25.5497988726
 30
0.0
 10
30.5730073849
 20
25.5547899691
 30
0.0
 10
30.0264672265
 20
25.5412669503
 30
0.0
 10
29.2238859774
 20
25.4490410037
 30
0.0
 10
28.4612233864
 20
25.2880802113
 30
0.0
 10
27.976829699
 20
25.1320105496
 30
0.0
 10
27.7468108455
 20
25.0425260378
 30
0.0
  0
SPLINE
  5
5CE
100
AcDbEntity
  8
0
100
AcDbSpline
 62
7
  6
BYLAYER
 70
0
 71
3
 72
11
 73
7
 74
0
 42
0.0000001
 43
0.0000001
 44
0.0000000001
 40
0.0
 40
0.0
 40
0.0
 40
0.0
 40
0.228173703
 40
0.4750673879
 40
0.7345494436
 40
1.0
 40
1.0
 40
1.0
 40
1.0
 10
27.7468183771
 20
25.0425260675
 30
0.0
 10
27.980686313
 20
25.0069460921
 30
0.0
 10
28.4696781653
 20
24.9461524369
 30
0.0
 10
29.2290132335
 20
24.8856653195
 30
0.0
 10
30.0287188006
 20
24.8529834536
 30
0.0
 10
30.5730716143
 20
24.850555523
 30
0.0
 10
30.8482544978
 20
24.8541014349
 30
0.0
  0
SPLINE
  5
5CF
100
AcDbEntity
  8
0
100
AcDbSpline
 62
7
  6
BYLAYER
 70
0
 71
3
 72
11
 73
7
 74
0
 42
0.0000001
 43
0.0000001
 44
0.0000000001
 40
0.0
 40
0.0
 40
0.0
 40
0.0
 40
0.2974488265
 40
0.56541265
 40
0.7992574273
 40
1.0
 40
1.0
 40
1.0
 40
1.0
 10
30.6562422801
 20
69.5436103542
 30
0.0
 10
30.6808765514
 20
69.544184077
 30
0.0
 10
30.7278242542
 20
69.5505444743
 30
0.0
 10
30.7898698638
 20
69.5756511735
 30
0.0
 10
30.8355749683
 20
69.6141663614
 30
0.0
 10
30.848701849
 20
69.6504131556
 30
0.0
 10
30.8487049147
 20
69.6670428661
 30
0.0
  0
SPLINE
  5
5D0
100
AcDbEntity
  8
0
100
AcDbSpline
 62
7
  6
BYLAYER
 70
0
 71
3
 72
11
 73
7
 74
0
 42
0.0000001
 43
0.0000001
 44
0.0000000001
 40
0.0
 40
0.0
 40
0.0
 40
0.0
 40
0.1918662167
 40
0.4155639767
 40
0.6900441282
 40
1.0
 40
1.0
 40
1.0
 40
1.0
 10
30.8487155901
 20
69.66704311
 30
0.0
 10
30.8487130219
 20
69.651144282
 30
0.0
 10
30.8367765216
 20
69.6164355586
 30
0.0
 10
30.7929394216
 20
69.5773927084
 30
0.0
 10
30.7304666049
 20
69.5510063629
 30
0.0
 10
30.6819186929
 20
69.5442056852
 30
0.0
 10
30.656241409
 20
69.5436085869
 30
0.0
  0
SPLINE
  5
5D1
100
AcDbEntity
  8
0
100
AcDbSpline
 62
7
  6
BYLAYER
 70
0
 71
3
 72
10
 73
6
 74
0
 42
0.0000001
 43
0.0000001
 44
0.0000000001
 40
0.0
 40
0.0
 40
0.0
 40
0.0
 40
0.3339962645
 40
0.6673295467
 40
1.0
 40
1.0
 40
1.0
 40
1.0
 10
30.6562333075
 20
69.5437445859
 30
0.0
 10
30.1092242693
 20
69.5372909686
 30
0.0
 10
29.0162930099
 20
69.5243115088
 30
0.0
 10
27.3785255995
 20
69.5047767777
 30
0.0
 10
26.2877674064
 20
69.4916813038
 30
0.0
 10
25.7429310508
 20
69.4851433042
 30
0.0
  0
SPLINE
  5
5D2
100
AcDbEntity
  8
0
100
AcDbSpline
 62
7
  6
BYLAYER
 70
0
 71
3
 72
10
 73
6
 74
0
 42
0.0000001
 43
0.0000001
 44
0.0000000001
 40
0.0
 40
0.0
 40
0.0
 40
0.0
 40
0.3326702232
 40
0.6660035433
 40
1.0
 40
1.0
 40
1.0
 40
1.0
 10
25.7429316101
 20
69.4851433169
 30
0.0
 10
26.2877675267
 20
69.4916813114
 30
0.0
 10
27.3785252809
 20
69.5047767797
 30
0.0
 10
29.0162925047
 20
69.5243115099
 30
0.0
 10
30.1092240167
 20
69.5372909661
 30
0.0
 10
30.6562333074
 20
69.5437445821
 30
0.0
  0
SPLINE
  5
5D3
100
AcDbEntity
  8
0
100
AcDbSpline
 62
7
  6
BYLAYER
 70
0
 71
3
 72
11
 73
7
 74
0
 42
0.0000001
 43
0.0000001
 44
0.0000000001
 40
0.0
 40
0.0
 40
0.0
 40
0.0
 40
0.3240483851
 40
0.5
 40
0.6759516149
 40
1.0
 40
1.0
 40
1.0
 40
1.0
 10
35.4046182438
 20
69.786510271
 30
0.0
 10
35.441503572
 20
69.7874603622
 30
0.0
 10
35.480002527
 20
69.7862474968
 30
0.0
 10
35.6089906676
 20
69.7865989718
 30
0.0
 10
35.480002527
 20
69.7862474968
 30
0.0
 10
35.441503572
 20
69.7874603622
 30
0.0
 10
35.4046182438
 20
69.786510271
 30
0.0
  0
SPLINE
  5
5D4
100
AcDbEntity
  8
0
100
AcDbSpline
 62
7
  6
BYLAYER
 70
0
 71
3
 72
12
 73
8
 74
0
 42
0.0000001
 43
0.0000001
 44
0.0000000001
 40
0.0
 40
0.0
 40
0.0
 40
0.0
 40
0.202186371
 40
0.4008891585
 40
0.5991095314
 40
0.797812034
 40
1.0
 40
1.0
 40
1.0
 40
1.0
 10
35.4046182438
 20
69.786510271
 30
0.0
 10
35.4484174396
 20
69.91677968
 30
0.0
 10
35.5229067077
 20
70.1795256338
 30
0.0
 10
35.5857972318
 20
70.5831785818
 30
0.0
 10
35.585850138
 20
70.9898492455
 30
0.0
 10
35.5227462703
 20
71.393440931
 30
0.0
 10
35.4487610986
 20
71.6563557673
 30
0.0
 10
35.4046182438
 20
71.786510271
 30
0.0
  0
SPLINE
  5
5D5
100
AcDbEntity
  8
0
100
AcDbSpline
 62
7
  6
BYLAYER
 70
0
 71
3
 72
11
 73
7
 74
0
 42
0.0000001
 43
0.0000001
 44
0.0000000001
 40
0.0
 40
0.0
 40
0.0
 40
0.0
 40
0.3240483851
 40
0.5
 40
0.6759516149
 40
1.0
 40
1.0
 40
1.0
 40
1.0
 10
35.4046182438
 20
73.786510271
 30
0.0
 10
35.441503572
 20
73.7855601799
 30
0.0
 10
35.480002527
 20
73.7867730452
 30
0.0
 10
35.6089906676
 20
73.7864215703
 30
0.0
 10
35.480002527
 20
73.7867730452
 30
0.0
 10
35.441503572
 20
73.7855601799
 30
0.0
 10
35.4046182438
 20
73.786510271
 30
0.0
  0
SPLINE
  5
5D6
100
AcDbEntity
  8
0
100
AcDbSpline
 62
7
  6
BYLAYER
 70
0
 71
3
 72
12
 73
8
 74
0
 42
0.0000001
 43
0.0000001
 44
0.0000000001
 40
0.0
 40
0.0
 40
0.0
 40
0.0
 40
0.202186371
 40
0.4008891585
 40
0.5991095314
 40
0.797812034
 40
1.0
 40
1.0
 40
1.0
 40
1.0
 10
35.4046182438
 20
73.786510271
 30
0.0
 10
35.4484174396
 20
73.6562408621
 30
0.0
 10
35.5229067077
 20
73.3934949082
 30
0.0
 10
35.5857972318
 20
72.9898419602
 30
0.0
 10
35.585850138
 20
72.5831712965
 30
0.0
 10
35.5227462703
 20
72.179579611
 30
0.0
 10
35.4487610986
 20
71.9166647747
 30
0.0
 10
35.4046182438
 20
71.786510271
 30
0.0
  0
SPLINE
  5
5D7
100
AcDbEntity
  8
0
100
AcDbSpline
 62
7
  6
BYLAYER
 70
0
 71
3
 72
11
 73
7
 74
0
 42
0.0000001
 43
0.0000001
 44
0.0000000001
 40
0.0
 40
0.0
 40
0.0
 40
0.0
 40
0.3240483851
 40
0.5
 40
0.6759516149
 40
1.0
 40
1.0
 40
1.0
 40
1.0
 10
35.4046182438
 20
11.986510271
 30
0.0
 10
35.441503572
 20
11.9874603622
 30
0.0
 10
35.480002527
 20
11.9862474968
 30
0.0
 10
35.6089906676
 20
11.9865989718
 30
0.0
 10
35.480002527
 20
11.9862474968
 30
0.0
 10
35.441503572
 20
11.9874603622
 30
0.0
 10
35.4046182438
 20
11.986510271
 30
0.0
  0
SPLINE
  5
5D8
100
AcDbEntity
  8
0
100
AcDbSpline
 62
7
  6
BYLAYER
 70
0
 71
3
 72
12
 73
8
 74
0
 42
0.0000001
 43
0.0000001
 44
0.0000000001
 40
0.0
 40
0.0
 40
0.0
 40
0.0
 40
0.202186371
 40
0.4008891585
 40
0.5991095314
 40
0.797812034
 40
1.0
 40
1.0
 40
1.0
 40
1.0
 10
35.4046182438
 20
11.986510271
 30
0.0
 10
35.4484174396
 20
12.11677968
 30
0.0
 10
35.5229067077
 20
12.3795256338
 30
0.0
 10
35.5857972318
 20
12.7831785818
 30
0.0
 10
35.585850138
 20
13.1898492455
 30
0.0
 10
35.5227462703
 20
13.593440931
 30
0.0
 10
35.4487610986
 20
13.8563557673
 30
0.0
 10
35.4046182438
 20
13.986510271
 30
0.0
  0
SPLINE
  5
5D9
100
AcDbEntity
  8
0
100
AcDbSpline
 62
7
  6
BYLAYER
 70
0
 71
3
 72
11
 73
7
 74
0
 42
0.0000001
 43
0.0000001
 44
0.0000000001
 40
0.0
 40
0.0
 40
0.0
 40
0.0
 40
0.3240483851
 40
0.5
 40
0.6759516149
 40
1.0
 40
1.0
 40
1.0
 40
1.0
 10
35.4046182438
 20
15.986510271
 30
0.0
 10
35.441503572
 20
15.9855601799
 30
0.0
 10
35.480002527
 20
15.9867730452
 30
0.0
 10
35.6089906676
 20
15.9864215703
 30
0.0
 10
35.480002527
 20
15.9867730452
 30
0.0
 10
35.441503572
 20
15.9855601799
 30
0.0
 10
35.4046182438
 20
15.986510271
 30
0.0
  0
SPLINE
  5
5DA
100
AcDbEntity
  8
0
100
AcDbSpline
 62
7
  6
BYLAYER
 70
0
 71
3
 72
12
 73
8
 74
0
 42
0.0000001
 43
0.0000001
 44
0.0000000001
 40
0.0
 40
0.0
 40
0.0
 40
0.0
 40
0.202186371
 40
0.4008891585
 40
0.5991095314
 40
0.797812034
 40
1.0
 40
1.0
 40
1.0
 40
1.0
 10
35.4046182438
 20
15.986510271
 30
0.0
 10
35.4484174396
 20
15.8562408621
 30
0.0
 10
35.5229067077
 20
15.5934949082
 30
0.0
 10
35.5857972318
 20
15.1898419602
 30
0.0
 10
35.585850138
 20
14.7831712965
 30
0.0
 10
35.5227462703
 20
14.379579611
 30
0.0
 10
35.4487610986
 20
14.1166647747
 30
0.0
 10
35.4046182438
 20
13.986510271
 30
0.0
  0
SPLINE
  5
5DB
100
AcDbEntity
  8
0
100
AcDbSpline
 62
7
  6
BYLAYER
 70
0
 71
3
 72
10
 73
6
 74
0
 42
0.0000001
 43
0.0000001
 44
0.0000000001
 40
0.0
 40
0.0
 40
0.0
 40
0.0
 40
0.3326695365
 40
0.6660028601
 40
1.0
 40
1.0
 40
1.0
 40
1.0
 10
35.9545105243
 20
69.4851433186
 30
0.0
 10
35.4096757382
 20
69.4916813142
 30
0.0
 10
34.3189191146
 20
69.5047767869
 30
0.0
 10
32.6811519077
 20
69.5243115173
 30
0.0
 10
31.5882192821
 20
69.5372909604
 30
0.0
 10
31.0412088779
 20
69.5437445714
 30
0.0
  0
SPLINE
  5
5DC
100
AcDbEntity
  8
0
100
AcDbSpline
 62
7
  6
BYLAYER
 70
0
 71
3
 72
10
 73
6
 74
0
 42
0.0000001
 43
0.0000001
 44
0.0000000001
 40
0.0
 40
0.0
 40
0.0
 40
0.0
 40
0.3339968095
 40
0.6673300999
 40
1.0
 40
1.0
 40
1.0
 40
1.0
 10
31.0412089979
 20
69.5437445859
 30
0.0
 10
31.5882189155
 20
69.5372909685
 30
0.0
 10
32.6811510544
 20
69.5243115123
 30
0.0
 10
34.3189184247
 20
69.5047767845
 30
0.0
 10
35.4096756983
 20
69.4916813057
 30
0.0
 10
35.9545111343
 20
69.4851433047
 30
0.0
  0
SPLINE
  5
5DD
100
AcDbEntity
  8
0
100
AcDbSpline
 62
7
  6
BYLAYER
 70
0
 71
3
 72
11
 73
7
 74
0
 42
0.0000001
 43
0.0000001
 44
0.0000000001
 40
0.0
 40
0.0
 40
0.0
 40
0.0
 40
0.2974408615
 40
0.5654053401
 40
0.7992548404
 40
1.0
 40
1.0
 40
1.0
 40
1.0
 10
31.0412004394
 20
69.5436159999
 30
0.0
 10
31.016566233
 20
69.5441888439
 30
0.0
 10
30.9696178363
 20
69.5505475352
 30
0.0
 10
30.9075698955
 20
69.5756519452
 30
0.0
 10
30.8618609969
 20
69.6141655005
 30
0.0
 10
30.8487305133
 20
69.6504125787
 30
0.0
 10
30.8487261634
 20
69.667042891
 30
0.0
  0
SPLINE
  5
5DE
100
AcDbEntity
  8
0
100
AcDbSpline
 62
7
  6
BYLAYER
 70
0
 71
3
 72
11
 73
7
 74
0
 42
0.0000001
 43
0.0000001
 44
0.0000000001
 40
0.0
 40
0.0
 40
0.0
 40
0.0
 40
0.1918678019
 40
0.415568588
 40
0.6900485121
 40
1.0
 40
1.0
 40
1.0
 40
1.0
 10
30.8487248382
 20
69.6670428673
 30
0.0
 10
30.848728771
 20
69.6511441789
 30
0.0
 10
30.8606678391
 20
69.6164368076
 30
0.0
 10
30.9045058314
 20
69.5773962948
 30
0.0
 10
30.9669779486
 20
69.5510117489
 30
0.0
 10
31.0155246772
 20
69.544211784
 30
0.0
 10
31.0412011647
 20
69.5436148683
 30
0.0
  0
SPLINE
  5
5DF
100
AcDbEntity
  8
0
100
AcDbSpline
 62
7
  6
BYLAYER
 70
0
 71
3
 72
22
 73
18
 74
0
 42
0.0000001
 43
0.0000001
 44
0.0000000001
 40
0.0
 40
0.0
 40
0.0
 40
0.0
 40
0.1250232872
 40
0.2219878437
 40
0.2973714841
 40
0.3559147515
 40
0.4138787725
 40
0.4741943437
 40
0.5282078373
 40
0.5803842405
 40
0.6321793389
 40
0.6791512459
 40
0.7342892071
 40
0.7941811173
 40
0.8492247803
 40
0.9165170838
 40
1.0
 40
1.0
 40
1.0
 40
1.0
 10
32.5523754925
 20
75.276520989
 30
0.0
 10
32.4103781633
 20
75.2768224062
 30
0.0
 10
32.1582506835
 20
75.2763814308
 30
0.0
 10
31.8205053283
 20
75.2765352356
 30
0.0
 10
31.5582657974
 20
75.2765496491
 30
0.0
 10
31.3403219199
 20
75.2765127184
 30
0.0
 10
31.1394918894
 20
75.276526706
 30
0.0
 10
30.9438066409
 20
75.2765040126
 30
0.0
 10
30.7546947916
 20
75.2765111958
 30
0.0
 10
30.5752602366
 20
75.2765126134
 30
0.0
 10
30.4038233017
 20
75.2765322551
 30
0.0
 10
30.2290227216
 20
75.2765417499
 30
0.0
 10
30.0450260149
 20
75.2765235807
 30
0.0
 10
29.8518617151
 20
75.2764892287
 30
0.0
 10
29.644892646
 20
75.2765412263
 30
0.0
 10
29.4111307186
 20
75.276279731
 30
0.0
 10
29.2398820287
 20
75.2771402961
 30
0.0
 10
29.1450666927
 20
75.276520989
 30
0.0
  0
SPLINE
  5
5E0
100
AcDbEntity
  8
0
100
AcDbSpline
 62
7
  6
BYLAYER
 70
0
 71
3
 72
22
 73
18
 74
0
 42
0.0000001
 43
0.0000001
 44
0.0000000001
 40
0.0
 40
0.0
 40
0.0
 40
0.0
 40
0.1250232872
 40
0.2219878437
 40
0.2973714841
 40
0.3559147515
 40
0.4138787725
 40
0.4741943437
 40
0.5282078373
 40
0.5803842405
 40
0.6321793389
 40
0.6791512459
 40
0.7342892071
 40
0.7941811173
 40
0.8492247803
 40
0.9165170838
 40
1.0
 40
1.0
 40
1.0
 40
1.0
 10
29.1450666927
 20
74.4764995531
 30
0.0
 10
29.2870640219
 20
74.4761981359
 30
0.0
 10
29.5391915017
 20
74.4766391112
 30
0.0
 10
29.8769368569
 20
74.4764853064
 30
0.0
 10
30.1391763878
 20
74.476470893
 30
0.0
 10
30.3571202653
 20
74.4765078237
 30
0.0
 10
30.5579502958
 20
74.4764938361
 30
0.0
 10
30.7536355443
 20
74.4765165294
 30
0.0
 10
30.9427473936
 20
74.4765093462
 30
0.0
 10
31.1221819486
 20
74.4765079286
 30
0.0
 10
31.2936188835
 20
74.4764882869
 30
0.0
 10
31.4684194636
 20
74.4764787921
 30
0.0
 10
31.6524161703
 20
74.4764969613
 30
0.0
 10
31.8455804701
 20
74.4765313133
 30
0.0
 10
32.0525495392
 20
74.4764793157
 30
0.0
 10
32.2863114666
 20
74.4767408111
 30
0.0
 10
32.4575601565
 20
74.475880246
 30
0.0
 10
32.5523754925
 20
74.4764995531
 30
0.0
  0
SPLINE
  5
5E1
100
AcDbEntity
  8
0
100
AcDbSpline
 62
7
  6
BYLAYER
 70
0
 71
3
 72
22
 73
18
 74
0
 42
0.0000001
 43
0.0000001
 44
0.0000000001
 40
0.0
 40
0.0
 40
0.0
 40
0.0
 40
0.1250232872
 40
0.2219878437
 40
0.2973714841
 40
0.3559147515
 40
0.4138787725
 40
0.4741943437
 40
0.5282078373
 40
0.5803842405
 40
0.6321793389
 40
0.6791512459
 40
0.7342892071
 40
0.7941811173
 40
0.8492247803
 40
0.9165170838
 40
1.0
 40
1.0
 40
1.0
 40
1.0
 10
32.5523754925
 20
11.296520989
 30
0.0
 10
32.4103781633
 20
11.2968224062
 30
0.0
 10
32.1582506835
 20
11.2963814308
 30
0.0
 10
31.8205053283
 20
11.2965352356
 30
0.0
 10
31.5582657974
 20
11.2965496491
 30
0.0
 10
31.3403219199
 20
11.2965127184
 30
0.0
 10
31.1394918894
 20
11.296526706
 30
0.0
 10
30.9438066409
 20
11.2965040126
 30
0.0
 10
30.7546947916
 20
11.2965111958
 30
0.0
 10
30.5752602366
 20
11.2965126134
 30
0.0
 10
30.4038233017
 20
11.2965322551
 30
0.0
 10
30.2290227216
 20
11.2965417499
 30
0.0
 10
30.0450260149
 20
11.2965235807
 30
0.0
 10
29.8518617151
 20
11.2964892287
 30
0.0
 10
29.644892646
 20
11.2965412263
 30
0.0
 10
29.4111307186
 20
11.296279731
 30
0.0
 10
29.2398820287
 20
11.2971402961
 30
0.0
 10
29.1450666927
 20
11.296520989
 30
0.0
  0
SPLINE
  5
5E2
100
AcDbEntity
  8
0
100
AcDbSpline
 62
7
  6
BYLAYER
 70
0
 71
3
 72
22
 73
18
 74
0
 42
0.0000001
 43
0.0000001
 44
0.0000000001
 40
0.0
 40
0.0
 40
0.0
 40
0.0
 40
0.1250232872
 40
0.2219878437
 40
0.2973714841
 40
0.3559147515
 40
0.4138787725
 40
0.4741943437
 40
0.5282078373
 40
0.5803842405
 40
0.6321793389
 40
0.6791512459
 40
0.7342892071
 40
0.7941811173
 40
0.8492247803
 40
0.9165170838
 40
1.0
 40
1.0
 40
1.0
 40
1.0
 10
29.1450666927
 20
10.4964995531
 30
0.0
 10
29.2870640219
 20
10.4961981359
 30
0.0
 10
29.5391915017
 20
10.4966391112
 30
0.0
 10
29.8769368569
 20
10.4964853064
 30
0.0
 10
30.1391763878
 20
10.496470893
 30
0.0
 10
30.3571202653
 20
10.4965078237
 30
0.0
 10
30.5579502958
 20
10.4964938361
 30
0.0
 10
30.7536355443
 20
10.4965165294
 30
0.0
 10
30.9427473936
 20
10.4965093462
 30
0.0
 10
31.1221819486
 20
10.4965079286
 30
0.0
 10
31.2936188835
 20
10.4964882869
 30
0.0
 10
31.4684194636
 20
10.4964787921
 30
0.0
 10
31.6524161703
 20
10.4964969613
 30
0.0
 10
31.8455804701
 20
10.4965313133
 30
0.0
 10
32.0525495392
 20
10.4964793157
 30
0.0
 10
32.2863114666
 20
10.4967408111
 30
0.0
 10
32.4575601565
 20
10.495880246
 30
0.0
 10
32.5523754925
 20
10.4964995531
 30
0.0
  0
SPLINE
  5
5E3
100
AcDbEntity
  8
0
100
AcDbSpline
 62
7
  6
BYLAYER
 70
0
 71
3
 72
10
 73
6
 74
0
 42
0.0000001
 43
0.0000001
 44
0.0000000001
 40
0.0
 40
0.0
 40
0.0
 40
0.0
 40
0.4827556857
 40
0.8055610408
 40
1.0
 40
1.0
 40
1.0
 40
1.0
 10
26.2133658121
 20
71.536510271
 30
0.0
 10
26.1840470551
 20
71.5389889687
 30
0.0
 10
26.1343148094
 20
71.5335842512
 30
0.0
 10
26.0748450586
 20
71.5408340161
 30
0.0
 10
26.0411600597
 20
71.5312925483
 30
0.0
 10
26.0305197101
 20
71.536510271
 30
0.0
  0
SPLINE
  5
5E4
100
AcDbEntity
  8
0
100
AcDbSpline
 62
7
  6
BYLAYER
 70
0
 71
3
 72
10
 73
6
 74
0
 42
0.0000001
 43
0.0000001
 44
0.0000000001
 40
0.0
 40
0.0
 40
0.0
 40
0.0
 40
0.299563616
 40
0.6328873433
 40
1.0
 40
1.0
 40
1.0
 40
1.0
 10
26.0305197101
 20
71.4123445323
 30
0.0
 10
26.0399470966
 20
71.33560815
 30
0.0
 10
26.0644361081
 20
71.1739553884
 30
0.0
 10
26.123880959
 20
70.92253416
 30
0.0
 10
26.1797521853
 20
70.7503034406
 30
0.0
 10
26.2133658121
 20
70.6617196908
 30
0.0
  0
SPLINE
  5
5E5
100
AcDbEntity
  8
0
100
AcDbSpline
 62
7
  6
BYLAYER
 70
0
 71
3
 72
10
 73
6
 74
0
 42
0.0000001
 43
0.0000001
 44
0.0000000001
 40
0.0
 40
0.0
 40
0.0
 40
0.0
 40
0.4431368356
 40
0.7773971625
 40
1.0
 40
1.0
 40
1.0
 40
1.0
 10
26.2133658121
 20
72.036510271
 30
0.0
 10
26.1863585124
 20
72.0362437808
 30
0.0
 10
26.1389707842
 20
72.0368116566
 30
0.0
 10
26.0780374696
 20
72.036041354
 30
0.0
 10
26.0440725419
 20
72.037137837
 30
0.0
 10
26.0305197101
 20
72.036510271
 30
0.0
  0
LINE
  5
5E6
100
AcDbEntity
  8
0
100
AcDbLine
 62
7
  6
BYLAYER
 10
26.0305197101
 20
72.036510271
 11
26.0305198124
 21
72.1606768281
  0
LINE
  5
5E7
100
AcDbEntity
  8
0
100
AcDbLine
 62
7
  6
BYLAYER
 10
26.0305197101
 20
72.1606760097
 11
26.0305199321
 21
72.0365104164
  0
SPLINE
  5
5E8
100
AcDbEntity
  8
0
100
AcDbSpline
 62
7
  6
BYLAYER
 70
0
 71
3
 72
12
 73
8
 74
0
 42
0.0000001
 43
0.0000001
 44
0.0000000001
 40
0.0
 40
0.0
 40
0.0
 40
0.0
 40
0.1478874653
 40
0.3349119003
 40
0.5470314409
 40
0.7728780738
 40
1.0
 40
1.0
 40
1.0
 40
1.0
 10
26.0305199321
 20
72.0365104164
 30
0.0
 10
26.0391640875
 20
72.0339558895
 30
0.0
 10
26.0601641279
 20
72.0376923633
 30
0.0
 10
26.0932131587
 20
72.0363730653
 30
0.0
 10
26.1314003752
 20
72.036216472
 30
0.0
 10
26.1719051797
 20
72.0362223777
 30
0.0
 10
26.1995291593
 20
72.0369307081
 30
0.0
 10
26.2133658121
 20
72.036510271
 30
0.0
  0
SPLINE
  5
5E9
100
AcDbEntity
  8
0
100
AcDbSpline
 62
7
  6
BYLAYER
 70
0
 71
3
 72
19
 73
15
 74
0
 42
0.0000001
 43
0.0000001
 44
0.0000000001
 40
0.0
 40
0.0
 40
0.0
 40
0.0
 40
0.1213708233
 40
0.2378979441
 40
0.3424956175
 40
0.4265783292
 40
0.4809901743
 40
0.5000000007
 40
0.5159246177
 40
0.5642190394
 40
0.6426208193
 40
0.7473022972
 40
0.8700454645
 40
1.0
 40
1.0
 40
1.0
 40
1.0
 10
26.7007218932
 20
71.786510271
 30
0.0
 10
26.7025895185
 20
71.9483203103
 30
0.0
 10
26.6999094746
 20
72.2646111984
 30
0.0
 10
26.7009610022
 20
72.7250652645
 30
0.0
 10
26.700684286
 20
73.1202687508
 30
0.0
 10
26.7006883832
 20
73.4752915621
 30
0.0
 10
26.7006761021
 20
73.6254866318
 30
0.0
 10
26.7007121002
 20
73.8240040889
 30
0.0
 10
26.7007263698
 20
73.6514149648
 30
0.0
 10
26.7007220284
 20
73.5069757886
 30
0.0
 10
26.7007264538
 20
73.1732581673
 30
0.0
 10
26.7007321186
 20
72.7759229664
 30
0.0
 10
26.7006941619
 20
72.2958013163
 30
0.0
 10
26.7007876772
 20
71.9597755339
 30
0.0
 10
26.7007218932
 20
71.786510271
 30
0.0
  0
SPLINE
  5
5EA
100
AcDbEntity
  8
0
100
AcDbSpline
 62
7
  6
BYLAYER
 70
0
 71
3
 72
10
 73
6
 74
0
 42
0.0000001
 43
0.0000001
 44
0.0000000001
 40
0.0
 40
0.0
 40
0.0
 40
0.0
 40
0.4827556857
 40
0.8055610408
 40
1.0
 40
1.0
 40
1.0
 40
1.0
 10
26.2133658121
 20
42.636510271
 30
0.0
 10
26.1840470551
 20
42.6389889687
 30
0.0
 10
26.1343148094
 20
42.6335842512
 30
0.0
 10
26.0748450586
 20
42.6408340161
 30
0.0
 10
26.0411600597
 20
42.6312925483
 30
0.0
 10
26.0305197101
 20
42.636510271
 30
0.0
  0
SPLINE
  5
5EB
100
AcDbEntity
  8
0
100
AcDbSpline
 62
7
  6
BYLAYER
 70
0
 71
3
 72
10
 73
6
 74
0
 42
0.0000001
 43
0.0000001
 44
0.0000000001
 40
0.0
 40
0.0
 40
0.0
 40
0.0
 40
0.299563616
 40
0.6328873433
 40
1.0
 40
1.0
 40
1.0
 40
1.0
 10
26.0305197101
 20
42.5123445323
 30
0.0
 10
26.0399470966
 20
42.43560815
 30
0.0
 10
26.0644361081
 20
42.2739553884
 30
0.0
 10
26.123880959
 20
42.02253416
 30
0.0
 10
26.1797521853
 20
41.8503034406
 30
0.0
 10
26.2133658121
 20
41.7617196908
 30
0.0
  0
SPLINE
  5
5EC
100
AcDbEntity
  8
0
100
AcDbSpline
 62
7
  6
BYLAYER
 70
0
 71
3
 72
10
 73
6
 74
0
 42
0.0000001
 43
0.0000001
 44
0.0000000001
 40
0.0
 40
0.0
 40
0.0
 40
0.0
 40
0.4431368356
 40
0.7773971625
 40
1.0
 40
1.0
 40
1.0
 40
1.0
 10
26.2133658121
 20
43.136510271
 30
0.0
 10
26.1863585124
 20
43.1362437808
 30
0.0
 10
26.1389707842
 20
43.1368116566
 30
0.0
 10
26.0780374696
 20
43.136041354
 30
0.0
 10
26.0440725419
 20
43.137137837
 30
0.0
 10
26.0305197101
 20
43.136510271
 30
0.0
  0
LINE
  5
5ED
100
AcDbEntity
  8
0
100
AcDbLine
 62
7
  6
BYLAYER
 10
26.0305197101
 20
43.136510271
 11
26.0305198124
 21
43.2606768281
  0
LINE
  5
5EE
100
AcDbEntity
  8
0
100
AcDbLine
 62
7
  6
BYLAYER
 10
26.0305197101
 20
43.2606760097
 11
26.0305199321
 21
43.1365104164
  0
SPLINE
  5
5EF
100
AcDbEntity
  8
0
100
AcDbSpline
 62
7
  6
BYLAYER
 70
0
 71
3
 72
12
 73
8
 74
0
 42
0.0000001
 43
0.0000001
 44
0.0000000001
 40
0.0
 40
0.0
 40
0.0
 40
0.0
 40
0.1478874653
 40
0.3349119003
 40
0.5470314409
 40
0.7728780738
 40
1.0
 40
1.0
 40
1.0
 40
1.0
 10
26.0305199321
 20
43.1365104164
 30
0.0
 10
26.0391640875
 20
43.1339558895
 30
0.0
 10
26.0601641279
 20
43.1376923633
 30
0.0
 10
26.0932131587
 20
43.1363730653
 30
0.0
 10
26.1314003752
 20
43.136216472
 30
0.0
 10
26.1719051797
 20
43.1362223777
 30
0.0
 10
26.1995291593
 20
43.1369307081
 30
0.0
 10
26.2133658121
 20
43.136510271
 30
0.0
  0
SPLINE
  5
5F0
100
AcDbEntity
  8
0
100
AcDbSpline
 62
7
  6
BYLAYER
 70
0
 71
3
 72
19
 73
15
 74
0
 42
0.0000001
 43
0.0000001
 44
0.0000000001
 40
0.0
 40
0.0
 40
0.0
 40
0.0
 40
0.1213708233
 40
0.2378979441
 40
0.3424956175
 40
0.4265783292
 40
0.4809901743
 40
0.5000000007
 40
0.5159246177
 40
0.5642190394
 40
0.6426208193
 40
0.7473022972
 40
0.8700454645
 40
1.0
 40
1.0
 40
1.0
 40
1.0
 10
26.7007218932
 20
42.886510271
 30
0.0
 10
26.7025895185
 20
43.0483203103
 30
0.0
 10
26.6999094746
 20
43.3646111984
 30
0.0
 10
26.7009610022
 20
43.8250652645
 30
0.0
 10
26.700684286
 20
44.2202687508
 30
0.0
 10
26.7006883832
 20
44.5752915621
 30
0.0
 10
26.7006761021
 20
44.7254866318
 30
0.0
 10
26.7007121002
 20
44.9240040889
 30
0.0
 10
26.7007263698
 20
44.7514149648
 30
0.0
 10
26.7007220284
 20
44.6069757886
 30
0.0
 10
26.7007264538
 20
44.2732581673
 30
0.0
 10
26.7007321186
 20
43.8759229664
 30
0.0
 10
26.7006941619
 20
43.3958013163
 30
0.0
 10
26.7007876772
 20
43.0597755339
 30
0.0
 10
26.7007218932
 20
42.886510271
 30
0.0
  0
SPLINE
  5
5F1
100
AcDbEntity
  8
0
100
AcDbSpline
 62
7
  6
BYLAYER
 70
0
 71
3
 72
10
 73
6
 74
0
 42
0.0000001
 43
0.0000001
 44
0.0000000001
 40
0.0
 40
0.0
 40
0.0
 40
0.0
 40
0.4827556857
 40
0.8055610408
 40
1.0
 40
1.0
 40
1.0
 40
1.0
 10
26.2133658121
 20
13.736510271
 30
0.0
 10
26.1840470551
 20
13.7389889687
 30
0.0
 10
26.1343148094
 20
13.7335842512
 30
0.0
 10
26.0748450586
 20
13.7408340161
 30
0.0
 10
26.0411600597
 20
13.7312925483
 30
0.0
 10
26.0305197101
 20
13.736510271
 30
0.0
  0
SPLINE
  5
5F2
100
AcDbEntity
  8
0
100
AcDbSpline
 62
7
  6
BYLAYER
 70
0
 71
3
 72
10
 73
6
 74
0
 42
0.0000001
 43
0.0000001
 44
0.0000000001
 40
0.0
 40
0.0
 40
0.0
 40
0.0
 40
0.299563616
 40
0.6328873433
 40
1.0
 40
1.0
 40
1.0
 40
1.0
 10
26.0305197101
 20
13.6123445323
 30
0.0
 10
26.0399470966
 20
13.53560815
 30
0.0
 10
26.0644361081
 20
13.3739553884
 30
0.0
 10
26.123880959
 20
13.12253416
 30
0.0
 10
26.1797521853
 20
12.9503034406
 30
0.0
 10
26.2133658121
 20
12.8617196908
 30
0.0
  0
SPLINE
  5
5F3
100
AcDbEntity
  8
0
100
AcDbSpline
 62
7
  6
BYLAYER
 70
0
 71
3
 72
10
 73
6
 74
0
 42
0.0000001
 43
0.0000001
 44
0.0000000001
 40
0.0
 40
0.0
 40
0.0
 40
0.0
 40
0.4431368356
 40
0.7773971625
 40
1.0
 40
1.0
 40
1.0
 40
1.0
 10
26.2133658121
 20
14.236510271
 30
0.0
 10
26.1863585124
 20
14.2362437808
 30
0.0
 10
26.1389707842
 20
14.2368116566
 30
0.0
 10
26.0780374696
 20
14.236041354
 30
0.0
 10
26.0440725419
 20
14.237137837
 30
0.0
 10
26.0305197101
 20
14.236510271
 30
0.0
  0
LINE
  5
5F4
100
AcDbEntity
  8
0
100
AcDbLine
 62
7
  6
BYLAYER
 10
26.0305197101
 20
14.236510271
 11
26.0305198124
 21
14.3606768281
  0
LINE
  5
5F5
100
AcDbEntity
  8
0
100
AcDbLine
 62
7
  6
BYLAYER
 10
26.0305197101
 20
14.3606760097
 11
26.0305199321
 21
14.2365104164
  0
SPLINE
  5
5F6
100
AcDbEntity
  8
0
100
AcDbSpline
 62
7
  6
BYLAYER
 70
0
 71
3
 72
12
 73
8
 74
0
 42
0.0000001
 43
0.0000001
 44
0.0000000001
 40
0.0
 40
0.0
 40
0.0
 40
0.0
 40
0.1478874653
 40
0.3349119003
 40
0.5470314409
 40
0.7728780738
 40
1.0
 40
1.0
 40
1.0
 40
1.0
 10
26.0305199321
 20
14.2365104164
 30
0.0
 10
26.0391640875
 20
14.2339558895
 30
0.0
 10
26.0601641279
 20
14.2376923633
 30
0.0
 10
26.0932131587
 20
14.2363730653
 30
0.0
 10
26.1314003752
 20
14.236216472
 30
0.0
 10
26.1719051797
 20
14.2362223777
 30
0.0
 10
26.1995291593
 20
14.2369307081
 30
0.0
 10
26.2133658121
 20
14.236510271
 30
0.0
  0
SPLINE
  5
5F7
100
AcDbEntity
  8
0
100
AcDbSpline
 62
7
  6
BYLAYER
 70
0
 71
3
 72
19
 73
15
 74
0
 42
0.0000001
 43
0.0000001
 44
0.0000000001
 40
0.0
 40
0.0
 40
0.0
 40
0.0
 40
0.1213708233
 40
0.2378979441
 40
0.3424956175
 40
0.4265783292
 40
0.4809901743
 40
0.5000000007
 40
0.5159246177
 40
0.5642190394
 40
0.6426208193
 40
0.7473022972
 40
0.8700454645
 40
1.0
 40
1.0
 40
1.0
 40
1.0
 10
26.7007218932
 20
13.986510271
 30
0.0
 10
26.7025895185
 20
14.1483203103
 30
0.0
 10
26.6999094746
 20
14.4646111984
 30
0.0
 10
26.7009610022
 20
14.9250652645
 30
0.0
 10
26.700684286
 20
15.3202687508
 30
0.0
 10
26.7006883832
 20
15.6752915621
 30
0.0
 10
26.7006761021
 20
15.8254866318
 30
0.0
 10
26.7007121002
 20
16.0240040889
 30
0.0
 10
26.7007263698
 20
15.8514149648
 30
0.0
 10
26.7007220284
 20
15.7069757886
 30
0.0
 10
26.7007264538
 20
15.3732581673
 30
0.0
 10
26.7007321186
 20
14.9759229664
 30
0.0
 10
26.7006941619
 20
14.4958013163
 30
0.0
 10
26.7007876772
 20
14.1597755339
 30
0.0
 10
26.7007218932
 20
13.986510271
 30
0.0
  0
ELLIPSE
  5
5F8
100
AcDbEntity
  8
0
100
AcDbEllipse
 62
7
  6
BYLAYER
 10
30.8487210926
 20
19.702537072
 30
0.0
 11
4.999995262
 21
0.0440471421
 31
0.0
 40
0.1562715285
 41
-1.160656144
 42
1.4591966135
  0
ELLIPSE
  5
5F9
100
AcDbEntity
  8
0
100
AcDbEllipse
 62
7
  6
BYLAYER
 10
30.8487210926
 20
18.139703473
 30
0.0
 11
4.999995262
 21
0.0440471421
 31
0.0
 40
0.1562715285
 41
-1.4619499401
 42
1.1579028174
  0
ELLIPSE
  5
5FA
100
AcDbEntity
  8
0
100
AcDbEllipse
 62
7
  6
BYLAYER
 10
30.8487210926
 20
19.702537072
 30
0.0
 11
4.999995262
 21
-0.0440471421
 31
0.0
 40
0.1562715285
 41
1.5721729901
 42
4.3022487976
  0
ELLIPSE
  5
5FB
100
AcDbEntity
  8
0
100
AcDbEllipse
 62
7
  6
BYLAYER
 10
30.8487210926
 20
19.702537072
 30
0.0
 11
4.999995262
 21
0.0440471421
 31
0.0
 40
0.1562715285
 41
1.4792977185
 42
1.5694196635
  0
ELLIPSE
  5
5FC
100
AcDbEntity
  8
0
100
AcDbEllipse
 62
7
  6
BYLAYER
 10
30.8487210926
 20
18.139703473
 30
0.0
 11
4.999995262
 21
-0.0440471421
 31
0.0
 40
0.1562715285
 41
1.9836898361
 42
4.8011342621
  0
ENDSEC
  0
SECTION
  2
OBJECTS
  0
DICTIONARY
  5
C
100
AcDbDictionary
280
0
281
1
  3
ACAD_GROUP
350
D
  3
ACAD_MLINESTYLE
350
17
  3
ACAD_LAYOUT
350
1A
  3
ACAD_PLOTSETTINGS
350
19
  3
ACAD_PLOTSTYLENAME
350
E
  0
DICTIONARY
  5
D
102
{ACAD_REACTORS
330
C
102
}
100
AcDbDictionary
280
0
281
1
  0
ACDBDICTIONARYWDFLT
  5
E
102
{ACAD_REACTORS
330
C
102
}
100
AcDbDictionary
281
1
  3
Normal
350
F
100
AcDbDictionaryWithDefault
340
F
  0
DICTIONARY
  5
17
102
{ACAD_REACTORS
330
C
102
}
100
AcDbDictionary
280
0
281
1
  3
Standard
350
18
  0
DICTIONARY
  5
19
102
{ACAD_REACTORS
330
C
102
}
100
AcDbDictionary
281
1
  0
DICTIONARY
  5
1A
102
{ACAD_REACTORS
330
C
102
}
100
AcDbDictionary
281
1
  3
Model
350
5FD
  3
Layout1
350
5FE
  0
ACDBPLACEHOLDER
  5
F
102
{ACAD_REACTORS
330
E
102
}
  0
MLINESTYLE
  5
18
102
{ACAD_REACTORS
330
17
102
}
100
AcDbMlineStyle
  2
STANDARD
 70
0
  3

 62
256
 51
90.0
 52
90.0
 71
2
 49
0.5
 62
256
  6
BYLAYER
 49
-0.5
 62
256
  6
BYLAYER
  0
LAYOUT
  5
5FD
102
{ACAD_REACTORS
330
1A
102
}
100
AcDbPlotSettings
  1

  2
none_device
  4

  6

 40
0.0
 41
0.0
 42
0.0
 43
0.0
 44
210.0
 45
297.0
 46
0.0
 47
0.0
 48
0.0
 49
0.0
140
0.0
141
0.0
142
1.0
143
1.0
 70
1024
 72
1
 73
0
 74
0
  7

 75
0
147
1.0
148
0.0
149
0.0
100
AcDbLayout
  1
Model
 70
0
 71
0
 10
0.0
 20
0.0
 11
210.0
 21
297.0
 12
0.0
 22
0.0
 32
0.0
 14
0.0
 24
0.0
 34
0.0
 15
0.0
 25
0.0
 35
0.0
146
0.0
 13
0.0
 23
0.0
 33
0.0
 16
1.0
 26
0.0
 36
0.0
 17
0.0
 27
1.0
 37
0.0
 76
0
330
210
345
0
346
0
  0
LAYOUT
  5
5FE
102
{ACAD_REACTORS
330
1A
102
}
100
AcDbPlotSettings
  1

  2
none_device
  4

  6

 40
0.0
 41
0.0
 42
0.0
 43
0.0
 44
210.0
 45
297.0
 46
0.0
 47
0.0
 48
0.0
 49
0.0
140
0.0
141
0.0
142
1.0
143
1.0
 70
0
 72
1
 73
0
 74
0
  7

 75
0
147
1.0
148
0.0
149
0.0
100
AcDbLayout
  1
Layout1
 70
0
 71
1
 10
0.0
 20
0.0
 11
210.0
 21
297.0
 12
0.0
 22
0.0
 32
0.0
 14
0.0
 24
0.0
 34
0.0
 15
0.0
 25
0.0
 35
0.0
146
0.0
 13
0.0
 23
0.0
 33
0.0
 16
1.0
 26
0.0
 36
0.0
 17
0.0
 27
1.0
 37
0.0
 76
0
330
211
345
0
346
0
  0
ENDSEC
  0
EOF
