999
DXF file: C:\Users\sesa63760\Dev\_Creo\CAD\MCADID0004769_3D-CAD\drw0001_3.dxf
999
Pro/ENGINEER 2019471 by Parametric Technology Corporation
  0
SECTION
  2
HEADER
  9
$ACADVER
  1
AC1024
  9
$DWGCODEPAGE
  3
ANSI_1252
  9
$EXTMAX
 10
59.4109586013
 20
84.0240700219
 30
0.0
  9
$EXTMIN
 10
0.0
 20
0.0
 30
0.0
  9
$LIMMIN
 10
0.0
 20
0.0
  9
$LIMMAX
 10
59.4109586013
 20
84.0240700219
  9
$VIEWCTR
 10
29.7054793007
 20
42.0120350109
  9
$VIEWSIZE
 40
84.0240700219
  9
$CLAYER
  8
0
  9
$LTSCALE
 40
5.4771245644
  9
$CELTYPE
  6
BYLAYER
  9
$DIMSCALE
 40
1.0
  9
$DIMASZ
 40
0.7072733167
  9
$DIMEXO
 40
1.0
  9
$DIMDLI
 40
3.7841951536
  9
$DIMEXE
 40
1.0
  9
$DIMCEN
 40
0.8962567469
  9
$DIMLFAC
 40
1.0
  9
$DIMBLK
  1
_FILLED
  9
$DIMALT
 70
0
  9
$DIMALTF
 40
0.0393700787
  9
$DIMTXT
 40
0.9901826434
  9
$DIMTOL
 70
1
  9
$DIMLIM
 70
0
  9
$DIMTFAC
 40
1.0
  9
$DIMTP
 40
0.01
  9
$DIMTM
 40
0.01
  9
$DIMGAP
 40
0.625
  9
$DIMDSEP
 70
46
  9
$AUNITS
 70
0
  9
$PDMODE
 70
3
  9
$PDSIZE
 40
0.3125
  9
$HANDSEED
  5
2E7
  9
$TILEMODE
 70
1
  9
$MEASUREMENT
 70
1
  9
$INSUNITS
 70
4
  0
ENDSEC
  0
SECTION
  2
CLASSES
  0
CLASS
  1
ACDBDICTIONARYWDFLT
  2
AcDbDictionaryWithDefault
  3
AutoCAD 2000
 90
0
 91
1
280
0
281
0
  0
CLASS
  1
ACDBPLACEHOLDER
  2
AcDbPlaceHolder
  3
AutoCAD 2000
 90
0
 91
1
280
0
281
0
  0
CLASS
  1
LAYOUT
  2
AcDbLayout
  3
AutoCAD 2000
 90
0
 91
0
280
0
281
0
  0
ENDSEC
  0
SECTION
  2
TABLES
  0
TABLE
  2
VPORT
  5
8
100
AcDbSymbolTable
 70
2
  0
VPORT
  5
1F4
100
AcDbSymbolTableRecord
100
AcDbViewportTableRecord
  2
*ACTIVE
 70
0
 10
0.0
 20
0.0
 11
1.0
 21
1.0
 12
29.7054793007
 22
42.0120350109
 13
0.0
 23
0.0
 14
1.0
 24
1.0
 15
0.0
 25
0.0
 16
0.0
 26
0.0
 36
1.0
 17
0.0
 27
0.0
 37
0.0
 40
84.0240700219
 41
0.7070707071
 42
50.0
 43
0.0
 44
0.0
 50
0.0
 51
0.0
 71
0
 72
100
 73
1
 74
1
 75
0
 76
0
 77
0
 78
0
  0
ENDTAB
  0
TABLE
  2
LTYPE
  5
5
100
AcDbSymbolTable
 70
6
  0
LTYPE
  5
14
100
AcDbSymbolTableRecord
100
AcDbLinetypeTableRecord
  2
BYBLOCK
 70
0
  3

 72
65
 73
0
 40
0.0
  0
LTYPE
  5
15
100
AcDbSymbolTableRecord
100
AcDbLinetypeTableRecord
  2
BYLAYER
 70
0
  3

 72
65
 73
0
 40
0.0
  0
LTYPE
  5
16
100
AcDbSymbolTableRecord
100
AcDbLinetypeTableRecord
  2
CONTINUOUS
 70
64
  3
Solid line
 72
65
 73
0
 40
0.0
  0
LTYPE
  5
1F5
100
AcDbSymbolTableRecord
100
AcDbLinetypeTableRecord
  2
CENTER
 70
64
  3
____ _ ____ _ ____ _ ____ _ ____ _ ____ _ ____
 72
65
 73
4
 40
0.6
 49
0.375
 74
0
 49
-0.075
 74
0
 49
0.075
 74
0
 49
-0.075
 74
0
  0
LTYPE
  5
1F6
100
AcDbSymbolTableRecord
100
AcDbLinetypeTableRecord
  2
HIDDEN
 70
64
  3
- - - - - - - - - - - - - - - - - - - -
 72
65
 73
2
 40
0.2
 49
0.1
 74
0
 49
-0.1
 74
0
  0
LTYPE
  5
1F7
100
AcDbSymbolTableRecord
100
AcDbLinetypeTableRecord
  2
PHANTOM
 70
64
  3
_____ _ _ _____ _ _ _____ _ _ _____
 72
65
 73
6
 40
0.8
 49
0.45
 74
0
 49
-0.05
 74
0
 49
0.1
 74
0
 49
-0.05
 74
0
 49
0.1
 74
0
 49
-0.05
 74
0
  0
LTYPE
  5
1F8
100
AcDbSymbolTableRecord
100
AcDbLinetypeTableRecord
  2
DOT
 70
64
  3
. . . . . . . . . . . . . . . . . . . .
 72
65
 73
2
 40
0.2
 49
0.1
 74
0
 49
-0.1
 74
0
  0
LTYPE
  5
1F9
100
AcDbSymbolTableRecord
100
AcDbLinetypeTableRecord
  2
DASHED
 70
64
  3
- - - - - - - - - - - - - - - - - - - -
 72
65
 73
2
 40
0.2
 49
0.1
 74
0
 49
-0.1
 74
0
  0
ENDTAB
  0
TABLE
  2
LAYER
  5
2
100
AcDbSymbolTable
 70
36
  0
LAYER
  5
10
100
AcDbSymbolTableRecord
100
AcDbLayerTableRecord
  2
0
 70
0
 62
7
  6
CONTINUOUS
370
-3
390
F
  0
LAYER
  5
1FA
100
AcDbSymbolTableRecord
100
AcDbLayerTableRecord
  2
DEFAULT_1
 70
0
 62
7
  6
CENTER
370
-3
390
F
  0
LAYER
  5
1FB
100
AcDbSymbolTableRecord
100
AcDbLayerTableRecord
  2
DEFAULT_2
 70
0
 62
7
  6
HIDDEN
370
-3
390
F
  0
LAYER
  5
1FC
100
AcDbSymbolTableRecord
100
AcDbLayerTableRecord
  2
DEFAULT_3
 70
0
 62
7
  6
PHANTOM
370
-3
390
F
  0
LAYER
  5
1FD
100
AcDbSymbolTableRecord
100
AcDbLayerTableRecord
  2
00_COMPONENTS
 70
0
 62
7
  6
CONTINUOUS
370
-3
390
F
  0
LAYER
  5
1FE
100
AcDbSymbolTableRecord
100
AcDbLayerTableRecord
  2
01_1_DEFAULT_DATUMS
 70
0
 62
7
  6
CONTINUOUS
370
-3
390
F
  0
LAYER
  5
1FF
100
AcDbSymbolTableRecord
100
AcDbLayerTableRecord
  2
01_PLANES
 70
0
 62
7
  6
CONTINUOUS
370
-3
390
F
  0
LAYER
  5
200
100
AcDbSymbolTableRecord
100
AcDbLayerTableRecord
  2
02_COORD_SYS
 70
0
 62
7
  6
CONTINUOUS
370
-3
390
F
  0
LAYER
  5
201
100
AcDbSymbolTableRecord
100
AcDbLayerTableRecord
  2
03_AXES
 70
0
 62
7
  6
CONTINUOUS
370
-3
390
F
  0
LAYER
  5
202
100
AcDbSymbolTableRecord
100
AcDbLayerTableRecord
  2
04_POINTS
 70
0
 62
7
  6
CONTINUOUS
370
-3
390
F
  0
LAYER
  5
203
100
AcDbSymbolTableRecord
100
AcDbLayerTableRecord
  2
05_CURVES
 70
0
 62
7
  6
CONTINUOUS
370
-3
390
F
  0
LAYER
  5
204
100
AcDbSymbolTableRecord
100
AcDbLayerTableRecord
  2
06_SURFS
 70
0
 62
7
  6
CONTINUOUS
370
-3
390
F
  0
LAYER
  5
205
100
AcDbSymbolTableRecord
100
AcDbLayerTableRecord
  2
07_COSMETICS
 70
0
 62
7
  6
CONTINUOUS
370
-3
390
F
  0
LAYER
  5
206
100
AcDbSymbolTableRecord
100
AcDbLayerTableRecord
  2
10_NOTES
 70
0
 62
7
  6
CONTINUOUS
370
-3
390
F
  0
LAYER
  5
207
100
AcDbSymbolTableRecord
100
AcDbLayerTableRecord
  2
11_NOTES_PUB
 70
0
 62
7
  6
CONTINUOUS
370
-3
390
F
  0
LAYER
  5
208
100
AcDbSymbolTableRecord
100
AcDbLayerTableRecord
  2
13_REF_GTOL
 70
0
 62
7
  6
CONTINUOUS
370
-3
390
F
  0
LAYER
  5
209
100
AcDbSymbolTableRecord
100
AcDbLayerTableRecord
  2
16_MISC
 70
0
 62
7
  6
CONTINUOUS
370
-3
390
F
  0
LAYER
  5
20A
100
AcDbSymbolTableRecord
100
AcDbLayerTableRecord
  2
17_NO_PRINT
 70
0
 62
7
  6
CONTINUOUS
370
-3
390
F
  0
LAYER
  5
20B
100
AcDbSymbolTableRecord
100
AcDbLayerTableRecord
  2
18_DATUM_CAMS_JOINTS
 70
0
 62
7
  6
CONTINUOUS
370
-3
390
F
  0
LAYER
  5
20C
100
AcDbSymbolTableRecord
100
AcDbLayerTableRecord
  2
19_DATUM_FUNCTIONAL
 70
0
 62
7
  6
CONTINUOUS
370
-3
390
F
  0
LAYER
  5
20D
100
AcDbSymbolTableRecord
100
AcDbLayerTableRecord
  2
20_DATUM_KINEMATIC_SCHEME
 70
0
 62
7
  6
CONTINUOUS
370
-3
390
F
  0
ENDTAB
  0
TABLE
  2
STYLE
  5
3
100
AcDbSymbolTable
 70
1
  0
STYLE
  5
11
100
AcDbSymbolTableRecord
100
AcDbTextStyleTableRecord
  2
STANDARD
 70
0
 40
0.0
 41
1.0
 50
0.0
 71
0
 42
0.2
  3
ARIAL.TTF
  4

  0
STYLE
  5
20E
100
AcDbSymbolTableRecord
100
AcDbTextStyleTableRecord
  2
TEXTSTYLE_1
 70
0
 40
0.0
 41
0.8
 50
0.0
 71
0
 42
0.2
  3
gdt
  4

  0
ENDTAB
  0
TABLE
  2
VIEW
  5
6
100
AcDbSymbolTable
 70
0
  0
ENDTAB
  0
TABLE
  2
UCS
  5
7
100
AcDbSymbolTable
 70
0
  0
ENDTAB
  0
TABLE
  2
APPID
  5
9
100
AcDbSymbolTable
 70
1
  0
APPID
  5
20F
100
AcDbSymbolTableRecord
100
AcDbRegAppTableRecord
  2
ACAD
 70
0
  0
ENDTAB
  0
TABLE
  2
BLOCK_RECORD
  5
1
100
AcDbSymbolTable
 70
0
  0
BLOCK_RECORD
  5
210
100
AcDbSymbolTableRecord
100
AcDbBlockTableRecord
  2
*Model_Space
  0
BLOCK_RECORD
  5
211
100
AcDbSymbolTableRecord
100
AcDbBlockTableRecord
  2
*Paper_Space
  0
BLOCK_RECORD
  5
212
100
AcDbSymbolTableRecord
100
AcDbBlockTableRecord
  2
_FILLED
  0
ENDTAB
  0
TABLE
  2
DIMSTYLE
  5
A
100
AcDbSymbolTable
 70
1
100
AcDbDimStyleTable
 71
0
  0
DIMSTYLE
105
213
100
AcDbSymbolTableRecord
100
AcDbDimStyleTableRecord
  2
STANDARD
 70
0
  3

  4

 40
1.0
 41
0.7072733167
 42
1.0
 43
0.38
 44
1.0
 45
0.0
 46
0.0
 47
0.01
 48
0.01
140
0.9901826434
141
0.09
142
0.0
143
25.4
144
1.0
145
0.0
146
1.0
147
0.625
 71
1
 72
0
 73
0
 74
0
 75
0
 76
0
 77
1
 78
8
 79
2
170
0
171
1
172
0
173
0
174
0
175
0
176
0
177
0
178
0
270
2
179
2
271
2
272
2
273
2
274
2
275
0
280
0
281
0
282
0
283
1
284
8
285
0
286
0
287
3
288
0
340
11
278
46
341
212
342
212
343
212
344
212
  0
ENDTAB
  0
ENDSEC
  0
SECTION
  2
BLOCKS
  0
BLOCK
  5
20
100
AcDbEntity
  8
0
100
AcDbBlockBegin
  2
*Model_Space
 70
0
 10
0.0
 20
0.0
 30
0.0
  3
*Model_Space
  1

  0
ENDBLK
  5
21
100
AcDbEntity
  8
0
100
AcDbBlockEnd
  0
BLOCK
  5
1C
100
AcDbEntity
  8
0
100
AcDbBlockBegin
  2
*Paper_Space
 70
0
 10
0.0
 20
0.0
 30
0.0
  3
*Paper_Space
  1

  0
ENDBLK
  5
1D
100
AcDbEntity
  8
0
100
AcDbBlockEnd
  0
BLOCK
  5
214
100
AcDbEntity
  8
0
100
AcDbBlockBegin
  2
_FILLED
 70
64
 10
0.0
 20
0.0
  3
_FILLED
  1

  0
SOLID
  5
215
100
AcDbEntity
  8
0
  6
BYBLOCK
 62
0
100
AcDbTrace
 10
0.0
 20
0.0
 11
-1.0
 21
0.25
 12
-1.0
 22
-0.25
 13
-1.0
 23
-0.25
  0
ENDBLK
  5
216
100
AcDbEntity
  8
0
  6
BYBLOCK
 62
0
100
AcDbBlockEnd
  0
ENDSEC
  0
SECTION
  2
ENTITIES
  0
LINE
  5
217
100
AcDbEntity
  8
0
100
AcDbLine
 62
7
  6
BYLAYER
 10
7.0282364123
 20
47.2177242888
 11
7.0282364123
 21
37.2177242888
  0
LINE
  5
218
100
AcDbEntity
  8
0
100
AcDbLine
 62
7
  6
BYLAYER
 10
7.5282364123
 20
55.0178221011
 11
7.5282364123
 21
29.4176264773
  0
LINE
  5
219
100
AcDbEntity
  8
0
100
AcDbLine
 62
7
  6
BYLAYER
 10
10.1547681143
 20
36.6853028323
 11
9.0963847597
 21
32.7353623791
  0
LINE
  5
21A
100
AcDbEntity
  8
0
100
AcDbLine
 62
7
  6
BYLAYER
 10
9.0963847597
 20
51.7000861986
 11
10.1547681143
 21
47.7501457454
  0
LINE
  5
21B
100
AcDbEntity
  8
0
100
AcDbLine
 62
7
  6
BYLAYER
 10
14.672861836
 20
35.1552429314
 11
13.9657550548
 21
35.8623497126
  0
LINE
  5
21C
100
AcDbEntity
  8
0
100
AcDbLine
 62
7
  6
BYLAYER
 10
8.2281386
 20
28.7177242888
 11
33.8283320416
 21
28.7177242888
  0
LINE
  5
21D
100
AcDbEntity
  8
0
100
AcDbLine
 62
7
  6
BYLAYER
 10
48.4982364123
 20
30.0677242888
 11
45.5582364123
 21
30.0677242888
  0
LINE
  5
21E
100
AcDbEntity
  8
0
100
AcDbLine
 62
7
  6
BYLAYER
 10
48.9982364123
 20
30.5677242888
 11
45.0582364123
 21
30.5677242888
  0
LINE
  5
21F
100
AcDbEntity
  8
0
100
AcDbLine
 62
7
  6
BYLAYER
 10
35.4536388355
 20
31.5677242888
 11
53.5282364123
 21
31.5677242888
  0
LINE
  5
220
100
AcDbEntity
  8
0
100
AcDbLine
 62
7
  6
BYLAYER
 10
40.0976836083
 20
31.6177242888
 11
35.0576885957
 21
31.6177242888
  0
LINE
  5
221
100
AcDbEntity
  8
0
100
AcDbLine
 62
7
  6
BYLAYER
 10
26.5606578688
 20
31.3442559909
 11
30.510598322
 21
30.2858726363
  0
LINE
  5
222
100
AcDbEntity
  8
0
100
AcDbLine
 62
7
  6
BYLAYER
 10
34.9180085839
 20
32.3230322117
 11
38.4962874781
 21
32.3230322117
  0
LINE
  5
223
100
AcDbEntity
  8
0
100
AcDbLine
 62
7
  6
BYLAYER
 10
13.932047436
 20
36.535748875
 11
16.5109239672
 21
39.1146254447
  0
LINE
  5
224
100
AcDbEntity
  8
0
100
AcDbLine
 62
7
  6
BYLAYER
 10
24.1313352291
 20
46.7350367458
 11
26.7102118261
 21
49.3139132651
  0
LINE
  5
225
100
AcDbEntity
  8
0
100
AcDbLine
 62
7
  6
BYLAYER
 10
9.1868952662
 20
31.4370433145
 11
9.3898391909
 21
31.6399872392
  0
LINE
  5
226
100
AcDbEntity
  8
0
100
AcDbLine
 62
7
  6
BYLAYER
 10
31.6059734619
 20
53.8561215102
 11
31.8089173866
 21
54.0590654349
  0
LINE
  5
227
100
AcDbEntity
  8
0
100
AcDbLine
 62
7
  6
BYLAYER
 10
13.4000941939
 20
35.2966888517
 11
13.9657550548
 21
35.8623497126
  0
LINE
  5
228
100
AcDbEntity
  8
0
100
AcDbLine
 62
7
  6
BYLAYER
 10
25.023389726
 20
46.9199843837
 11
27.9492718494
 21
49.8458665072
  0
LINE
  5
229
100
AcDbEntity
  8
0
100
AcDbLine
 62
7
  6
BYLAYER
 10
25.023389726
 20
46.7078523494
 11
28.059742788
 21
49.7442054114
  0
LINE
  5
22A
100
AcDbEntity
  8
0
100
AcDbLine
 62
7
  6
BYLAYER
 10
35.0576885957
 20
52.8177242888
 11
34.6573395632
 21
52.6413973081
  0
LINE
  5
22B
100
AcDbEntity
  8
0
100
AcDbLine
 62
7
  6
BYLAYER
 10
40.0976836083
 20
34.5677242888
 11
40.5282364123
 21
34.5677242888
  0
LINE
  5
22C
100
AcDbEntity
  8
0
100
AcDbLine
 62
7
  6
BYLAYER
 10
54.0282211116
 20
35.0677242888
 11
53.5282364123
 21
35.0677242888
  0
LINE
  5
22D
100
AcDbEntity
  8
0
100
AcDbLine
 62
7
  6
BYLAYER
 10
40.5282364123
 20
35.0677242888
 11
40.028251713
 21
35.0677242888
  0
LINE
  5
22E
100
AcDbEntity
  8
0
100
AcDbLine
 62
7
  6
BYLAYER
 10
36.5282364123
 20
35.2177242888
 11
40.5282364123
 21
35.2177242888
  0
LINE
  5
22F
100
AcDbEntity
  8
0
100
AcDbLine
 62
7
  6
BYLAYER
 10
35.0576885957
 20
31.6177242888
 11
34.6573395632
 21
31.7940512696
  0
LINE
  5
230
100
AcDbEntity
  8
0
100
AcDbLine
 62
7
  6
BYLAYER
 10
24.1313352078
 20
37.7004118381
 11
26.7102118261
 21
35.1215353126
  0
LINE
  5
231
100
AcDbEntity
  8
0
100
AcDbLine
 62
7
  6
BYLAYER
 10
16.5109239615
 20
45.3208230835
 11
13.932047436
 21
47.8996997027
  0
LINE
  5
232
100
AcDbEntity
  8
0
100
AcDbLine
 62
7
  6
BYLAYER
 10
31.6059734619
 20
30.5793270674
 11
31.8089173866
 21
30.3763831427
  0
LINE
  5
233
100
AcDbEntity
  8
0
100
AcDbLine
 62
7
  6
BYLAYER
 10
9.3898391909
 20
52.7954613385
 11
9.1868952662
 21
52.9984052632
  0
LINE
  5
234
100
AcDbEntity
  8
0
100
AcDbLine
 62
7
  6
BYLAYER
 10
25.5183644728
 20
46.2128776025
 11
28.5547175348
 21
49.2492306646
  0
LINE
  5
235
100
AcDbEntity
  8
0
100
AcDbLine
 62
7
  6
BYLAYER
 10
14.1072009751
 20
34.5895820705
 11
14.672861836
 21
35.1552429314
  0
LINE
  5
236
100
AcDbEntity
  8
0
100
AcDbLine
 62
7
  6
BYLAYER
 10
25.7304965072
 20
46.2128776025
 11
28.6563786306
 21
49.138759726
  0
LINE
  5
237
100
AcDbEntity
  8
0
100
AcDbLine
 62
7
  6
BYLAYER
 10
10.2475554379
 20
30.3763831427
 11
10.4504993626
 21
30.5793270674
  0
LINE
  5
238
100
AcDbEntity
  8
0
100
AcDbLine
 62
7
  6
BYLAYER
 10
32.6666336337
 20
52.7954613385
 11
32.8695775584
 21
52.9984052632
  0
LINE
  5
239
100
AcDbEntity
  8
0
100
AcDbLine
 62
7
  6
BYLAYER
 10
15.3462609984
 20
35.1215353126
 11
17.925137568
 21
37.7004118438
  0
LINE
  5
23A
100
AcDbEntity
  8
0
100
AcDbLine
 62
7
  6
BYLAYER
 10
25.5455488693
 20
45.3208231054
 11
28.1244253885
 21
47.8996997027
  0
LINE
  5
23B
100
AcDbEntity
  8
0
100
AcDbLine
 62
7
  6
BYLAYER
 10
40.0976836083
 20
52.8177242888
 11
38.4962874781
 21
52.112416366
  0
LINE
  5
23C
100
AcDbEntity
  8
0
100
AcDbLine
 62
7
  6
BYLAYER
 10
11.5458745025
 20
30.2858726363
 11
15.4958149557
 21
31.3442559909
  0
LINE
  5
23D
100
AcDbEntity
  8
0
100
AcDbLine
 62
7
  6
BYLAYER
 10
53.5282364123
 20
35.5677242888
 11
40.5282364123
 21
35.5677242888
  0
LINE
  5
23E
100
AcDbEntity
  8
0
100
AcDbLine
 62
7
  6
BYLAYER
 10
38.4962874781
 20
32.3230322117
 11
40.0976836083
 21
31.6177242888
  0
LINE
  5
23F
100
AcDbEntity
  8
0
100
AcDbLine
 62
7
  6
BYLAYER
 10
32.6666336337
 20
31.6399872392
 11
32.8695775584
 21
31.4370433145
  0
LINE
  5
240
100
AcDbEntity
  8
0
100
AcDbLine
 62
7
  6
BYLAYER
 10
10.4504993626
 20
53.8561215102
 11
10.2475554379
 21
54.0590654349
  0
LINE
  5
241
100
AcDbEntity
  8
0
100
AcDbLine
 62
7
  6
BYLAYER
 10
28.1244253885
 20
36.535748875
 11
25.5455488523
 21
39.1146254471
  0
LINE
  5
242
100
AcDbEntity
  8
0
100
AcDbLine
 62
7
  6
BYLAYER
 10
17.925137571
 20
46.735036729
 11
15.3462609984
 21
49.3139132651
  0
LINE
  5
243
100
AcDbEntity
  8
0
100
AcDbLine
 62
7
  6
BYLAYER
 10
7.0282364123
 20
37.2177242888
 11
7.5282364123
 21
37.2177242888
  0
LINE
  5
244
100
AcDbEntity
  8
0
100
AcDbLine
 62
7
  6
BYLAYER
 10
53.5282364123
 20
37.2177242888
 11
54.0282364123
 21
37.2177242888
  0
LINE
  5
245
100
AcDbEntity
  8
0
100
AcDbLine
 62
7
  6
BYLAYER
 10
31.9017047102
 20
47.7501457454
 11
32.9600880648
 21
51.7000861985
  0
LINE
  5
246
100
AcDbEntity
  8
0
100
AcDbLine
 62
7
  6
BYLAYER
 10
25.5183644728
 20
46.2128776025
 11
25.023389726
 21
46.7078523494
  0
LINE
  5
247
100
AcDbEntity
  8
0
100
AcDbLine
 62
7
  6
BYLAYER
 10
25.7304965072
 20
46.2128776025
 11
25.023389726
 21
46.9199843837
  0
LINE
  5
248
100
AcDbEntity
  8
0
100
AcDbLine
 62
7
  6
BYLAYER
 10
32.9600880648
 20
32.7353623791
 11
31.9017047102
 21
36.6853028323
  0
LINE
  5
249
100
AcDbEntity
  8
0
100
AcDbLine
 62
7
  6
BYLAYER
 10
44.5432364123
 20
53.5677242888
 11
44.0432364123
 21
53.0677242888
  0
LINE
  5
24A
100
AcDbEntity
  8
0
100
AcDbLine
 62
7
  6
BYLAYER
 10
26.9471976636
 20
47.429578759
 11
26.2400908823
 21
48.1366855401
  0
LINE
  5
24B
100
AcDbEntity
  8
0
100
AcDbLine
 62
7
  6
BYLAYER
 10
26.4506115355
 20
48.1350741589
 11
26.9455862823
 21
47.6400994121
  0
LINE
  5
24C
100
AcDbEntity
  8
0
100
AcDbLine
 62
7
  6
BYLAYER
 10
27.2838325138
 20
47.9783456435
 11
26.7888577671
 21
48.4733203905
  0
LINE
  5
24D
100
AcDbEntity
  8
0
100
AcDbLine
 62
7
  6
BYLAYER
 10
26.9468484692
 20
48.6313110926
 11
27.441823216
 21
48.1363363458
  0
LINE
  5
24E
100
AcDbEntity
  8
0
100
AcDbLine
 62
7
  6
BYLAYER
 10
45.0582364123
 20
30.5677242888
 11
45.5582364123
 21
30.0677242888
  0
LINE
  5
24F
100
AcDbEntity
  8
0
100
AcDbLine
 62
7
  6
BYLAYER
 10
27.5269843791
 20
49.2114470025
 11
28.0219591259
 21
48.7164722557
  0
LINE
  5
250
100
AcDbEntity
  8
0
100
AcDbLine
 62
7
  6
BYLAYER
 10
27.5832687508
 20
49.2677313742
 11
28.0782434976
 21
48.7727566274
  0
LINE
  5
251
100
AcDbEntity
  8
0
100
AcDbLine
 62
7
  6
BYLAYER
 10
28.1346595632
 20
48.8291726929
 11
27.6396848164
 21
49.3241474398
  0
LINE
  5
252
100
AcDbEntity
  8
0
100
AcDbLine
 62
7
  6
BYLAYER
 10
28.3467915975
 20
48.8291726929
 11
27.7456216151
 21
49.4300842385
  0
LINE
  5
253
100
AcDbEntity
  8
0
100
AcDbLine
 62
7
  6
BYLAYER
 10
34.5282364123
 20
29.4176286587
 11
34.5282364123
 21
55.0178199182
  0
LINE
  5
254
100
AcDbEntity
  8
0
100
AcDbLine
 62
7
  6
BYLAYER
 10
34.6573395632
 20
52.6413973081
 11
34.6573395632
 21
50.6079200371
  0
LINE
  5
255
100
AcDbEntity
  8
0
100
AcDbLine
 62
7
  6
BYLAYER
 10
34.6573395632
 20
33.8275285406
 11
34.6573395632
 21
31.7940512696
  0
LINE
  5
256
100
AcDbEntity
  8
0
100
AcDbLine
 62
7
  6
BYLAYER
 10
34.9180085839
 20
52.112416366
 11
34.9180085839
 21
50.0677094313
  0
LINE
  5
257
100
AcDbEntity
  8
0
100
AcDbLine
 62
7
  6
BYLAYER
 10
34.9180085839
 20
34.3677391463
 11
34.9180085839
 21
32.3230322117
  0
LINE
  5
258
100
AcDbEntity
  8
0
100
AcDbLine
 62
7
  6
BYLAYER
 10
35.4536388355
 20
52.8677242888
 11
35.4536388355
 21
52.8177242888
  0
LINE
  5
259
100
AcDbEntity
  8
0
100
AcDbLine
 62
7
  6
BYLAYER
 10
35.4536388355
 20
31.5677242888
 11
35.4536388355
 21
31.6177242888
  0
LINE
  5
25A
100
AcDbEntity
  8
0
100
AcDbLine
 62
7
  6
BYLAYER
 10
54.0282364123
 20
47.2177242888
 11
53.5282364123
 21
47.2177242888
  0
LINE
  5
25B
100
AcDbEntity
  8
0
100
AcDbLine
 62
7
  6
BYLAYER
 10
7.5282364123
 20
47.2177242888
 11
7.0282364123
 21
47.2177242888
  0
LINE
  5
25C
100
AcDbEntity
  8
0
100
AcDbLine
 62
7
  6
BYLAYER
 10
40.5282364123
 20
48.8677242888
 11
53.5282364123
 21
48.8677242888
  0
LINE
  5
25D
100
AcDbEntity
  8
0
100
AcDbLine
 62
7
  6
BYLAYER
 10
40.5282364123
 20
49.2177242888
 11
36.5282364123
 21
49.2177242888
  0
LINE
  5
25E
100
AcDbEntity
  8
0
100
AcDbLine
 62
7
  6
BYLAYER
 10
40.0282516517
 20
49.3677242888
 11
40.5282364123
 21
49.3677242888
  0
LINE
  5
25F
100
AcDbEntity
  8
0
100
AcDbLine
 62
7
  6
BYLAYER
 10
53.5282364123
 20
49.3677242888
 11
54.0282318153
 21
49.3677242888
  0
LINE
  5
260
100
AcDbEntity
  8
0
100
AcDbLine
 62
7
  6
BYLAYER
 10
15.4958149557
 20
53.0911925868
 11
11.5458745025
 21
54.1495759414
  0
LINE
  5
261
100
AcDbEntity
  8
0
100
AcDbLine
 62
7
  6
BYLAYER
 10
38.4962874781
 20
52.112416366
 11
38.4962874781
 21
49.2177242888
  0
LINE
  5
262
100
AcDbEntity
  8
0
100
AcDbLine
 62
7
  6
BYLAYER
 10
38.4962874781
 20
35.2177242888
 11
38.4962874781
 21
32.3230322117
  0
LINE
  5
263
100
AcDbEntity
  8
0
100
AcDbLine
 62
7
  6
BYLAYER
 10
34.9180085839
 20
32.3230322117
 11
34.6573395632
 21
31.7940512695
  0
LINE
  5
264
100
AcDbEntity
  8
0
100
AcDbLine
 62
7
  6
BYLAYER
 10
40.0976836083
 20
49.8677242888
 11
40.5282364123
 21
49.8677242888
  0
LINE
  5
265
100
AcDbEntity
  8
0
100
AcDbLine
 62
7
  6
BYLAYER
 10
34.9180085839
 20
52.112416366
 11
34.6573395632
 21
52.6413973081
  0
LINE
  5
266
100
AcDbEntity
  8
0
100
AcDbLine
 62
7
  6
BYLAYER
 10
40.0282364123
 20
52.8677242888
 11
40.0282364123
 21
52.8177242888
  0
LINE
  5
267
100
AcDbEntity
  8
0
100
AcDbLine
 62
7
  6
BYLAYER
 10
40.0282364123
 20
49.3677242888
 11
40.0282364123
 21
49.2177242888
  0
LINE
  5
268
100
AcDbEntity
  8
0
100
AcDbLine
 62
7
  6
BYLAYER
 10
40.0282364123
 20
35.2177242888
 11
40.0282364123
 21
35.0677242888
  0
LINE
  5
269
100
AcDbEntity
  8
0
100
AcDbLine
 62
7
  6
BYLAYER
 10
40.0282364123
 20
31.5677242888
 11
40.0282364123
 21
31.6177242888
  0
LINE
  5
26A
100
AcDbEntity
  8
0
100
AcDbLine
 62
7
  6
BYLAYER
 10
40.0976836083
 20
52.8177242888
 11
40.0976836083
 21
49.3677242888
  0
LINE
  5
26B
100
AcDbEntity
  8
0
100
AcDbLine
 62
7
  6
BYLAYER
 10
40.0976836083
 20
35.0677242888
 11
40.0976836083
 21
31.6177242888
  0
LINE
  5
26C
100
AcDbEntity
  8
0
100
AcDbLine
 62
7
  6
BYLAYER
 10
40.3282364123
 20
52.8677242888
 11
40.3282364123
 21
49.8677242888
  0
LINE
  5
26D
100
AcDbEntity
  8
0
100
AcDbLine
 62
7
  6
BYLAYER
 10
40.3282364123
 20
34.5677242888
 11
40.3282364123
 21
31.5677242888
  0
LINE
  5
26E
100
AcDbEntity
  8
0
100
AcDbLine
 62
7
  6
BYLAYER
 10
40.5282364123
 20
31.5677242888
 11
40.5282364123
 21
35.5677242888
  0
LINE
  5
26F
100
AcDbEntity
  8
0
100
AcDbLine
 62
7
  6
BYLAYER
 10
40.5282364123
 20
48.8677242888
 11
40.5282364123
 21
52.8677242888
  0
LINE
  5
270
100
AcDbEntity
  8
0
100
AcDbLine
 62
7
  6
BYLAYER
 10
34.9180085839
 20
52.112416366
 11
38.4962874781
 21
52.112416366
  0
LINE
  5
271
100
AcDbEntity
  8
0
100
AcDbLine
 62
7
  6
BYLAYER
 10
40.0976836083
 20
52.8177242888
 11
35.0576885957
 21
52.8177242888
  0
LINE
  5
272
100
AcDbEntity
  8
0
100
AcDbLine
 62
7
  6
BYLAYER
 10
35.4536388355
 20
52.8677242888
 11
53.5282364123
 21
52.8677242888
  0
LINE
  5
273
100
AcDbEntity
  8
0
100
AcDbLine
 62
7
  6
BYLAYER
 10
44.0432364123
 20
53.0677242888
 11
50.0132364123
 21
53.0677242888
  0
LINE
  5
274
100
AcDbEntity
  8
0
100
AcDbLine
 62
7
  6
BYLAYER
 10
30.510598322
 20
54.1495759414
 11
26.5606578688
 21
53.0911925868
  0
LINE
  5
275
100
AcDbEntity
  8
0
100
AcDbLine
 62
7
  6
BYLAYER
 10
44.5432364123
 20
53.5677242888
 11
49.5132364123
 21
53.5677242888
  0
LINE
  5
276
100
AcDbEntity
  8
0
100
AcDbLine
 62
7
  6
BYLAYER
 10
44.0432364123
 20
52.8677242888
 11
44.0432364123
 21
53.0677242888
  0
LINE
  5
277
100
AcDbEntity
  8
0
100
AcDbLine
 62
7
  6
BYLAYER
 10
45.0582364123
 20
30.5677242888
 11
45.0582364123
 21
31.5677242888
  0
LINE
  5
278
100
AcDbEntity
  8
0
100
AcDbLine
 62
7
  6
BYLAYER
 10
33.8283320424
 20
55.7177242888
 11
8.2281386007
 21
55.7177242888
  0
LINE
  5
279
100
AcDbEntity
  8
0
100
AcDbLine
 62
7
  6
BYLAYER
 10
48.9982364123
 20
30.5677242888
 11
48.9982364123
 21
31.5677242888
  0
LINE
  5
27A
100
AcDbEntity
  8
0
100
AcDbLine
 62
7
  6
BYLAYER
 10
50.0132364123
 20
52.8677242888
 11
50.0132364123
 21
53.0677242888
  0
LINE
  5
27B
100
AcDbEntity
  8
0
100
AcDbLine
 62
7
  6
BYLAYER
 10
48.9982364123
 20
30.5677242888
 11
48.4982364123
 21
30.0677242888
  0
LINE
  5
27C
100
AcDbEntity
  8
0
100
AcDbLine
 62
7
  6
BYLAYER
 10
49.5132364123
 20
53.5677242888
 11
50.0132364123
 21
53.0677242888
  0
LINE
  5
27D
100
AcDbEntity
  8
0
100
AcDbLine
 62
7
  6
BYLAYER
 10
53.5282364123
 20
31.5677242888
 11
53.5282364123
 21
37.2177242888
  0
LINE
  5
27E
100
AcDbEntity
  8
0
100
AcDbLine
 62
7
  6
BYLAYER
 10
53.5282364123
 20
47.2177242888
 11
53.5282364123
 21
52.8677242888
  0
LINE
  5
27F
100
AcDbEntity
  8
0
100
AcDbLine
 62
7
  6
BYLAYER
 10
54.0282364123
 20
35.0677242888
 11
54.0282364123
 21
49.3677242888
  0
ARC
  5
280
100
AcDbEntity
  8
0
100
AcDbCircle
 62
7
  6
BYLAYER
 10
11.0282364123
 20
32.2177242888
 40
2.0
100
AcDbArc
 50
164.9999999972
 51
202.9756871631
  0
ARC
  5
281
100
AcDbEntity
  8
0
100
AcDbCircle
 62
7
  6
BYLAYER
 10
11.0282364123
 20
32.2177242888
 40
2.0
100
AcDbArc
 50
247.024312837
 51
285.0000000007
  0
ARC
  5
282
100
AcDbEntity
  8
0
100
AcDbCircle
 62
7
  6
BYLAYER
 10
11.0282364123
 20
32.2177242888
 40
1.7477483636
100
AcDbArc
 50
250.4119519198
 51
199.5880480804
  0
ARC
  5
283
100
AcDbEntity
  8
0
100
AcDbCircle
 62
7
  6
BYLAYER
 10
11.0282364123
 20
32.2177242888
 40
1.7372753246
100
AcDbArc
 50
250.5761618724
 51
199.4238381276
  0
CIRCLE
  5
284
100
AcDbEntity
  8
0
100
AcDbCircle
 62
7
  6
BYLAYER
 10
11.0282364123
 20
32.2177242888
 40
1.5
  0
CIRCLE
  5
285
100
AcDbEntity
  8
0
100
AcDbCircle
 62
7
  6
BYLAYER
 10
11.0282364123
 20
32.2177242888
 40
1.3
  0
ARC
  5
286
100
AcDbEntity
  8
0
100
AcDbCircle
 62
7
  6
BYLAYER
 10
8.2280860296
 20
29.4175738912
 40
0.6998464524
100
AcDbArc
 50
179.9956948457
 51
270.0043038724
  0
ARC
  5
287
100
AcDbEntity
  8
0
100
AcDbCircle
 62
7
  6
BYLAYER
 10
11.0282364123
 20
52.2177242888
 40
2.0
100
AcDbArc
 50
74.9999999992
 51
112.9756871631
  0
ARC
  5
288
100
AcDbEntity
  8
0
100
AcDbCircle
 62
7
  6
BYLAYER
 10
11.0282364123
 20
52.2177242888
 40
2.0
100
AcDbArc
 50
157.024312837
 51
195.0000000019
  0
ARC
  5
289
100
AcDbEntity
  8
0
100
AcDbCircle
 62
7
  6
BYLAYER
 10
11.0282364123
 20
52.2177242888
 40
1.7477483636
100
AcDbArc
 50
160.4119519198
 51
109.5880480804
  0
ARC
  5
28A
100
AcDbEntity
  8
0
100
AcDbCircle
 62
7
  6
BYLAYER
 10
11.0282364123
 20
52.2177242888
 40
1.7372753246
100
AcDbArc
 50
160.5761618724
 51
109.4238381276
  0
CIRCLE
  5
28B
100
AcDbEntity
  8
0
100
AcDbCircle
 62
7
  6
BYLAYER
 10
11.0282364123
 20
52.2177242888
 40
1.5
  0
CIRCLE
  5
28C
100
AcDbEntity
  8
0
100
AcDbCircle
 62
7
  6
BYLAYER
 10
11.0282364123
 20
52.2177242888
 40
1.3
  0
ARC
  5
28D
100
AcDbEntity
  8
0
100
AcDbCircle
 62
7
  6
BYLAYER
 10
8.2280860146
 20
55.0178746715
 40
0.6998464524
100
AcDbArc
 50
89.9956948457
 51
180.0043038724
  0
ARC
  5
28E
100
AcDbEntity
  8
0
100
AcDbCircle
 62
7
  6
BYLAYER
 10
21.0282364123
 20
42.2177242888
 40
12.2
100
AcDbArc
 50
116.9669953084
 51
153.0330046916
  0
ARC
  5
28F
100
AcDbEntity
  8
0
100
AcDbCircle
 62
7
  6
BYLAYER
 10
21.0282364123
 20
42.2177242888
 40
12.2
100
AcDbArc
 50
26.9669953084
 51
63.0330046916
  0
ARC
  5
290
100
AcDbEntity
  8
0
100
AcDbCircle
 62
7
  6
BYLAYER
 10
21.0282364123
 20
42.2177242888
 40
12.2
100
AcDbArc
 50
206.9669953084
 51
243.0330046916
  0
ARC
  5
291
100
AcDbEntity
  8
0
100
AcDbCircle
 62
7
  6
BYLAYER
 10
21.0282364123
 20
42.2177242888
 40
12.2
100
AcDbArc
 50
296.9669953084
 51
333.0330046916
  0
ARC
  5
292
100
AcDbEntity
  8
0
100
AcDbCircle
 62
7
  6
BYLAYER
 10
21.0282364123
 20
42.2177242888
 40
10.3
100
AcDbArc
 50
46.9473188417
 51
47.7824420499
  0
ARC
  5
293
100
AcDbEntity
  8
0
100
AcDbCircle
 62
7
  6
BYLAYER
 10
21.0282364123
 20
42.2177242888
 40
10.3
100
AcDbArc
 50
47.7864143261
 51
222.215571812
  0
ARC
  5
294
100
AcDbEntity
  8
0
100
AcDbCircle
 62
7
  6
BYLAYER
 10
21.0282364123
 20
42.2177242888
 40
10.3
100
AcDbArc
 50
227.7864143261
 51
43.0526811583
  0
ARC
  5
295
100
AcDbEntity
  8
0
100
AcDbCircle
 62
7
  6
BYLAYER
 10
21.0282364123
 20
42.2177242888
 40
10.212260565
100
AcDbArc
 50
47.8023640742
 51
222.1976359258
  0
ARC
  5
296
100
AcDbEntity
  8
0
100
AcDbCircle
 62
7
  6
BYLAYER
 10
21.0282364123
 20
42.2177242888
 40
10.212260565
100
AcDbArc
 50
227.8023640742
 51
42.1976359258
  0
ARC
  5
297
100
AcDbEntity
  8
0
100
AcDbCircle
 62
7
  6
BYLAYER
 10
21.0282364123
 20
42.2177242888
 40
10.1453494193
100
AcDbArc
 50
47.8248903327
 51
222.1751096673
  0
ARC
  5
298
100
AcDbEntity
  8
0
100
AcDbCircle
 62
7
  6
BYLAYER
 10
21.0282364123
 20
42.2177242888
 40
10.1453494193
100
AcDbArc
 50
227.8248903327
 51
42.1751096673
  0
ARC
  5
299
100
AcDbEntity
  8
0
100
AcDbCircle
 62
7
  6
BYLAYER
 10
21.0282364123
 20
42.2177242888
 40
9.5783121635
100
AcDbArc
 50
47.9922715395
 51
222.0077278721
  0
ARC
  5
29A
100
AcDbEntity
  8
0
100
AcDbCircle
 62
7
  6
BYLAYER
 10
21.0282364123
 20
42.2177242888
 40
9.5783121635
100
AcDbArc
 50
227.9922721279
 51
42.0077285176
  0
ARC
  5
29B
100
AcDbEntity
  8
0
100
AcDbCircle
 62
7
  6
BYLAYER
 10
21.0282364123
 20
42.2177242888
 40
9.1452994616
100
AcDbArc
 50
48.1340888208
 51
41.8659111567
  0
ARC
  5
29C
100
AcDbEntity
  8
0
100
AcDbCircle
 62
7
  6
BYLAYER
 10
21.0282364123
 20
42.2177242888
 40
9.0906953854
100
AcDbArc
 50
218.684535365
 51
231.315464635
  0
ARC
  5
29D
100
AcDbEntity
  8
0
100
AcDbCircle
 62
7
  6
BYLAYER
 10
21.0282364123
 20
42.2177242888
 40
9.0906953854
100
AcDbArc
 50
308.684535365
 51
321.315464635
  0
ARC
  5
29E
100
AcDbEntity
  8
0
100
AcDbCircle
 62
7
  6
BYLAYER
 10
21.0282364123
 20
42.2177242888
 40
9.0906953854
100
AcDbArc
 50
38.684535365
 51
41.8470670031
  0
ARC
  5
29F
100
AcDbEntity
  8
0
100
AcDbCircle
 62
7
  6
BYLAYER
 10
21.0282364123
 20
42.2177242888
 40
9.0906953854
100
AcDbArc
 50
48.1529329969
 51
51.315464635
  0
ARC
  5
2A0
100
AcDbEntity
  8
0
100
AcDbCircle
 62
7
  6
BYLAYER
 10
21.0282364123
 20
42.2177242888
 40
9.0906953854
100
AcDbArc
 50
128.684535365
 51
141.315464635
  0
ARC
  5
2A1
100
AcDbEntity
  8
0
100
AcDbCircle
 62
7
  6
BYLAYER
 10
21.0282364123
 20
42.2177242888
 40
8.5728540609
100
AcDbArc
 50
308.3013539597
 51
321.6986460403
  0
ARC
  5
2A2
100
AcDbEntity
  8
0
100
AcDbCircle
 62
7
  6
BYLAYER
 10
21.0282364123
 20
42.2177242888
 40
8.5728540609
100
AcDbArc
 50
218.3013539597
 51
231.6986460403
  0
ARC
  5
2A3
100
AcDbEntity
  8
0
100
AcDbCircle
 62
7
  6
BYLAYER
 10
21.0282364123
 20
42.2177242888
 40
8.5728540609
100
AcDbArc
 50
48.3435920359
 51
51.6986460403
  0
ARC
  5
2A4
100
AcDbEntity
  8
0
100
AcDbCircle
 62
7
  6
BYLAYER
 10
21.0282364123
 20
42.2177242888
 40
8.5728540609
100
AcDbArc
 50
128.3013539597
 51
141.6986460403
  0
ARC
  5
2A5
100
AcDbEntity
  8
0
100
AcDbCircle
 62
7
  6
BYLAYER
 10
21.0282364123
 20
42.2177242888
 40
8.5728540609
100
AcDbArc
 50
38.3013539597
 51
41.656407959
  0
ARC
  5
2A6
100
AcDbEntity
  8
0
100
AcDbCircle
 62
7
  6
BYLAYER
 10
21.0282364123
 20
42.2177242888
 40
8.0804501844
100
AcDbArc
 50
37.8911079232
 51
41.4524002862
  0
ARC
  5
2A7
100
AcDbEntity
  8
0
100
AcDbCircle
 62
7
  6
BYLAYER
 10
21.0282364123
 20
42.2177242888
 40
8.0804501844
100
AcDbArc
 50
307.8911079232
 51
322.1088920718
  0
ARC
  5
2A8
100
AcDbEntity
  8
0
100
AcDbCircle
 62
7
  6
BYLAYER
 10
21.0282364123
 20
42.2177242888
 40
8.0804501844
100
AcDbArc
 50
217.8911079232
 51
232.1088920718
  0
ARC
  5
2A9
100
AcDbEntity
  8
0
100
AcDbCircle
 62
7
  6
BYLAYER
 10
21.0282364123
 20
42.2177242888
 40
8.0804501844
100
AcDbArc
 50
127.8911079232
 51
142.1088920718
  0
ARC
  5
2AA
100
AcDbEntity
  8
0
100
AcDbCircle
 62
7
  6
BYLAYER
 10
21.0282364123
 20
42.2177242888
 40
8.0804501844
100
AcDbArc
 50
48.5475996953
 51
52.1088920718
  0
ARC
  5
2AB
100
AcDbEntity
  8
0
100
AcDbCircle
 62
7
  6
BYLAYER
 10
21.0282364123
 20
42.2177242888
 40
6.910245201
100
AcDbArc
 50
233.3206405961
 51
306.6793595753
  0
ARC
  5
2AC
100
AcDbEntity
  8
0
100
AcDbCircle
 62
7
  6
BYLAYER
 10
21.0282364123
 20
42.2177242888
 40
6.910245201
100
AcDbArc
 50
323.3206404647
 51
36.6793591627
  0
ARC
  5
2AD
100
AcDbEntity
  8
0
100
AcDbCircle
 62
7
  6
BYLAYER
 10
21.0282364123
 20
42.2177242888
 40
6.910245201
100
AcDbArc
 50
53.3206406488
 51
126.6793598611
  0
ARC
  5
2AE
100
AcDbEntity
  8
0
100
AcDbCircle
 62
7
  6
BYLAYER
 10
21.0282364123
 20
42.2177242888
 40
6.910245201
100
AcDbArc
 50
143.3206406122
 51
216.6793594315
  0
ARC
  5
2AF
100
AcDbEntity
  8
0
100
AcDbCircle
 62
7
  6
BYLAYER
 10
21.0282364123
 20
42.2177242888
 40
6.4178413245
100
AcDbArc
 50
323.9641032688
 51
36.0358967312
  0
ARC
  5
2B0
100
AcDbEntity
  8
0
100
AcDbCircle
 62
7
  6
BYLAYER
 10
21.0282364123
 20
42.2177242888
 40
6.4178413245
100
AcDbArc
 50
233.9641032688
 51
306.0358967312
  0
ARC
  5
2B1
100
AcDbEntity
  8
0
100
AcDbCircle
 62
7
  6
BYLAYER
 10
21.0282364123
 20
42.2177242888
 40
6.4178413245
100
AcDbArc
 50
143.9641032688
 51
216.0358967312
  0
ARC
  5
2B2
100
AcDbEntity
  8
0
100
AcDbCircle
 62
7
  6
BYLAYER
 10
21.0282364123
 20
42.2177242888
 40
6.4178413245
100
AcDbArc
 50
53.9641032688
 51
126.0358967312
  0
ARC
  5
2B3
100
AcDbEntity
  8
0
100
AcDbCircle
 62
7
  6
BYLAYER
 10
21.0282364123
 20
42.2177242888
 40
5.9728540609
100
AcDbArc
 50
54.6380871911
 51
125.3619128089
  0
ARC
  5
2B4
100
AcDbEntity
  8
0
100
AcDbCircle
 62
7
  6
BYLAYER
 10
21.0282364123
 20
42.2177242888
 40
5.9728540609
100
AcDbArc
 50
144.6380871911
 51
215.3619128089
  0
ARC
  5
2B5
100
AcDbEntity
  8
0
100
AcDbCircle
 62
7
  6
BYLAYER
 10
21.0282364123
 20
42.2177242888
 40
5.9728540609
100
AcDbArc
 50
234.6380871911
 51
305.3619128089
  0
ARC
  5
2B6
100
AcDbEntity
  8
0
100
AcDbCircle
 62
7
  6
BYLAYER
 10
21.0282364123
 20
42.2177242888
 40
5.9728540609
100
AcDbArc
 50
324.6380871911
 51
35.3619128089
  0
ARC
  5
2B7
100
AcDbEntity
  8
0
100
AcDbCircle
 62
7
  6
BYLAYER
 10
21.0282364123
 20
42.2177242888
 40
5.4804501844
100
AcDbArc
 50
325.5134750987
 51
34.4865245831
  0
ARC
  5
2B8
100
AcDbEntity
  8
0
100
AcDbCircle
 62
7
  6
BYLAYER
 10
21.0282364123
 20
42.2177242888
 40
5.4804501844
100
AcDbArc
 50
235.5134751067
 51
304.48652444
  0
ARC
  5
2B9
100
AcDbEntity
  8
0
100
AcDbCircle
 62
7
  6
BYLAYER
 10
21.0282364123
 20
42.2177242888
 40
5.4804501844
100
AcDbArc
 50
145.5134755684
 51
214.4865248917
  0
ARC
  5
2BA
100
AcDbEntity
  8
0
100
AcDbCircle
 62
7
  6
BYLAYER
 10
21.0282364123
 20
42.2177242888
 40
5.4804501844
100
AcDbArc
 50
55.5134754135
 51
124.4865248956
  0
CIRCLE
  5
2BB
100
AcDbEntity
  8
0
100
AcDbCircle
 62
7
  6
BYLAYER
 10
21.0282364123
 20
42.2177242888
 40
2.5
  0
CIRCLE
  5
2BC
100
AcDbEntity
  8
0
100
AcDbCircle
 62
7
  6
BYLAYER
 10
21.0282364123
 20
42.2177242888
 40
1.9
  0
CIRCLE
  5
2BD
100
AcDbEntity
  8
0
100
AcDbCircle
 62
7
  6
BYLAYER
 10
21.0282364123
 20
42.2177242888
 40
1.75
  0
CIRCLE
  5
2BE
100
AcDbEntity
  8
0
100
AcDbCircle
 62
7
  6
BYLAYER
 10
21.0282364123
 20
42.2177242888
 40
1.642820323
  0
ARC
  5
2BF
100
AcDbEntity
  8
0
100
AcDbCircle
 62
7
  6
BYLAYER
 10
25.1294557431
 20
46.8139183666
 40
0.15
100
AcDbArc
 50
135.0
 51
225.0000000001
  0
ARC
  5
2C0
100
AcDbEntity
  8
0
100
AcDbCircle
 62
7
  6
BYLAYER
 10
25.62443049
 20
46.3189436197
 40
0.15
100
AcDbArc
 50
224.9999999999
 51
315.0
  0
ARC
  5
2C1
100
AcDbEntity
  8
0
100
AcDbCircle
 62
7
  6
BYLAYER
 10
26.893213973
 20
48.5799925421
 40
0.1487660578
100
AcDbArc
 50
167.4033289322
 51
180.4152220752
  0
ARC
  5
2C2
100
AcDbEntity
  8
0
100
AcDbCircle
 62
7
  6
BYLAYER
 10
27.3905046882
 20
48.0827017338
 40
0.1487659425
100
AcDbArc
 50
269.5847687825
 51
282.5938878575
  0
ARC
  5
2C3
100
AcDbEntity
  8
0
100
AcDbCircle
 62
7
  6
BYLAYER
 10
26.8908921315
 20
48.5804435974
 40
0.1464017502
100
AcDbArc
 50
135.0687126705
 51
167.3774349037
  0
ARC
  5
2C4
100
AcDbEntity
  8
0
100
AcDbCircle
 62
7
  6
BYLAYER
 10
27.3909557516
 20
48.0803799547
 40
0.1464016908
100
AcDbArc
 50
282.6197285389
 51
314.9312934248
  0
ARC
  5
2C5
100
AcDbEntity
  8
0
100
AcDbCircle
 62
7
  6
BYLAYER
 10
31.0282364123
 20
32.2177242888
 40
2.0
100
AcDbArc
 50
254.9999999992
 51
292.9756871631
  0
ARC
  5
2C6
100
AcDbEntity
  8
0
100
AcDbCircle
 62
7
  6
BYLAYER
 10
31.0282364123
 20
32.2177242888
 40
2.0
100
AcDbArc
 50
337.024312837
 51
15.0000000019
  0
ARC
  5
2C7
100
AcDbEntity
  8
0
100
AcDbCircle
 62
7
  6
BYLAYER
 10
36.5282364123
 20
33.2177242888
 40
2.0
100
AcDbArc
 50
90.0
 51
180.0
  0
ARC
  5
2C8
100
AcDbEntity
  8
0
100
AcDbCircle
 62
7
  6
BYLAYER
 10
31.0282364123
 20
32.2177242888
 40
1.7477483636
100
AcDbArc
 50
340.4119519198
 51
289.5880480804
  0
ARC
  5
2C9
100
AcDbEntity
  8
0
100
AcDbCircle
 62
7
  6
BYLAYER
 10
31.0282364123
 20
32.2177242888
 40
1.7372753246
100
AcDbArc
 50
340.5761618724
 51
289.4238381276
  0
CIRCLE
  5
2CA
100
AcDbEntity
  8
0
100
AcDbCircle
 62
7
  6
BYLAYER
 10
31.0282364123
 20
32.2177242888
 40
1.5
  0
CIRCLE
  5
2CB
100
AcDbEntity
  8
0
100
AcDbCircle
 62
7
  6
BYLAYER
 10
31.0282364123
 20
32.2177242888
 40
1.3
  0
ARC
  5
2CC
100
AcDbEntity
  8
0
100
AcDbCircle
 62
7
  6
BYLAYER
 10
33.8283856774
 20
29.4175750387
 40
0.6998475836
100
AcDbArc
 50
269.9956089185
 51
0.0043897916
  0
CIRCLE
  5
2CD
100
AcDbEntity
  8
0
100
AcDbCircle
 62
7
  6
BYLAYER
 10
47.0282364123
 20
42.2177242888
 40
2.5
  0
ARC
  5
2CE
100
AcDbEntity
  8
0
100
AcDbCircle
 62
7
  6
BYLAYER
 10
31.0282364123
 20
52.2177242888
 40
2.0
100
AcDbArc
 50
344.9999999972
 51
22.9756871631
  0
ARC
  5
2CF
100
AcDbEntity
  8
0
100
AcDbCircle
 62
7
  6
BYLAYER
 10
31.0282364123
 20
52.2177242888
 40
2.0
100
AcDbArc
 50
67.024312837
 51
105.0000000007
  0
ARC
  5
2D0
100
AcDbEntity
  8
0
100
AcDbCircle
 62
7
  6
BYLAYER
 10
36.5282364123
 20
51.2177242888
 40
2.0
100
AcDbArc
 50
180.0
 51
270.0
  0
ARC
  5
2D1
100
AcDbEntity
  8
0
100
AcDbCircle
 62
7
  6
BYLAYER
 10
31.0282364123
 20
52.2177242888
 40
1.7477483636
100
AcDbArc
 50
70.4119519198
 51
19.5880480804
  0
ARC
  5
2D2
100
AcDbEntity
  8
0
100
AcDbCircle
 62
7
  6
BYLAYER
 10
31.0282364123
 20
52.2177242888
 40
1.7372753246
100
AcDbArc
 50
70.5761618724
 51
19.4238381276
  0
CIRCLE
  5
2D3
100
AcDbEntity
  8
0
100
AcDbCircle
 62
7
  6
BYLAYER
 10
31.0282364123
 20
52.2177242888
 40
1.5
  0
CIRCLE
  5
2D4
100
AcDbEntity
  8
0
100
AcDbCircle
 62
7
  6
BYLAYER
 10
31.0282364123
 20
52.2177242888
 40
1.3
  0
ARC
  5
2D5
100
AcDbEntity
  8
0
100
AcDbCircle
 62
7
  6
BYLAYER
 10
33.8283856624
 20
55.0178735539
 40
0.6998475836
100
AcDbArc
 50
359.9956089185
 51
90.0043897916
  0
ARC
  5
2D6
100
AcDbEntity
  8
0
100
AcDbCircle
 62
7
  6
BYLAYER
 10
27.7457508335
 20
49.4302134569
 40
0.15
100
AcDbArc
 50
135.0
 51
225.0
  0
ARC
  5
2D7
100
AcDbEntity
  8
0
100
AcDbCircle
 62
7
  6
BYLAYER
 10
28.2407255804
 20
48.9352387101
 40
0.15
100
AcDbArc
 50
225.0
 51
314.999999411
  0
ARC
  5
2D8
100
AcDbEntity
  8
0
100
AcDbCircle
 62
7
  6
BYLAYER
 10
27.6892956137
 20
49.3738069173
 40
0.1499655779
100
AcDbArc
 50
135.0007241248
 51
225.0007237923
  0
ARC
  5
2D9
100
AcDbEntity
  8
0
100
AcDbCircle
 62
7
  6
BYLAYER
 10
28.1843190407
 20
48.8787834903
 40
0.1499655779
100
AcDbArc
 50
224.9992762075
 51
314.9992758751
  0
SPLINE
  5
2DA
100
AcDbEntity
  8
0
100
AcDbSpline
 62
7
  6
BYLAYER
 70
0
 71
3
 72
23
 73
19
 74
0
 42
0.0000001
 43
0.0000001
 44
0.0000000001
 40
0.0
 40
0.0
 40
0.0
 40
0.0
 40
0.0012158728
 40
0.0048483536
 40
0.010874736
 40
0.0192723135
 40
0.0300183799
 40
0.0430902287
 40
0.0761204482
 40
0.1181213389
 40
0.1686114037
 40
0.2270491971
 40
0.2928932756
 40
0.3655680257
 40
0.4443611484
 40
0.6173167186
 40
0.805313056
 40
1.0
 40
1.0
 40
1.0
 40
1.0
 10
27.6396841433
 20
49.536278801
 30
0.0
 10
27.6396411556
 20
49.5362358133
 30
0.0
 10
27.640021422
 20
49.536064412
 30
0.0
 10
27.6402050326
 20
49.5356800331
 30
0.0
 10
27.6409575207
 20
49.5350417531
 30
0.0
 10
27.6417974814
 20
49.5341519976
 30
0.0
 10
27.6429558683
 20
49.5330131259
 30
0.0
 10
27.6449567631
 20
49.5310033532
 30
0.0
 10
27.6480775042
 20
49.5278883467
 30
0.0
 10
27.6525122496
 20
49.523449933
 30
0.0
 10
27.6578489741
 20
49.5181134616
 30
0.0
 10
27.6640283478
 20
49.5119348687
 30
0.0
 10
27.6709940354
 20
49.5049734958
 30
0.0
 10
27.6786813838
 20
49.4972945695
 30
0.0
 10
27.6901558436
 20
49.4858287719
 30
0.0
 10
27.7056967042
 20
49.4702748934
 30
0.0
 10
27.7252929552
 20
49.4505815586
 30
0.0
 10
27.7387696247
 20
49.4369985807
 30
0.0
 10
27.7456216151
 20
49.4300842385
 30
0.0
  0
SPLINE
  5
2DB
100
AcDbEntity
  8
0
100
AcDbSpline
 62
7
  6
BYLAYER
 70
0
 71
3
 72
9
 73
5
 74
0
 42
0.0000001
 43
0.0000001
 44
0.0000000001
 40
0.0
 40
0.0
 40
0.0
 40
0.0
 40
0.5010253052
 40
1.0
 40
1.0
 40
1.0
 40
1.0
 10
26.4506115355
 20
48.1350741589
 30
0.0
 10
26.4368244847
 20
48.1488612096
 30
0.0
 10
26.4144190293
 20
48.1820255693
 30
0.0
 10
26.4063542165
 20
48.2212507494
 30
0.0
 10
26.4062055901
 20
48.2406682135
 30
0.0
  0
SPLINE
  5
2DC
100
AcDbEntity
  8
0
100
AcDbSpline
 62
7
  6
BYLAYER
 70
0
 71
3
 72
9
 73
5
 74
0
 42
0.0000001
 43
0.0000001
 44
0.0000000001
 40
0.0
 40
0.0
 40
0.0
 40
0.0
 40
0.501046019
 40
1.0
 40
1.0
 40
1.0
 40
1.0
 10
26.4062055901
 20
48.2406682135
 30
0.0
 10
26.4060578317
 20
48.2599722617
 30
0.0
 10
26.413408071
 20
48.2989584198
 30
0.0
 10
26.4354067263
 20
48.3320013841
 30
0.0
 10
26.4490001544
 20
48.3455948121
 30
0.0
  0
SPLINE
  5
2DD
100
AcDbEntity
  8
0
100
AcDbSpline
 62
7
  6
BYLAYER
 70
0
 71
3
 72
9
 73
5
 74
0
 42
0.0000001
 43
0.0000001
 44
0.0000000001
 40
0.0
 40
0.0
 40
0.0
 40
0.0
 40
0.4989746948
 40
1.0
 40
1.0
 40
1.0
 40
1.0
 10
26.7444518217
 20
48.5789144451
 30
0.0
 10
26.7446004481
 20
48.559496981
 30
0.0
 10
26.7526652609
 20
48.5202718009
 30
0.0
 10
26.7750707163
 20
48.4871074412
 30
0.0
 10
26.7888577671
 20
48.4733203905
 30
0.0
  0
SPLINE
  5
2DE
100
AcDbEntity
  8
0
100
AcDbSpline
 62
7
  6
BYLAYER
 70
0
 71
3
 72
13
 73
9
 74
0
 42
0.0000001
 43
0.0000001
 44
0.0000000001
 40
0.0
 40
0.0
 40
0.0
 40
0.0
 40
0.0864315158
 40
0.1805941114
 40
0.3451802904
 40
0.5414080061
 40
0.7638122646
 40
1.0
 40
1.0
 40
1.0
 40
1.0
 10
26.8978397216
 20
48.7944343793
 30
0.0
 10
26.8940747939
 20
48.7906694131
 30
0.0
 10
26.8876953706
 20
48.7812115139
 30
0.0
 10
26.8822371266
 20
48.7603425849
 30
0.0
 10
26.8847086093
 20
48.7318445674
 30
0.0
 10
26.8970924834
 20
48.6978512957
 30
0.0
 10
26.9181015931
 20
48.6631653462
 30
0.0
 10
26.9365601596
 20
48.6415994047
 30
0.0
 10
26.9468484704
 20
48.6313110939
 30
0.0
  0
SPLINE
  5
2DF
100
AcDbEntity
  8
0
100
AcDbSpline
 62
7
  6
BYLAYER
 70
0
 71
3
 72
11
 73
7
 74
0
 42
0.0000001
 43
0.0000001
 44
0.0000000001
 40
0.0
 40
0.0
 40
0.0
 40
0.0
 40
0.2438241529
 40
0.4913108957
 40
0.7438867015
 40
1.0
 40
1.0
 40
1.0
 40
1.0
 10
27.5214863624
 20
49.4180810202
 30
0.0
 10
27.5083785016
 20
49.4049732643
 30
0.0
 10
27.4872847414
 20
49.3726241309
 30
0.0
 10
27.4776775759
 20
49.315384643
 30
0.0
 10
27.4907335565
 20
49.257981287
 30
0.0
 10
27.5132159152
 20
49.2252154664
 30
0.0
 10
27.5269843791
 20
49.2114470025
 30
0.0
  0
SPLINE
  5
2E0
100
AcDbEntity
  8
0
100
AcDbSpline
 62
7
  6
BYLAYER
 70
0
 71
3
 72
9
 73
5
 74
0
 42
0.0000001
 43
0.0000001
 44
0.0000000001
 40
0.0
 40
0.0
 40
0.0
 40
0.0
 40
0.4989542597
 40
1.0
 40
1.0
 40
1.0
 40
1.0
 10
27.1561069356
 20
47.638488031
 30
0.0
 10
27.1425131038
 20
47.6248941992
 30
0.0
 10
27.1094689861
 20
47.6028950632
 30
0.0
 10
27.0704814983
 20
47.5955452806
 30
0.0
 10
27.0511769019
 20
47.595693493
 30
0.0
  0
SPLINE
  5
2E1
100
AcDbEntity
  8
0
100
AcDbSpline
 62
7
  6
BYLAYER
 70
0
 71
3
 72
9
 73
5
 74
0
 42
0.0000001
 43
0.0000001
 44
0.0000000001
 40
0.0
 40
0.0
 40
0.0
 40
0.0
 40
0.4989747473
 40
1.0
 40
1.0
 40
1.0
 40
1.0
 10
27.0511769019
 20
47.595693493
 30
0.0
 10
27.0317599997
 20
47.5958425676
 30
0.0
 10
26.992536158
 20
47.6039078044
 30
0.0
 10
26.9593729337
 20
47.6263127607
 30
0.0
 10
26.9455862823
 20
47.6400994121
 30
0.0
  0
SPLINE
  5
2E2
100
AcDbEntity
  8
0
100
AcDbSpline
 62
7
  6
BYLAYER
 70
0
 71
3
 72
13
 73
9
 74
0
 42
0.0000001
 43
0.0000001
 44
0.0000000001
 40
0.0
 40
0.0
 40
0.0
 40
0.0
 40
0.0864314889
 40
0.1805936624
 40
0.3451791742
 40
0.5414067442
 40
0.7638114577
 40
1.0
 40
1.0
 40
1.0
 40
1.0
 10
27.6049475158
 20
48.0873286113
 30
0.0
 10
27.6011826465
 20
48.0835635315
 30
0.0
 10
27.5917248884
 20
48.0771837743
 30
0.0
 10
27.5708559691
 20
48.0717250402
 30
0.0
 10
27.5423577512
 20
48.0741962012
 30
0.0
 10
27.5083641609
 20
48.0865799668
 30
0.0
 10
27.4736778232
 20
48.1075891786
 30
0.0
 10
27.4521116401
 20
48.1260479208
 30
0.0
 10
27.4418232156
 20
48.1363363453
 30
0.0
  0
SPLINE
  5
2E3
100
AcDbEntity
  8
0
100
AcDbSpline
 62
7
  6
BYLAYER
 70
0
 71
3
 72
9
 73
5
 74
0
 42
0.0000001
 43
0.0000001
 44
0.0000000001
 40
0.0
 40
0.0
 40
0.0
 40
0.0
 40
0.5010253052
 40
1.0
 40
1.0
 40
1.0
 40
1.0
 10
27.2838325137
 20
47.9783456434
 30
0.0
 10
27.2976195644
 20
47.9645585927
 30
0.0
 10
27.3307839241
 20
47.9421531372
 30
0.0
 10
27.3700091042
 20
47.9340883245
 30
0.0
 10
27.3894265683
 20
47.933939698
 30
0.0
  0
SPLINE
  5
2E4
100
AcDbEntity
  8
0
100
AcDbSpline
 62
7
  6
BYLAYER
 70
0
 71
3
 72
11
 73
7
 74
0
 42
0.0000001
 43
0.0000001
 44
0.0000000001
 40
0.0
 40
0.0
 40
0.0
 40
0.0
 40
0.2438241548
 40
0.4913109201
 40
0.7438867268
 40
1.0
 40
1.0
 40
1.0
 40
1.0
 10
28.2285924838
 20
48.7109735792
 30
0.0
 10
28.2154846896
 20
48.6978658615
 30
0.0
 10
28.1831355657
 20
48.6767723874
 30
0.0
 10
28.1258962795
 20
48.6671654995
 30
0.0
 10
28.0684931967
 20
48.6802215613
 30
0.0
 10
28.0357275333
 20
48.7027038484
 30
0.0
 10
28.0219591259
 20
48.7164722557
 30
0.0
  0
ENDSEC
  0
SECTION
  2
OBJECTS
  0
DICTIONARY
  5
C
100
AcDbDictionary
280
0
281
1
  3
ACAD_GROUP
350
D
  3
ACAD_MLINESTYLE
350
17
  3
ACAD_LAYOUT
350
1A
  3
ACAD_PLOTSETTINGS
350
19
  3
ACAD_PLOTSTYLENAME
350
E
  0
DICTIONARY
  5
D
102
{ACAD_REACTORS
330
C
102
}
100
AcDbDictionary
280
0
281
1
  0
ACDBDICTIONARYWDFLT
  5
E
102
{ACAD_REACTORS
330
C
102
}
100
AcDbDictionary
281
1
  3
Normal
350
F
100
AcDbDictionaryWithDefault
340
F
  0
DICTIONARY
  5
17
102
{ACAD_REACTORS
330
C
102
}
100
AcDbDictionary
280
0
281
1
  3
Standard
350
18
  0
DICTIONARY
  5
19
102
{ACAD_REACTORS
330
C
102
}
100
AcDbDictionary
281
1
  0
DICTIONARY
  5
1A
102
{ACAD_REACTORS
330
C
102
}
100
AcDbDictionary
281
1
  3
Model
350
2E5
  3
Layout1
350
2E6
  0
ACDBPLACEHOLDER
  5
F
102
{ACAD_REACTORS
330
E
102
}
  0
MLINESTYLE
  5
18
102
{ACAD_REACTORS
330
17
102
}
100
AcDbMlineStyle
  2
STANDARD
 70
0
  3

 62
256
 51
90.0
 52
90.0
 71
2
 49
0.5
 62
256
  6
BYLAYER
 49
-0.5
 62
256
  6
BYLAYER
  0
LAYOUT
  5
2E5
102
{ACAD_REACTORS
330
1A
102
}
100
AcDbPlotSettings
  1

  2
none_device
  4

  6

 40
0.0
 41
0.0
 42
0.0
 43
0.0
 44
210.0
 45
297.0
 46
0.0
 47
0.0
 48
0.0
 49
0.0
140
0.0
141
0.0
142
1.0
143
1.0
 70
1024
 72
1
 73
0
 74
0
  7

 75
0
147
1.0
148
0.0
149
0.0
100
AcDbLayout
  1
Model
 70
0
 71
0
 10
0.0
 20
0.0
 11
210.0
 21
297.0
 12
0.0
 22
0.0
 32
0.0
 14
0.0
 24
0.0
 34
0.0
 15
0.0
 25
0.0
 35
0.0
146
0.0
 13
0.0
 23
0.0
 33
0.0
 16
1.0
 26
0.0
 36
0.0
 17
0.0
 27
1.0
 37
0.0
 76
0
330
210
345
0
346
0
  0
LAYOUT
  5
2E6
102
{ACAD_REACTORS
330
1A
102
}
100
AcDbPlotSettings
  1

  2
none_device
  4

  6

 40
0.0
 41
0.0
 42
0.0
 43
0.0
 44
210.0
 45
297.0
 46
0.0
 47
0.0
 48
0.0
 49
0.0
140
0.0
141
0.0
142
1.0
143
1.0
 70
0
 72
1
 73
0
 74
0
  7

 75
0
147
1.0
148
0.0
149
0.0
100
AcDbLayout
  1
Layout1
 70
0
 71
1
 10
0.0
 20
0.0
 11
210.0
 21
297.0
 12
0.0
 22
0.0
 32
0.0
 14
0.0
 24
0.0
 34
0.0
 15
0.0
 25
0.0
 35
0.0
146
0.0
 13
0.0
 23
0.0
 33
0.0
 16
1.0
 26
0.0
 36
0.0
 17
0.0
 27
1.0
 37
0.0
 76
0
330
211
345
0
346
0
  0
ENDSEC
  0
EOF
