999
DXF file: C:\Users\sesa63760\Dev\_Creo\CAD\MCADPD0005306_3D-CAD\drw0001_6.dxf
999
Pro/ENGINEER 2019471 by Parametric Technology Corporation
  0
SECTION
  2
HEADER
  9
$ACADVER
  1
AC1024
  9
$DWGCODEPAGE
  3
ANSI_1252
  9
$EXTMAX
 10
93.7302676657
 20
132.5613785558
 30
0.0
  9
$EXTMIN
 10
0.0
 20
0.0
 30
0.0
  9
$LIMMIN
 10
0.0
 20
0.0
  9
$LIMMAX
 10
93.7302676657
 20
132.5613785558
  9
$VIEWCTR
 10
46.8651338329
 20
66.2806892779
  9
$VIEWSIZE
 40
132.5613785558
  9
$CLAYER
  8
0
  9
$LTSCALE
 40
8.6410380096
  9
$CELTYPE
  6
BYLAYER
  9
$DIMSCALE
 40
1.0
  9
$DIMASZ
 40
1.1158365198
  9
$DIMEXO
 40
1.0
  9
$DIMDLI
 40
5.9701717157
  9
$DIMEXE
 40
1.0
  9
$DIMCEN
 40
1.4139880379
  9
$DIMLFAC
 40
1.0
  9
$DIMBLK
  1
_FILLED
  9
$DIMALT
 70
0
  9
$DIMALTF
 40
0.0393700787
  9
$DIMTXT
 40
1.5621711278
  9
$DIMTOL
 70
1
  9
$DIMLIM
 70
0
  9
$DIMTFAC
 40
1.0
  9
$DIMTP
 40
0.01
  9
$DIMTM
 40
0.01
  9
$DIMGAP
 40
0.625
  9
$DIMDSEP
 70
46
  9
$AUNITS
 70
0
  9
$PDMODE
 70
3
  9
$PDSIZE
 40
0.3125
  9
$HANDSEED
  5
273
  9
$TILEMODE
 70
1
  9
$MEASUREMENT
 70
1
  9
$INSUNITS
 70
4
  0
ENDSEC
  0
SECTION
  2
CLASSES
  0
CLASS
  1
ACDBDICTIONARYWDFLT
  2
AcDbDictionaryWithDefault
  3
AutoCAD 2000
 90
0
 91
1
280
0
281
0
  0
CLASS
  1
ACDBPLACEHOLDER
  2
AcDbPlaceHolder
  3
AutoCAD 2000
 90
0
 91
1
280
0
281
0
  0
CLASS
  1
LAYOUT
  2
AcDbLayout
  3
AutoCAD 2000
 90
0
 91
0
280
0
281
0
  0
ENDSEC
  0
SECTION
  2
TABLES
  0
TABLE
  2
VPORT
  5
8
100
AcDbSymbolTable
 70
2
  0
VPORT
  5
1F4
100
AcDbSymbolTableRecord
100
AcDbViewportTableRecord
  2
*ACTIVE
 70
0
 10
0.0
 20
0.0
 11
1.0
 21
1.0
 12
46.8651338329
 22
66.2806892779
 13
0.0
 23
0.0
 14
1.0
 24
1.0
 15
0.0
 25
0.0
 16
0.0
 26
0.0
 36
1.0
 17
0.0
 27
0.0
 37
0.0
 40
132.5613785558
 41
0.7070707071
 42
50.0
 43
0.0
 44
0.0
 50
0.0
 51
0.0
 71
0
 72
100
 73
1
 74
1
 75
0
 76
0
 77
0
 78
0
  0
ENDTAB
  0
TABLE
  2
LTYPE
  5
5
100
AcDbSymbolTable
 70
6
  0
LTYPE
  5
14
100
AcDbSymbolTableRecord
100
AcDbLinetypeTableRecord
  2
BYBLOCK
 70
0
  3

 72
65
 73
0
 40
0.0
  0
LTYPE
  5
15
100
AcDbSymbolTableRecord
100
AcDbLinetypeTableRecord
  2
BYLAYER
 70
0
  3

 72
65
 73
0
 40
0.0
  0
LTYPE
  5
16
100
AcDbSymbolTableRecord
100
AcDbLinetypeTableRecord
  2
CONTINUOUS
 70
64
  3
Solid line
 72
65
 73
0
 40
0.0
  0
LTYPE
  5
1F5
100
AcDbSymbolTableRecord
100
AcDbLinetypeTableRecord
  2
CENTER
 70
64
  3
____ _ ____ _ ____ _ ____ _ ____ _ ____ _ ____
 72
65
 73
4
 40
0.6
 49
0.375
 74
0
 49
-0.075
 74
0
 49
0.075
 74
0
 49
-0.075
 74
0
  0
LTYPE
  5
1F6
100
AcDbSymbolTableRecord
100
AcDbLinetypeTableRecord
  2
HIDDEN
 70
64
  3
- - - - - - - - - - - - - - - - - - - -
 72
65
 73
2
 40
0.2
 49
0.1
 74
0
 49
-0.1
 74
0
  0
LTYPE
  5
1F7
100
AcDbSymbolTableRecord
100
AcDbLinetypeTableRecord
  2
PHANTOM
 70
64
  3
_____ _ _ _____ _ _ _____ _ _ _____
 72
65
 73
6
 40
0.8
 49
0.45
 74
0
 49
-0.05
 74
0
 49
0.1
 74
0
 49
-0.05
 74
0
 49
0.1
 74
0
 49
-0.05
 74
0
  0
LTYPE
  5
1F8
100
AcDbSymbolTableRecord
100
AcDbLinetypeTableRecord
  2
DOT
 70
64
  3
. . . . . . . . . . . . . . . . . . . .
 72
65
 73
2
 40
0.2
 49
0.1
 74
0
 49
-0.1
 74
0
  0
LTYPE
  5
1F9
100
AcDbSymbolTableRecord
100
AcDbLinetypeTableRecord
  2
DASHED
 70
64
  3
- - - - - - - - - - - - - - - - - - - -
 72
65
 73
2
 40
0.2
 49
0.1
 74
0
 49
-0.1
 74
0
  0
ENDTAB
  0
TABLE
  2
LAYER
  5
2
100
AcDbSymbolTable
 70
36
  0
LAYER
  5
10
100
AcDbSymbolTableRecord
100
AcDbLayerTableRecord
  2
0
 70
0
 62
7
  6
CONTINUOUS
370
-3
390
F
  0
LAYER
  5
1FA
100
AcDbSymbolTableRecord
100
AcDbLayerTableRecord
  2
DEFAULT_1
 70
0
 62
7
  6
CENTER
370
-3
390
F
  0
LAYER
  5
1FB
100
AcDbSymbolTableRecord
100
AcDbLayerTableRecord
  2
DEFAULT_2
 70
0
 62
7
  6
HIDDEN
370
-3
390
F
  0
LAYER
  5
1FC
100
AcDbSymbolTableRecord
100
AcDbLayerTableRecord
  2
DEFAULT_3
 70
0
 62
7
  6
PHANTOM
370
-3
390
F
  0
LAYER
  5
1FD
100
AcDbSymbolTableRecord
100
AcDbLayerTableRecord
  2
00_COMPONENTS
 70
0
 62
7
  6
CONTINUOUS
370
-3
390
F
  0
LAYER
  5
1FE
100
AcDbSymbolTableRecord
100
AcDbLayerTableRecord
  2
01_1_DEFAULT_DATUMS
 70
0
 62
7
  6
CONTINUOUS
370
-3
390
F
  0
LAYER
  5
1FF
100
AcDbSymbolTableRecord
100
AcDbLayerTableRecord
  2
01_PLANES
 70
0
 62
7
  6
CONTINUOUS
370
-3
390
F
  0
LAYER
  5
200
100
AcDbSymbolTableRecord
100
AcDbLayerTableRecord
  2
02_COORD_SYS
 70
0
 62
7
  6
CONTINUOUS
370
-3
390
F
  0
LAYER
  5
201
100
AcDbSymbolTableRecord
100
AcDbLayerTableRecord
  2
03_AXES
 70
0
 62
7
  6
CONTINUOUS
370
-3
390
F
  0
LAYER
  5
202
100
AcDbSymbolTableRecord
100
AcDbLayerTableRecord
  2
04_POINTS
 70
0
 62
7
  6
CONTINUOUS
370
-3
390
F
  0
LAYER
  5
203
100
AcDbSymbolTableRecord
100
AcDbLayerTableRecord
  2
05_CURVES
 70
0
 62
7
  6
CONTINUOUS
370
-3
390
F
  0
LAYER
  5
204
100
AcDbSymbolTableRecord
100
AcDbLayerTableRecord
  2
06_SURFS
 70
0
 62
7
  6
CONTINUOUS
370
-3
390
F
  0
LAYER
  5
205
100
AcDbSymbolTableRecord
100
AcDbLayerTableRecord
  2
07_COSMETICS
 70
0
 62
7
  6
CONTINUOUS
370
-3
390
F
  0
LAYER
  5
206
100
AcDbSymbolTableRecord
100
AcDbLayerTableRecord
  2
10_NOTES
 70
0
 62
7
  6
CONTINUOUS
370
-3
390
F
  0
LAYER
  5
207
100
AcDbSymbolTableRecord
100
AcDbLayerTableRecord
  2
11_NOTES_PUB
 70
0
 62
7
  6
CONTINUOUS
370
-3
390
F
  0
LAYER
  5
208
100
AcDbSymbolTableRecord
100
AcDbLayerTableRecord
  2
13_REF_GTOL
 70
0
 62
7
  6
CONTINUOUS
370
-3
390
F
  0
LAYER
  5
209
100
AcDbSymbolTableRecord
100
AcDbLayerTableRecord
  2
16_MISC
 70
0
 62
7
  6
CONTINUOUS
370
-3
390
F
  0
LAYER
  5
20A
100
AcDbSymbolTableRecord
100
AcDbLayerTableRecord
  2
17_NO_PRINT
 70
0
 62
7
  6
CONTINUOUS
370
-3
390
F
  0
LAYER
  5
20B
100
AcDbSymbolTableRecord
100
AcDbLayerTableRecord
  2
18_DATUM_CAMS_JOINTS
 70
0
 62
7
  6
CONTINUOUS
370
-3
390
F
  0
LAYER
  5
20C
100
AcDbSymbolTableRecord
100
AcDbLayerTableRecord
  2
19_DATUM_FUNCTIONAL
 70
0
 62
7
  6
CONTINUOUS
370
-3
390
F
  0
LAYER
  5
20D
100
AcDbSymbolTableRecord
100
AcDbLayerTableRecord
  2
20_DATUM_KINEMATIC_SCHEME
 70
0
 62
7
  6
CONTINUOUS
370
-3
390
F
  0
ENDTAB
  0
TABLE
  2
STYLE
  5
3
100
AcDbSymbolTable
 70
1
  0
STYLE
  5
11
100
AcDbSymbolTableRecord
100
AcDbTextStyleTableRecord
  2
STANDARD
 70
0
 40
0.0
 41
1.0
 50
0.0
 71
0
 42
0.2
  3
ARIAL.TTF
  4

  0
STYLE
  5
20E
100
AcDbSymbolTableRecord
100
AcDbTextStyleTableRecord
  2
TEXTSTYLE_1
 70
0
 40
0.0
 41
0.8
 50
0.0
 71
0
 42
0.2
  3
gdt
  4

  0
ENDTAB
  0
TABLE
  2
VIEW
  5
6
100
AcDbSymbolTable
 70
0
  0
ENDTAB
  0
TABLE
  2
UCS
  5
7
100
AcDbSymbolTable
 70
0
  0
ENDTAB
  0
TABLE
  2
APPID
  5
9
100
AcDbSymbolTable
 70
1
  0
APPID
  5
20F
100
AcDbSymbolTableRecord
100
AcDbRegAppTableRecord
  2
ACAD
 70
0
  0
ENDTAB
  0
TABLE
  2
BLOCK_RECORD
  5
1
100
AcDbSymbolTable
 70
0
  0
BLOCK_RECORD
  5
210
100
AcDbSymbolTableRecord
100
AcDbBlockTableRecord
  2
*Model_Space
  0
BLOCK_RECORD
  5
211
100
AcDbSymbolTableRecord
100
AcDbBlockTableRecord
  2
*Paper_Space
  0
BLOCK_RECORD
  5
212
100
AcDbSymbolTableRecord
100
AcDbBlockTableRecord
  2
_FILLED
  0
ENDTAB
  0
TABLE
  2
DIMSTYLE
  5
A
100
AcDbSymbolTable
 70
1
100
AcDbDimStyleTable
 71
0
  0
DIMSTYLE
105
213
100
AcDbSymbolTableRecord
100
AcDbDimStyleTableRecord
  2
STANDARD
 70
0
  3

  4

 40
1.0
 41
1.1158365198
 42
1.0
 43
0.38
 44
1.0
 45
0.0
 46
0.0
 47
0.01
 48
0.01
140
1.5621711278
141
0.09
142
0.0
143
25.4
144
1.0
145
0.0
146
1.0
147
0.625
 71
1
 72
0
 73
0
 74
0
 75
0
 76
0
 77
1
 78
8
 79
2
170
0
171
1
172
0
173
0
174
0
175
0
176
0
177
0
178
0
270
2
179
2
271
2
272
2
273
2
274
2
275
0
280
0
281
0
282
0
283
1
284
8
285
0
286
0
287
3
288
0
340
11
278
46
341
212
342
212
343
212
344
212
  0
ENDTAB
  0
ENDSEC
  0
SECTION
  2
BLOCKS
  0
BLOCK
  5
20
100
AcDbEntity
  8
0
100
AcDbBlockBegin
  2
*Model_Space
 70
0
 10
0.0
 20
0.0
 30
0.0
  3
*Model_Space
  1

  0
ENDBLK
  5
21
100
AcDbEntity
  8
0
100
AcDbBlockEnd
  0
BLOCK
  5
1C
100
AcDbEntity
  8
0
100
AcDbBlockBegin
  2
*Paper_Space
 70
0
 10
0.0
 20
0.0
 30
0.0
  3
*Paper_Space
  1

  0
ENDBLK
  5
1D
100
AcDbEntity
  8
0
100
AcDbBlockEnd
  0
BLOCK
  5
214
100
AcDbEntity
  8
0
100
AcDbBlockBegin
  2
_FILLED
 70
64
 10
0.0
 20
0.0
  3
_FILLED
  1

  0
SOLID
  5
215
100
AcDbEntity
  8
0
  6
BYBLOCK
 62
0
100
AcDbTrace
 10
0.0
 20
0.0
 11
-1.0
 21
0.25
 12
-1.0
 22
-0.25
 13
-1.0
 23
-0.25
  0
ENDBLK
  5
216
100
AcDbEntity
  8
0
  6
BYBLOCK
 62
0
100
AcDbBlockEnd
  0
ENDSEC
  0
SECTION
  2
ENTITIES
  0
LINE
  5
217
100
AcDbEntity
  8
0
100
AcDbLine
 62
7
  6
BYLAYER
 10
10.6014029795
 20
12.4806892627
 11
30.6514029795
 21
12.4806892627
  0
LINE
  5
218
100
AcDbEntity
  8
0
100
AcDbLine
 62
7
  6
BYLAYER
 10
64.4514029795
 20
12.4806892627
 11
82.3014029795
 21
12.4806892627
  0
LINE
  5
219
100
AcDbEntity
  8
0
100
AcDbLine
 62
7
  6
BYLAYER
 10
82.3014029795
 20
15.9806892627
 11
71.7514029795
 21
15.9806892627
  0
LINE
  5
21A
100
AcDbEntity
  8
0
100
AcDbLine
 62
7
  6
BYLAYER
 10
54.0014029795
 20
15.9806892627
 11
42.6014029795
 21
15.9806892627
  0
LINE
  5
21B
100
AcDbEntity
  8
0
100
AcDbLine
 62
7
  6
BYLAYER
 10
25.8514029795
 20
15.9806892627
 11
10.6014029795
 21
15.9806892627
  0
LINE
  5
21C
100
AcDbEntity
  8
0
100
AcDbLine
 62
7
  6
BYLAYER
 10
42.6014029795
 20
17.7306892627
 11
30.6514029795
 21
17.7306892627
  0
LINE
  5
21D
100
AcDbEntity
  8
0
100
AcDbLine
 62
7
  6
BYLAYER
 10
65.9514029795
 20
17.9806892627
 11
54.0014029795
 21
17.9806892627
  0
LINE
  5
21E
100
AcDbEntity
  8
0
100
AcDbLine
 62
7
  6
BYLAYER
 10
83.7514029795
 20
21.3806892627
 11
70.7514029795
 21
21.3806892627
  0
LINE
  5
21F
100
AcDbEntity
  8
0
100
AcDbLine
 62
7
  6
BYLAYER
 10
12.8514029795
 20
21.3806892627
 11
25.8514029795
 21
21.3806892627
  0
LINE
  5
220
100
AcDbEntity
  8
0
100
AcDbLine
 62
7
  6
BYLAYER
 10
10.6014029795
 20
15.9806892627
 11
10.6014029795
 21
12.4806892627
  0
LINE
  5
221
100
AcDbEntity
  8
0
100
AcDbLine
 62
7
  6
BYLAYER
 10
11.8514029795
 20
51.8806892627
 11
11.8514029795
 21
22.3806892627
  0
LINE
  5
222
100
AcDbEntity
  8
0
100
AcDbLine
 62
7
  6
BYLAYER
 10
15.9014029795
 20
15.9806892627
 11
15.9014029795
 21
12.4806892627
  0
LINE
  5
223
100
AcDbEntity
  8
0
100
AcDbLine
 62
7
  6
BYLAYER
 10
16.8014029795
 20
73.4806892627
 11
16.8014029795
 21
74.7806892627
  0
LINE
  5
224
100
AcDbEntity
  8
0
100
AcDbLine
 62
7
  6
BYLAYER
 10
17.4014029795
 20
15.9806892627
 11
17.4014029795
 21
12.4806892627
  0
LINE
  5
225
100
AcDbEntity
  8
0
100
AcDbLine
 62
7
  6
BYLAYER
 10
18.3014029795
 20
74.7806892627
 11
18.3014029795
 21
79.0806892627
  0
LINE
  5
226
100
AcDbEntity
  8
0
100
AcDbLine
 62
7
  6
BYLAYER
 10
21.3014029795
 20
74.7806892627
 11
21.3014029795
 21
80.0806892627
  0
LINE
  5
227
100
AcDbEntity
  8
0
100
AcDbLine
 62
7
  6
BYLAYER
 10
21.4014029795
 20
67.7806892627
 11
21.4014029795
 21
73.4806892627
  0
LINE
  5
228
100
AcDbEntity
  8
0
100
AcDbLine
 62
7
  6
BYLAYER
 10
22.5514029795
 20
67.7806892627
 11
22.5514029795
 21
60.0806892627
  0
LINE
  5
229
100
AcDbEntity
  8
0
100
AcDbLine
 62
7
  6
BYLAYER
 10
24.3014029795
 20
73.4806892627
 11
24.3014029795
 21
67.7806892627
  0
LINE
  5
22A
100
AcDbEntity
  8
0
100
AcDbLine
 62
7
  6
BYLAYER
 10
24.4014029795
 20
74.7806892627
 11
24.4014029795
 21
73.4806892627
  0
LINE
  5
22B
100
AcDbEntity
  8
0
100
AcDbLine
 62
7
  6
BYLAYER
 10
25.8014029795
 20
80.0806892627
 11
25.8014029795
 21
87.7806892627
  0
LINE
  5
22C
100
AcDbEntity
  8
0
100
AcDbLine
 62
7
  6
BYLAYER
 10
25.8514029795
 20
60.0806892627
 11
25.8514029795
 21
52.8806892627
  0
LINE
  5
22D
100
AcDbEntity
  8
0
100
AcDbLine
 62
7
  6
BYLAYER
 10
25.8514029795
 20
21.3806892627
 11
25.8514029795
 21
12.4806892627
  0
LINE
  5
22E
100
AcDbEntity
  8
0
100
AcDbLine
 62
7
  6
BYLAYER
 10
26.0514029795
 20
67.7806892627
 11
26.0514029795
 21
60.0806892627
  0
LINE
  5
22F
100
AcDbEntity
  8
0
100
AcDbLine
 62
7
  6
BYLAYER
 10
30.6514029795
 20
17.7306892627
 11
30.6514029795
 21
12.4806892627
  0
LINE
  5
230
100
AcDbEntity
  8
0
100
AcDbLine
 62
7
  6
BYLAYER
 10
83.7514029795
 20
52.8806892627
 11
70.7514029795
 21
52.8806892627
  0
LINE
  5
231
100
AcDbEntity
  8
0
100
AcDbLine
 62
7
  6
BYLAYER
 10
12.8514029795
 20
52.8806892627
 11
25.8514029795
 21
52.8806892627
  0
LINE
  5
232
100
AcDbEntity
  8
0
100
AcDbLine
 62
7
  6
BYLAYER
 10
42.6014029795
 20
15.9806892627
 11
42.6014029795
 21
17.7306892627
  0
LINE
  5
233
100
AcDbEntity
  8
0
100
AcDbLine
 62
7
  6
BYLAYER
 10
42.8702131808
 20
118.1504882978
 11
42.3014029795
 21
101.8618953023
  0
LINE
  5
234
100
AcDbEntity
  8
0
100
AcDbLine
 62
7
  6
BYLAYER
 10
22.5514238937
 20
60.0806892627
 11
26.0513820652
 21
60.0806892627
  0
LINE
  5
235
100
AcDbEntity
  8
0
100
AcDbLine
 62
7
  6
BYLAYER
 10
70.5514238937
 20
60.0806892627
 11
74.0513820652
 21
60.0806892627
  0
LINE
  5
236
100
AcDbEntity
  8
0
100
AcDbLine
 62
7
  6
BYLAYER
 10
74.0514029795
 20
63.3806892627
 11
74.7514029795
 21
63.3806892627
  0
LINE
  5
237
100
AcDbEntity
  8
0
100
AcDbLine
 62
7
  6
BYLAYER
 10
21.4014029795
 20
67.7806892627
 11
75.2014029795
 21
67.7806892627
  0
LINE
  5
238
100
AcDbEntity
  8
0
100
AcDbLine
 62
7
  6
BYLAYER
 10
54.3014029795
 20
101.8618953023
 11
53.7325927774
 21
118.1504883184
  0
LINE
  5
239
100
AcDbEntity
  8
0
100
AcDbLine
 62
7
  6
BYLAYER
 10
54.0014029795
 20
17.9806892627
 11
54.0014029795
 21
15.9806892627
  0
LINE
  5
23A
100
AcDbEntity
  8
0
100
AcDbLine
 62
7
  6
BYLAYER
 10
16.8014029795
 20
73.4806892627
 11
79.8014029795
 21
73.4806892627
  0
LINE
  5
23B
100
AcDbEntity
  8
0
100
AcDbLine
 62
7
  6
BYLAYER
 10
79.8014029795
 20
74.7806892627
 11
16.8014029795
 21
74.7806892627
  0
LINE
  5
23C
100
AcDbEntity
  8
0
100
AcDbLine
 62
7
  6
BYLAYER
 10
78.3014029795
 20
79.0806892627
 11
18.3014029795
 21
79.0806892627
  0
LINE
  5
23D
100
AcDbEntity
  8
0
100
AcDbLine
 62
7
  6
BYLAYER
 10
64.4514029795
 20
16.0146638589
 11
64.4514029795
 21
12.4806892627
  0
LINE
  5
23E
100
AcDbEntity
  8
0
100
AcDbLine
 62
7
  6
BYLAYER
 10
19.3014029795
 20
80.0806892627
 11
77.3014029795
 21
80.0806892627
  0
LINE
  5
23F
100
AcDbEntity
  8
0
100
AcDbLine
 62
7
  6
BYLAYER
 10
65.9514029795
 20
16.8806892627
 11
65.9514029795
 21
17.9806892627
  0
LINE
  5
240
100
AcDbEntity
  8
0
100
AcDbLine
 62
7
  6
BYLAYER
 10
70.8014029795
 20
87.7806892627
 11
68.543179144
 21
87.7806892627
  0
LINE
  5
241
100
AcDbEntity
  8
0
100
AcDbLine
 62
7
  6
BYLAYER
 10
28.0596268157
 20
87.7806892627
 11
25.8014029795
 21
87.7806892627
  0
LINE
  5
242
100
AcDbEntity
  8
0
100
AcDbLine
 62
7
  6
BYLAYER
 10
70.5514029795
 20
67.7806892627
 11
70.5514029795
 21
60.0806892627
  0
LINE
  5
243
100
AcDbEntity
  8
0
100
AcDbLine
 62
7
  6
BYLAYER
 10
70.7514029795
 20
60.0806892627
 11
70.7514029795
 21
52.8806892627
  0
LINE
  5
244
100
AcDbEntity
  8
0
100
AcDbLine
 62
7
  6
BYLAYER
 10
70.7514029795
 20
21.3806892627
 11
70.7514029795
 21
12.4806892627
  0
LINE
  5
245
100
AcDbEntity
  8
0
100
AcDbLine
 62
7
  6
BYLAYER
 10
70.8014029795
 20
80.0806892627
 11
70.8014029795
 21
87.7806892627
  0
LINE
  5
246
100
AcDbEntity
  8
0
100
AcDbLine
 62
7
  6
BYLAYER
 10
72.2014029795
 20
73.4806892627
 11
72.2014029795
 21
74.7806892627
  0
LINE
  5
247
100
AcDbEntity
  8
0
100
AcDbLine
 62
7
  6
BYLAYER
 10
72.3014029795
 20
67.7806892627
 11
72.3014029795
 21
73.4806892627
  0
LINE
  5
248
100
AcDbEntity
  8
0
100
AcDbLine
 62
7
  6
BYLAYER
 10
74.0514029795
 20
67.7806892627
 11
74.0514029795
 21
60.0806892627
  0
LINE
  5
249
100
AcDbEntity
  8
0
100
AcDbLine
 62
7
  6
BYLAYER
 10
68.3013920362
 20
90.2806892627
 11
66.2940929037
 21
90.2806892627
  0
LINE
  5
24A
100
AcDbEntity
  8
0
100
AcDbLine
 62
7
  6
BYLAYER
 10
30.3087130552
 20
90.2806892627
 11
28.3014139227
 21
90.2806892627
  0
LINE
  5
24B
100
AcDbEntity
  8
0
100
AcDbLine
 62
7
  6
BYLAYER
 10
74.7514029795
 20
67.7806892627
 11
74.7514029795
 21
63.3806892627
  0
LINE
  5
24C
100
AcDbEntity
  8
0
100
AcDbLine
 62
7
  6
BYLAYER
 10
75.2014029795
 20
73.4806892627
 11
75.2014029795
 21
67.7806892627
  0
LINE
  5
24D
100
AcDbEntity
  8
0
100
AcDbLine
 62
7
  6
BYLAYER
 10
75.3014029795
 20
74.7806892627
 11
75.3014029795
 21
80.0806892627
  0
LINE
  5
24E
100
AcDbEntity
  8
0
100
AcDbLine
 62
7
  6
BYLAYER
 10
75.7514029795
 20
15.9806892627
 11
75.7514029795
 21
12.4806892627
  0
LINE
  5
24F
100
AcDbEntity
  8
0
100
AcDbLine
 62
7
  6
BYLAYER
 10
78.3014029795
 20
12.4806892627
 11
78.3014029795
 21
15.9806892627
  0
LINE
  5
250
100
AcDbEntity
  8
0
100
AcDbLine
 62
7
  6
BYLAYER
 10
78.3014029795
 20
74.7806892627
 11
78.3014029795
 21
79.0806892627
  0
LINE
  5
251
100
AcDbEntity
  8
0
100
AcDbLine
 62
7
  6
BYLAYER
 10
79.8014029795
 20
74.7806892627
 11
79.8014029795
 21
73.4806892627
  0
LINE
  5
252
100
AcDbEntity
  8
0
100
AcDbLine
 62
7
  6
BYLAYER
 10
82.3014029795
 20
12.4806892627
 11
82.3014029795
 21
15.9806892627
  0
LINE
  5
253
100
AcDbEntity
  8
0
100
AcDbLine
 62
7
  6
BYLAYER
 10
84.7514029795
 20
22.3806892627
 11
84.7514029795
 21
51.8806892627
  0
LINE
  5
254
100
AcDbEntity
  8
0
100
AcDbLine
 62
7
  6
BYLAYER
 10
64.4514029795
 20
16.0146638589
 11
65.9514029795
 21
16.8806892627
  0
LINE
  5
255
100
AcDbEntity
  8
0
100
AcDbLine
 62
7
  6
BYLAYER
 10
51.600019263
 20
118.0806892627
 11
45.0027866969
 21
118.0806892627
  0
LINE
  5
256
100
AcDbEntity
  8
0
100
AcDbLine
 62
7
  6
BYLAYER
 10
51.7338111255
 20
120.0806892627
 11
44.8689948334
 21
120.0806892627
  0
ARC
  5
257
100
AcDbEntity
  8
0
100
AcDbCircle
 62
7
  6
BYLAYER
 10
30.3087130552
 20
102.2806892627
 40
12.0
100
AcDbArc
 50
270.0
 51
358.0
  0
ARC
  5
258
100
AcDbEntity
  8
0
100
AcDbCircle
 62
7
  6
BYLAYER
 10
66.2940929037
 20
102.2806892627
 40
12.0
100
AcDbArc
 50
181.9999999999
 51
270.0
  0
ARC
  5
259
100
AcDbEntity
  8
0
100
AcDbCircle
 62
7
  6
BYLAYER
 10
28.3014029795
 20
87.7806892627
 40
2.5
100
AcDbArc
 50
90.0
 51
180.0
  0
ARC
  5
25A
100
AcDbEntity
  8
0
100
AcDbCircle
 62
7
  6
BYLAYER
 10
68.3014029795
 20
87.7806892627
 40
2.5
100
AcDbArc
 50
0.0
 51
90.0
  0
ARC
  5
25B
100
AcDbEntity
  8
0
100
AcDbCircle
 62
7
  6
BYLAYER
 10
44.8689948334
 20
118.0806892627
 40
2.0
100
AcDbArc
 50
90.0
 51
177.9999994022
  0
ARC
  5
25C
100
AcDbEntity
  8
0
100
AcDbCircle
 62
7
  6
BYLAYER
 10
51.7338207836
 20
118.0806895256
 40
1.9999997233
100
AcDbArc
 50
2.0000030209
 51
90.0002766841
  0
ARC
  5
25D
100
AcDbEntity
  8
0
100
AcDbCircle
 62
7
  6
BYLAYER
 10
71.7514029795
 20
16.9806892627
 40
1.0
100
AcDbArc
 50
180.0
 51
270.0
  0
ARC
  5
25E
100
AcDbEntity
  8
0
100
AcDbCircle
 62
7
  6
BYLAYER
 10
83.7514029795
 20
51.8806892627
 40
1.0
100
AcDbArc
 50
0.0
 51
90.0
  0
ARC
  5
25F
100
AcDbEntity
  8
0
100
AcDbCircle
 62
7
  6
BYLAYER
 10
83.7514029795
 20
22.3806892627
 40
1.0
100
AcDbArc
 50
270.0
 51
360.0
  0
ARC
  5
260
100
AcDbEntity
  8
0
100
AcDbCircle
 62
7
  6
BYLAYER
 10
12.8514029795
 20
22.3806892627
 40
1.0
100
AcDbArc
 50
180.0
 51
270.0
  0
ARC
  5
261
100
AcDbEntity
  8
0
100
AcDbCircle
 62
7
  6
BYLAYER
 10
12.8514029795
 20
51.8806892627
 40
1.0
100
AcDbArc
 50
90.0
 51
180.0
  0
ARC
  5
262
100
AcDbEntity
  8
0
100
AcDbCircle
 62
7
  6
BYLAYER
 10
19.3014029795
 20
79.0806892627
 40
1.0
100
AcDbArc
 50
90.0
 51
180.0
  0
ARC
  5
263
100
AcDbEntity
  8
0
100
AcDbCircle
 62
7
  6
BYLAYER
 10
77.3014029795
 20
79.0806892627
 40
1.0
100
AcDbArc
 50
0.0
 51
90.0
  0
ARC
  5
264
100
AcDbEntity
  8
0
100
AcDbCircle
 62
7
  6
BYLAYER
 10
24.8514029795
 20
16.9806892627
 40
1.0
100
AcDbArc
 50
270.0
 51
360.0
  0
SPLINE
  5
265
100
AcDbEntity
  8
0
100
AcDbSpline
 62
7
  6
BYLAYER
 70
0
 71
3
 72
24
 73
20
 74
0
 42
0.0000001
 43
0.0000001
 44
0.0000000001
 40
0.0
 40
0.0
 40
0.0
 40
0.0
 40
0.000988317
 40
0.0038766366
 40
0.0087525211
 40
0.0156836547
 40
0.024735422
 40
0.0359725772
 40
0.0494596312
 40
0.0652609816
 40
0.1039299751
 40
0.1518244523
 40
0.2086550908
 40
0.2741324469
 40
0.3478238778
 40
0.4287241314
 40
0.607557351
 40
0.8012947745
 40
1.0
 40
1.0
 40
1.0
 40
1.0
 10
42.3014029789
 20
101.8618952869
 30
0.0
 10
42.3013792649
 20
101.8612161315
 30
0.0
 10
42.3054602996
 20
101.8613107369
 30
0.0
 10
42.3100318537
 20
101.8599705704
 30
0.0
 10
42.3209028558
 20
101.8593810615
 30
0.0
 10
42.3348378429
 20
101.8581177874
 30
0.0
 10
42.3536568195
 20
101.8569082909
 30
0.0
 10
42.3767831682
 20
101.8554495343
 30
0.0
 10
42.4046214703
 20
101.8538564768
 30
0.0
 10
42.4512723467
 20
101.8513223143
 30
0.0
 10
42.5215753267
 20
101.8477910173
 30
0.0
 10
42.6200617673
 20
101.8431418074
 30
0.0
 10
42.7369763134
 20
101.8378891759
 30
0.0
 10
42.8716203325
 20
101.8320744647
 30
0.0
 10
43.0228087339
 20
101.8257611612
 30
0.0
 10
43.2518835144
 20
101.8164526789
 30
0.0
 10
43.5634521215
 20
101.8042381399
 30
0.0
 10
43.9559835848
 20
101.7894254949
 30
0.0
 10
44.2256480274
 20
101.779565455
 30
0.0
 10
44.3621896793
 20
101.7746465424
 30
0.0
  0
SPLINE
  5
266
100
AcDbEntity
  8
0
100
AcDbSpline
 62
7
  6
BYLAYER
 70
0
 71
3
 72
8
 73
4
 74
0
 42
0.0000001
 43
0.0000001
 44
0.0000000001
 40
0.0
 40
0.0
 40
0.0
 40
0.0
 40
1.0
 40
1.0
 40
1.0
 40
1.0
 10
51.600019263
 20
118.0806892627
 30
0.0
 10
51.8138109691
 20
112.645351891
 30
0.0
 10
52.0273786585
 20
107.2100056982
 30
0.0
 10
52.2406162785
 20
101.7746465605
 30
0.0
  0
SPLINE
  5
267
100
AcDbEntity
  8
0
100
AcDbSpline
 62
7
  6
BYLAYER
 70
0
 71
3
 72
18
 73
14
 74
0
 42
0.0000001
 43
0.0000001
 44
0.0000000001
 40
0.0
 40
0.0
 40
0.0
 40
0.0
 40
0.0748806657
 40
0.1496908354
 40
0.2243375288
 40
0.2986519773
 40
0.372362709
 40
0.4450744811
 40
0.5851664182
 40
0.71438105
 40
0.8283499445
 40
0.924145336
 40
1.0
 40
1.0
 40
1.0
 40
1.0
 10
52.2406162785
 20
101.7746465605
 30
0.0
 10
52.2638307114
 20
101.1837297324
 30
0.0
 10
52.3919053443
 20
100.0040678459
 30
0.0
 10
52.8223520924
 20
98.2801394541
 30
0.0
 10
53.4767713941
 20
96.6329495942
 30
0.0
 10
54.3335257355
 20
95.0918733539
 30
0.0
 10
55.365021329
 20
93.6810556845
 30
0.0
 10
56.9087036782
 20
92.0207995328
 30
0.0
 10
59.0644353105
 20
90.3572744403
 30
0.0
 10
61.7862117877
 20
88.9971571432
 30
0.0
 10
64.3552238156
 20
88.2076843727
 30
0.0
 10
66.5876765897
 20
87.8471110416
 30
0.0
 10
67.9441143115
 20
87.7806882011
 30
0.0
 10
68.543179144
 20
87.7806892627
 30
0.0
  0
SPLINE
  5
268
100
AcDbEntity
  8
0
100
AcDbSpline
 62
7
  6
BYLAYER
 70
0
 71
3
 72
8
 73
4
 74
0
 42
0.0000001
 43
0.0000001
 44
0.0000000001
 40
0.0
 40
0.0
 40
0.0
 40
0.0
 40
1.0
 40
1.0
 40
1.0
 40
1.0
 10
44.3621896805
 20
101.7746465605
 30
0.0
 10
44.5754274243
 20
107.2100056933
 30
0.0
 10
44.7889948487
 20
112.6453518965
 30
0.0
 10
45.0027866969
 20
118.0806892627
 30
0.0
  0
SPLINE
  5
269
100
AcDbEntity
  8
0
100
AcDbSpline
 62
7
  6
BYLAYER
 70
0
 71
3
 72
14
 73
10
 74
0
 42
0.0000001
 43
0.0000001
 44
0.0000000001
 40
0.0
 40
0.0
 40
0.0
 40
0.0
 40
0.1106124005
 40
0.2285471889
 40
0.3534940968
 40
0.483531114
 40
0.6164443413
 40
0.7491961081
 40
1.0
 40
1.0
 40
1.0
 40
1.0
 10
66.2940929056
 20
90.2806892627
 30
0.0
 10
66.4313547095
 20
90.2806892627
 30
0.0
 10
66.7156922921
 20
90.2512472002
 30
0.0
 10
67.1366727794
 20
90.1168024696
 30
0.0
 10
67.5394195222
 20
89.8817847627
 30
0.0
 10
67.8998329816
 20
89.5574693388
 30
0.0
 10
68.189207186
 20
89.1563702253
 30
0.0
 10
68.4622925819
 20
88.5735559659
 30
0.0
 10
68.5431791464
 20
88.0919183334
 30
0.0
 10
68.5431791464
 20
87.7806892627
 30
0.0
  0
SPLINE
  5
26A
100
AcDbEntity
  8
0
100
AcDbSpline
 62
7
  6
BYLAYER
 70
0
 71
3
 72
24
 73
20
 74
0
 42
0.0000001
 43
0.0000001
 44
0.0000000001
 40
0.0
 40
0.0
 40
0.0
 40
0.0
 40
0.0009883172
 40
0.0038766369
 40
0.0087525216
 40
0.0156836553
 40
0.0247354226
 40
0.0359725778
 40
0.0494596317
 40
0.0652609821
 40
0.1039299754
 40
0.1518244523
 40
0.2086550904
 40
0.274132446
 40
0.3478238767
 40
0.42872413
 40
0.6075573494
 40
0.8012947734
 40
1.0
 40
1.0
 40
1.0
 40
1.0
 10
54.3014029795
 20
101.8618953019
 30
0.0
 10
54.3014266929
 20
101.8612161463
 30
0.0
 10
54.2973456591
 20
101.8613107521
 30
0.0
 10
54.2927741035
 20
101.8599705853
 30
0.0
 10
54.2819031018
 20
101.8593810766
 30
0.0
 10
54.2679681143
 20
101.8581178024
 30
0.0
 10
54.2491491377
 20
101.856908306
 30
0.0
 10
54.226022789
 20
101.8554495494
 30
0.0
 10
54.1981844869
 20
101.853856492
 30
0.0
 10
54.1515336108
 20
101.8513223296
 30
0.0
 10
54.0812306313
 20
101.8477910328
 30
0.0
 10
53.9827441914
 20
101.8431418231
 30
0.0
 10
53.8658296461
 20
101.8378891919
 30
0.0
 10
53.7311856278
 20
101.8320744809
 30
0.0
 10
53.5799972271
 20
101.8257611776
 30
0.0
 10
53.3509224472
 20
101.8164526957
 30
0.0
 10
53.0393538402
 20
101.8042381571
 30
0.0
 10
52.6468223761
 20
101.7894255126
 30
0.0
 10
52.3771579325
 20
101.779565473
 30
0.0
 10
52.2406162799
 20
101.7746465606
 30
0.0
  0
SPLINE
  5
26B
100
AcDbEntity
  8
0
100
AcDbSpline
 62
7
  6
BYLAYER
 70
0
 71
3
 72
26
 73
22
 74
0
 42
0.0000001
 43
0.0000001
 44
0.0000000001
 40
0.0
 40
0.0
 40
0.0
 40
0.0
 40
0.0003007623
 40
0.0011710619
 40
0.0026191746
 40
0.0046447315
 40
0.0104224724
 40
0.0184912227
 40
0.028836759
 40
0.0414445921
 40
0.0562990646
 40
0.0733693104
 40
0.1139881441
 40
0.1629616876
 40
0.2199424002
 40
0.2844681081
 40
0.3559889784
 40
0.4339518611
 40
0.606761025
 40
0.797629855
 40
1.0
 40
1.0
 40
1.0
 40
1.0
 10
53.7321958665
 20
118.1504787025
 30
0.0
 10
53.732222336
 20
118.1502664713
 30
0.0
 10
53.7309278475
 20
118.1502244204
 30
0.0
 10
53.7295358566
 20
118.1498435208
 30
0.0
 10
53.7262047882
 20
118.1496211021
 30
0.0
 10
53.7198017565
 20
118.1490578836
 30
0.0
 10
53.7084206911
 20
118.1483914105
 30
0.0
 10
53.6912978057
 20
118.1474526672
 30
0.0
 10
53.6692413001
 20
118.1464008647
 30
0.0
 10
53.6423899663
 20
118.1452054396
 30
0.0
 10
53.6107472733
 20
118.1438847674
 30
0.0
 10
53.559202637
 20
118.1418333947
 30
0.0
 10
53.4834060177
 20
118.1389949468
 30
0.0
 10
53.3792423663
 20
118.1352899524
 30
0.0
 10
53.2580828374
 20
118.1311472406
 30
0.0
 10
53.1208943231
 20
118.1266000391
 30
0.0
 10
52.9687890788
 20
118.1216877475
 30
0.0
 10
52.7397170821
 20
118.1144563292
 30
0.0
 10
52.425808382
 20
118.104844209
 30
0.0
 10
52.0234638598
 20
118.0928523773
 30
0.0
 10
51.7439441019
 20
118.0847662553
 30
0.0
 10
51.6000942077
 20
118.0806887238
 30
0.0
  0
SPLINE
  5
26C
100
AcDbEntity
  8
0
100
AcDbSpline
 62
7
  6
BYLAYER
 70
0
 71
3
 72
18
 73
14
 74
0
 42
0.0000001
 43
0.0000001
 44
0.0000000001
 40
0.0
 40
0.0
 40
0.0
 40
0.0
 40
0.1895594075
 40
0.3721116269
 40
0.5405790547
 40
0.6889227676
 40
0.7538032138
 40
0.8117293355
 40
0.8622130593
 40
0.9049060817
 40
0.9396492268
 40
0.9665100781
 40
1.0
 40
1.0
 40
1.0
 40
1.0
 10
51.6000173018
 20
118.0806896004
 30
0.0
 10
51.6000173503
 20
118.2107220269
 30
0.0
 10
51.5963870376
 20
118.4659951637
 30
0.0
 10
51.5802657745
 20
118.8365254098
 30
0.0
 10
51.5540804563
 20
119.1781375076
 30
0.0
 10
51.5237857079
 20
119.4383163987
 30
0.0
 10
51.4943682177
 20
119.622015462
 30
0.0
 10
51.4716173562
 20
119.7386922816
 30
0.0
 10
51.4472993529
 20
119.8395806536
 30
0.0
 10
51.422055557
 20
119.9234276984
 30
0.0
 10
51.3950822029
 20
119.9906005982
 30
0.0
 10
51.3651508135
 20
120.0462946864
 30
0.0
 10
51.3297802329
 20
120.0806891749
 30
0.0
 10
51.3068070876
 20
120.0806892181
 30
0.0
  0
SPLINE
  5
26D
100
AcDbEntity
  8
0
100
AcDbSpline
 62
7
  6
BYLAYER
 70
0
 71
3
 72
18
 73
14
 74
0
 42
0.0000001
 43
0.0000001
 44
0.0000000001
 40
0.0
 40
0.0
 40
0.0
 40
0.0
 40
0.03348193
 40
0.060331573
 40
0.0950528341
 40
0.1377227518
 40
0.1881889795
 40
0.2460897735
 40
0.310958172
 40
0.4592941354
 40
0.6277940933
 40
0.8104160122
 40
1.0
 40
1.0
 40
1.0
 40
1.0
 10
45.2959985413
 20
120.0806892782
 30
0.0
 10
45.2730308231
 20
120.0806892969
 30
0.0
 10
45.2376604875
 20
120.0463206909
 30
0.0
 10
45.2077473061
 20
119.9906443356
 30
0.0
 10
45.180778662
 20
119.9235131052
 30
0.0
 10
45.15554083
 20
119.8397078785
 30
0.0
 10
45.1312294497
 20
119.7388645637
 30
0.0
 10
45.108469585
 20
119.6222274732
 30
0.0
 10
45.0790556494
 20
119.4385586284
 30
0.0
 10
45.0487432431
 20
119.1783725517
 30
0.0
 10
45.02254948
 20
118.8366949841
 30
0.0
 10
45.0064218736
 20
118.4660771186
 30
0.0
 10
45.0027880493
 20
118.2107386966
 30
0.0
 10
45.0027881535
 20
118.0806890965
 30
0.0
  0
SPLINE
  5
26E
100
AcDbEntity
  8
0
100
AcDbSpline
 62
7
  6
BYLAYER
 70
0
 71
3
 72
26
 73
22
 74
0
 42
0.0000001
 43
0.0000001
 44
0.0000000001
 40
0.0
 40
0.0
 40
0.0
 40
0.0
 40
0.2023675731
 40
0.3932349502
 40
0.5660420006
 40
0.6440040067
 40
0.7155241843
 40
0.7800495247
 40
0.83703033
 40
0.8860042861
 40
0.9266238651
 40
0.9436946318
 40
0.9585497357
 40
0.9711583044
 40
0.9815046721
 40
0.9895743432
 40
0.9953530872
 40
0.9973791742
 40
0.9988278342
 40
0.9996986953
 40
1.0
 40
1.0
 40
1.0
 40
1.0
 10
45.0027160978
 20
118.0806821484
 30
0.0
 10
44.8588660275
 20
118.0847599115
 30
0.0
 10
44.5793452329
 20
118.0928463903
 30
0.0
 10
44.176999463
 20
118.1048387028
 30
0.0
 10
43.8630895415
 20
118.1144511317
 30
0.0
 10
43.6340169671
 20
118.1216827796
 30
0.0
 10
43.4819109788
 20
118.1265952678
 30
0.0
 10
43.3447212395
 20
118.131142668
 30
0.0
 10
43.2235599234
 20
118.1352855526
 30
0.0
 10
43.1193939277
 20
118.1389906852
 30
0.0
 10
43.0435950607
 20
118.1418292445
 30
0.0
 10
42.9920483505
 20
118.143880728
 30
0.0
 10
42.9604038893
 20
118.1452014919
 30
0.0
 10
42.9335505772
 20
118.1463970487
 30
0.0
 10
42.9114921143
 20
118.147448921
 30
0.0
 10
42.8943667342
 20
118.1483879129
 30
0.0
 10
42.8829843797
 20
118.1490542032
 30
0.0
 10
42.8765789677
 20
118.1496178523
 30
0.0
 10
42.873247969
 20
118.149839681
 30
0.0
 10
42.8718526722
 20
118.1502218201
 30
0.0
 10
42.8705592672
 20
118.150262566
 30
0.0
 10
42.8705846054
 20
118.1504753266
 30
0.0
  0
SPLINE
  5
26F
100
AcDbEntity
  8
0
100
AcDbSpline
 62
7
  6
BYLAYER
 70
0
 71
3
 72
18
 73
14
 74
0
 42
0.0000001
 43
0.0000001
 44
0.0000000001
 40
0.0
 40
0.0
 40
0.0
 40
0.0
 40
0.074880763
 40
0.1496909609
 40
0.2243376205
 40
0.2986520501
 40
0.3723627979
 40
0.4450745724
 40
0.5851664891
 40
0.7143810805
 40
0.8283500344
 40
0.924145366
 40
1.0
 40
1.0
 40
1.0
 40
1.0
 10
44.3621896805
 20
101.7746465605
 30
0.0
 10
44.3389751153
 20
101.1837290605
 30
0.0
 10
44.2109033997
 20
100.0040659884
 30
0.0
 10
43.7804525096
 20
98.2801378716
 30
0.0
 10
43.1260323247
 20
96.6329493213
 30
0.0
 10
42.2692832383
 20
95.0918706733
 30
0.0
 10
41.2377829063
 20
93.6810561977
 30
0.0
 10
39.6940949933
 20
92.0208067262
 30
0.0
 10
37.5383703193
 20
90.3572722587
 30
0.0
 10
34.8165853947
 20
88.9971757244
 30
0.0
 10
32.2475831814
 20
88.2076733364
 30
0.0
 10
30.0151272372
 20
87.8471184084
 30
0.0
 10
28.6586913186
 20
87.7806896855
 30
0.0
 10
28.0596268157
 20
87.7806892627
 30
0.0
  0
SPLINE
  5
270
100
AcDbEntity
  8
0
100
AcDbSpline
 62
7
  6
BYLAYER
 70
0
 71
3
 72
14
 73
10
 74
0
 42
0.0000001
 43
0.0000001
 44
0.0000000001
 40
0.0
 40
0.0
 40
0.0
 40
0.0
 40
0.2508038895
 40
0.3835556557
 40
0.5164688828
 40
0.6465059002
 40
0.7714528089
 40
0.8893875983
 40
1.0
 40
1.0
 40
1.0
 40
1.0
 10
28.0596268123
 20
87.7806892627
 30
0.0
 10
28.0596268123
 20
88.0919183305
 30
0.0
 10
28.1405133755
 20
88.5735559591
 30
0.0
 10
28.4135987673
 20
89.1563702159
 30
0.0
 10
28.7029729694
 20
89.5574693302
 30
0.0
 10
29.063386428
 20
89.8817847565
 30
0.0
 10
29.466133172
 20
90.1168024666
 30
0.0
 10
29.8871136624
 20
90.2512471996
 30
0.0
 10
30.1714512478
 20
90.2806892627
 30
0.0
 10
30.3087130532
 20
90.2806892627
 30
0.0
  0
ENDSEC
  0
SECTION
  2
OBJECTS
  0
DICTIONARY
  5
C
100
AcDbDictionary
280
0
281
1
  3
ACAD_GROUP
350
D
  3
ACAD_MLINESTYLE
350
17
  3
ACAD_LAYOUT
350
1A
  3
ACAD_PLOTSETTINGS
350
19
  3
ACAD_PLOTSTYLENAME
350
E
  0
DICTIONARY
  5
D
102
{ACAD_REACTORS
330
C
102
}
100
AcDbDictionary
280
0
281
1
  0
ACDBDICTIONARYWDFLT
  5
E
102
{ACAD_REACTORS
330
C
102
}
100
AcDbDictionary
281
1
  3
Normal
350
F
100
AcDbDictionaryWithDefault
340
F
  0
DICTIONARY
  5
17
102
{ACAD_REACTORS
330
C
102
}
100
AcDbDictionary
280
0
281
1
  3
Standard
350
18
  0
DICTIONARY
  5
19
102
{ACAD_REACTORS
330
C
102
}
100
AcDbDictionary
281
1
  0
DICTIONARY
  5
1A
102
{ACAD_REACTORS
330
C
102
}
100
AcDbDictionary
281
1
  3
Model
350
271
  3
Layout1
350
272
  0
ACDBPLACEHOLDER
  5
F
102
{ACAD_REACTORS
330
E
102
}
  0
MLINESTYLE
  5
18
102
{ACAD_REACTORS
330
17
102
}
100
AcDbMlineStyle
  2
STANDARD
 70
0
  3

 62
256
 51
90.0
 52
90.0
 71
2
 49
0.5
 62
256
  6
BYLAYER
 49
-0.5
 62
256
  6
BYLAYER
  0
LAYOUT
  5
271
102
{ACAD_REACTORS
330
1A
102
}
100
AcDbPlotSettings
  1

  2
none_device
  4

  6

 40
0.0
 41
0.0
 42
0.0
 43
0.0
 44
210.0
 45
297.0
 46
0.0
 47
0.0
 48
0.0
 49
0.0
140
0.0
141
0.0
142
1.0
143
1.0
 70
1024
 72
1
 73
0
 74
0
  7

 75
0
147
1.0
148
0.0
149
0.0
100
AcDbLayout
  1
Model
 70
0
 71
0
 10
0.0
 20
0.0
 11
210.0
 21
297.0
 12
0.0
 22
0.0
 32
0.0
 14
0.0
 24
0.0
 34
0.0
 15
0.0
 25
0.0
 35
0.0
146
0.0
 13
0.0
 23
0.0
 33
0.0
 16
1.0
 26
0.0
 36
0.0
 17
0.0
 27
1.0
 37
0.0
 76
0
330
210
345
0
346
0
  0
LAYOUT
  5
272
102
{ACAD_REACTORS
330
1A
102
}
100
AcDbPlotSettings
  1

  2
none_device
  4

  6

 40
0.0
 41
0.0
 42
0.0
 43
0.0
 44
210.0
 45
297.0
 46
0.0
 47
0.0
 48
0.0
 49
0.0
140
0.0
141
0.0
142
1.0
143
1.0
 70
0
 72
1
 73
0
 74
0
  7

 75
0
147
1.0
148
0.0
149
0.0
100
AcDbLayout
  1
Layout1
 70
0
 71
1
 10
0.0
 20
0.0
 11
210.0
 21
297.0
 12
0.0
 22
0.0
 32
0.0
 14
0.0
 24
0.0
 34
0.0
 15
0.0
 25
0.0
 35
0.0
146
0.0
 13
0.0
 23
0.0
 33
0.0
 16
1.0
 26
0.0
 36
0.0
 17
0.0
 27
1.0
 37
0.0
 76
0
330
211
345
0
346
0
  0
ENDSEC
  0
EOF
