999
DXF file: C:\Users\sesa63760\Dev\_Creo\CAD\MCADID0004417_3D-CAD\drw0001_1.dxf
999
Pro/ENGINEER 2019471 by Parametric Technology Corporation
  0
SECTION
  2
HEADER
  9
$ACADVER
  1
AC1024
  9
$DWGCODEPAGE
  3
ANSI_1252
  9
$EXTMAX
 10
77.2640042423
 20
109.2733774284
 30
0.0
  9
$EXTMIN
 10
0.0
 20
0.0
 30
0.0
  9
$LIMMIN
 10
0.0
 20
0.0
  9
$LIMMAX
 10
77.2640042423
 20
109.2733774284
  9
$VIEWCTR
 10
38.6320021212
 20
54.6366887142
  9
$VIEWSIZE
 40
109.2733774284
  9
$CLAYER
  8
0
  9
$LTSCALE
 40
7.1230053435
  9
$CELTYPE
  6
BYLAYER
  9
$DIMSCALE
 40
1.0
  9
$DIMASZ
 40
0.9198095743
  9
$DIMEXO
 40
1.0
  9
$DIMDLI
 40
4.9213491464
  9
$DIMEXE
 40
1.0
  9
$DIMCEN
 40
1.1655826926
  9
$DIMLFAC
 40
1.0
  9
$DIMBLK
  1
_FILLED
  9
$DIMALT
 70
0
  9
$DIMALTF
 40
0.0393700787
  9
$DIMTXT
 40
1.287733404
  9
$DIMTOL
 70
1
  9
$DIMLIM
 70
0
  9
$DIMTFAC
 40
1.0
  9
$DIMTP
 40
0.01
  9
$DIMTM
 40
0.01
  9
$DIMGAP
 40
0.625
  9
$DIMDSEP
 70
46
  9
$AUNITS
 70
0
  9
$PDMODE
 70
3
  9
$PDSIZE
 40
0.3125
  9
$HANDSEED
  5
264
  9
$TILEMODE
 70
1
  9
$MEASUREMENT
 70
1
  9
$INSUNITS
 70
4
  0
ENDSEC
  0
SECTION
  2
CLASSES
  0
CLASS
  1
ACDBDICTIONARYWDFLT
  2
AcDbDictionaryWithDefault
  3
AutoCAD 2000
 90
0
 91
1
280
0
281
0
  0
CLASS
  1
ACDBPLACEHOLDER
  2
AcDbPlaceHolder
  3
AutoCAD 2000
 90
0
 91
1
280
0
281
0
  0
CLASS
  1
LAYOUT
  2
AcDbLayout
  3
AutoCAD 2000
 90
0
 91
0
280
0
281
0
  0
ENDSEC
  0
SECTION
  2
TABLES
  0
TABLE
  2
VPORT
  5
8
100
AcDbSymbolTable
 70
2
  0
VPORT
  5
1F4
100
AcDbSymbolTableRecord
100
AcDbViewportTableRecord
  2
*ACTIVE
 70
0
 10
0.0
 20
0.0
 11
1.0
 21
1.0
 12
38.6320021212
 22
54.6366887142
 13
0.0
 23
0.0
 14
1.0
 24
1.0
 15
0.0
 25
0.0
 16
0.0
 26
0.0
 36
1.0
 17
0.0
 27
0.0
 37
0.0
 40
109.2733774284
 41
0.7070707071
 42
50.0
 43
0.0
 44
0.0
 50
0.0
 51
0.0
 71
0
 72
100
 73
1
 74
1
 75
0
 76
0
 77
0
 78
0
  0
ENDTAB
  0
TABLE
  2
LTYPE
  5
5
100
AcDbSymbolTable
 70
6
  0
LTYPE
  5
14
100
AcDbSymbolTableRecord
100
AcDbLinetypeTableRecord
  2
BYBLOCK
 70
0
  3

 72
65
 73
0
 40
0.0
  0
LTYPE
  5
15
100
AcDbSymbolTableRecord
100
AcDbLinetypeTableRecord
  2
BYLAYER
 70
0
  3

 72
65
 73
0
 40
0.0
  0
LTYPE
  5
16
100
AcDbSymbolTableRecord
100
AcDbLinetypeTableRecord
  2
CONTINUOUS
 70
64
  3
Solid line
 72
65
 73
0
 40
0.0
  0
LTYPE
  5
1F5
100
AcDbSymbolTableRecord
100
AcDbLinetypeTableRecord
  2
CENTER
 70
64
  3
____ _ ____ _ ____ _ ____ _ ____ _ ____ _ ____
 72
65
 73
4
 40
0.6
 49
0.375
 74
0
 49
-0.075
 74
0
 49
0.075
 74
0
 49
-0.075
 74
0
  0
LTYPE
  5
1F6
100
AcDbSymbolTableRecord
100
AcDbLinetypeTableRecord
  2
HIDDEN
 70
64
  3
- - - - - - - - - - - - - - - - - - - -
 72
65
 73
2
 40
0.2
 49
0.1
 74
0
 49
-0.1
 74
0
  0
LTYPE
  5
1F7
100
AcDbSymbolTableRecord
100
AcDbLinetypeTableRecord
  2
PHANTOM
 70
64
  3
_____ _ _ _____ _ _ _____ _ _ _____
 72
65
 73
6
 40
0.8
 49
0.45
 74
0
 49
-0.05
 74
0
 49
0.1
 74
0
 49
-0.05
 74
0
 49
0.1
 74
0
 49
-0.05
 74
0
  0
LTYPE
  5
1F8
100
AcDbSymbolTableRecord
100
AcDbLinetypeTableRecord
  2
DOT
 70
64
  3
. . . . . . . . . . . . . . . . . . . .
 72
65
 73
2
 40
0.2
 49
0.1
 74
0
 49
-0.1
 74
0
  0
LTYPE
  5
1F9
100
AcDbSymbolTableRecord
100
AcDbLinetypeTableRecord
  2
DASHED
 70
64
  3
- - - - - - - - - - - - - - - - - - - -
 72
65
 73
2
 40
0.2
 49
0.1
 74
0
 49
-0.1
 74
0
  0
ENDTAB
  0
TABLE
  2
LAYER
  5
2
100
AcDbSymbolTable
 70
36
  0
LAYER
  5
10
100
AcDbSymbolTableRecord
100
AcDbLayerTableRecord
  2
0
 70
0
 62
7
  6
CONTINUOUS
370
-3
390
F
  0
LAYER
  5
1FA
100
AcDbSymbolTableRecord
100
AcDbLayerTableRecord
  2
DEFAULT_1
 70
0
 62
7
  6
CENTER
370
-3
390
F
  0
LAYER
  5
1FB
100
AcDbSymbolTableRecord
100
AcDbLayerTableRecord
  2
DEFAULT_2
 70
0
 62
7
  6
HIDDEN
370
-3
390
F
  0
LAYER
  5
1FC
100
AcDbSymbolTableRecord
100
AcDbLayerTableRecord
  2
DEFAULT_3
 70
0
 62
7
  6
PHANTOM
370
-3
390
F
  0
LAYER
  5
1FD
100
AcDbSymbolTableRecord
100
AcDbLayerTableRecord
  2
00_COMPONENTS
 70
0
 62
7
  6
CONTINUOUS
370
-3
390
F
  0
LAYER
  5
1FE
100
AcDbSymbolTableRecord
100
AcDbLayerTableRecord
  2
01_1_DEFAULT_DATUMS
 70
0
 62
7
  6
CONTINUOUS
370
-3
390
F
  0
LAYER
  5
1FF
100
AcDbSymbolTableRecord
100
AcDbLayerTableRecord
  2
01_PLANES
 70
0
 62
7
  6
CONTINUOUS
370
-3
390
F
  0
LAYER
  5
200
100
AcDbSymbolTableRecord
100
AcDbLayerTableRecord
  2
02_COORD_SYS
 70
0
 62
7
  6
CONTINUOUS
370
-3
390
F
  0
LAYER
  5
201
100
AcDbSymbolTableRecord
100
AcDbLayerTableRecord
  2
03_AXES
 70
0
 62
7
  6
CONTINUOUS
370
-3
390
F
  0
LAYER
  5
202
100
AcDbSymbolTableRecord
100
AcDbLayerTableRecord
  2
04_POINTS
 70
0
 62
7
  6
CONTINUOUS
370
-3
390
F
  0
LAYER
  5
203
100
AcDbSymbolTableRecord
100
AcDbLayerTableRecord
  2
05_CURVES
 70
0
 62
7
  6
CONTINUOUS
370
-3
390
F
  0
LAYER
  5
204
100
AcDbSymbolTableRecord
100
AcDbLayerTableRecord
  2
06_SURFS
 70
0
 62
7
  6
CONTINUOUS
370
-3
390
F
  0
LAYER
  5
205
100
AcDbSymbolTableRecord
100
AcDbLayerTableRecord
  2
07_COSMETICS
 70
0
 62
7
  6
CONTINUOUS
370
-3
390
F
  0
LAYER
  5
206
100
AcDbSymbolTableRecord
100
AcDbLayerTableRecord
  2
10_NOTES
 70
0
 62
7
  6
CONTINUOUS
370
-3
390
F
  0
LAYER
  5
207
100
AcDbSymbolTableRecord
100
AcDbLayerTableRecord
  2
11_NOTES_PUB
 70
0
 62
7
  6
CONTINUOUS
370
-3
390
F
  0
LAYER
  5
208
100
AcDbSymbolTableRecord
100
AcDbLayerTableRecord
  2
13_REF_GTOL
 70
0
 62
7
  6
CONTINUOUS
370
-3
390
F
  0
LAYER
  5
209
100
AcDbSymbolTableRecord
100
AcDbLayerTableRecord
  2
16_MISC
 70
0
 62
7
  6
CONTINUOUS
370
-3
390
F
  0
LAYER
  5
20A
100
AcDbSymbolTableRecord
100
AcDbLayerTableRecord
  2
17_NO_PRINT
 70
0
 62
7
  6
CONTINUOUS
370
-3
390
F
  0
LAYER
  5
20B
100
AcDbSymbolTableRecord
100
AcDbLayerTableRecord
  2
18_DATUM_CAMS_JOINTS
 70
0
 62
7
  6
CONTINUOUS
370
-3
390
F
  0
LAYER
  5
20C
100
AcDbSymbolTableRecord
100
AcDbLayerTableRecord
  2
19_DATUM_FUNCTIONAL
 70
0
 62
7
  6
CONTINUOUS
370
-3
390
F
  0
LAYER
  5
20D
100
AcDbSymbolTableRecord
100
AcDbLayerTableRecord
  2
20_DATUM_KINEMATIC_SCHEME
 70
0
 62
7
  6
CONTINUOUS
370
-3
390
F
  0
ENDTAB
  0
TABLE
  2
STYLE
  5
3
100
AcDbSymbolTable
 70
1
  0
STYLE
  5
11
100
AcDbSymbolTableRecord
100
AcDbTextStyleTableRecord
  2
STANDARD
 70
0
 40
0.0
 41
1.0
 50
0.0
 71
0
 42
0.2
  3
ARIAL.TTF
  4

  0
STYLE
  5
20E
100
AcDbSymbolTableRecord
100
AcDbTextStyleTableRecord
  2
TEXTSTYLE_1
 70
0
 40
0.0
 41
0.8
 50
0.0
 71
0
 42
0.2
  3
gdt
  4

  0
ENDTAB
  0
TABLE
  2
VIEW
  5
6
100
AcDbSymbolTable
 70
0
  0
ENDTAB
  0
TABLE
  2
UCS
  5
7
100
AcDbSymbolTable
 70
0
  0
ENDTAB
  0
TABLE
  2
APPID
  5
9
100
AcDbSymbolTable
 70
1
  0
APPID
  5
20F
100
AcDbSymbolTableRecord
100
AcDbRegAppTableRecord
  2
ACAD
 70
0
  0
ENDTAB
  0
TABLE
  2
BLOCK_RECORD
  5
1
100
AcDbSymbolTable
 70
0
  0
BLOCK_RECORD
  5
210
100
AcDbSymbolTableRecord
100
AcDbBlockTableRecord
  2
*Model_Space
  0
BLOCK_RECORD
  5
211
100
AcDbSymbolTableRecord
100
AcDbBlockTableRecord
  2
*Paper_Space
  0
BLOCK_RECORD
  5
212
100
AcDbSymbolTableRecord
100
AcDbBlockTableRecord
  2
_FILLED
  0
ENDTAB
  0
TABLE
  2
DIMSTYLE
  5
A
100
AcDbSymbolTable
 70
1
100
AcDbDimStyleTable
 71
0
  0
DIMSTYLE
105
213
100
AcDbSymbolTableRecord
100
AcDbDimStyleTableRecord
  2
STANDARD
 70
0
  3

  4

 40
1.0
 41
0.9198095743
 42
1.0
 43
0.38
 44
1.0
 45
0.0
 46
0.0
 47
0.01
 48
0.01
140
1.287733404
141
0.09
142
0.0
143
25.4
144
1.0
145
0.0
146
1.0
147
0.625
 71
1
 72
0
 73
0
 74
0
 75
0
 76
0
 77
1
 78
8
 79
2
170
0
171
1
172
0
173
0
174
0
175
0
176
0
177
0
178
0
270
2
179
2
271
2
272
2
273
2
274
2
275
0
280
0
281
0
282
0
283
1
284
8
285
0
286
0
287
3
288
0
340
11
278
46
341
212
342
212
343
212
344
212
  0
ENDTAB
  0
ENDSEC
  0
SECTION
  2
BLOCKS
  0
BLOCK
  5
20
100
AcDbEntity
  8
0
100
AcDbBlockBegin
  2
*Model_Space
 70
0
 10
0.0
 20
0.0
 30
0.0
  3
*Model_Space
  1

  0
ENDBLK
  5
21
100
AcDbEntity
  8
0
100
AcDbBlockEnd
  0
BLOCK
  5
1C
100
AcDbEntity
  8
0
100
AcDbBlockBegin
  2
*Paper_Space
 70
0
 10
0.0
 20
0.0
 30
0.0
  3
*Paper_Space
  1

  0
ENDBLK
  5
1D
100
AcDbEntity
  8
0
100
AcDbBlockEnd
  0
BLOCK
  5
214
100
AcDbEntity
  8
0
100
AcDbBlockBegin
  2
_FILLED
 70
64
 10
0.0
 20
0.0
  3
_FILLED
  1

  0
SOLID
  5
215
100
AcDbEntity
  8
0
  6
BYBLOCK
 62
0
100
AcDbTrace
 10
0.0
 20
0.0
 11
-1.0
 21
0.25
 12
-1.0
 22
-0.25
 13
-1.0
 23
-0.25
  0
ENDBLK
  5
216
100
AcDbEntity
  8
0
  6
BYBLOCK
 62
0
100
AcDbBlockEnd
  0
ENDSEC
  0
SECTION
  2
ENTITIES
  0
LINE
  5
217
100
AcDbEntity
  8
0
100
AcDbLine
 62
7
  6
BYLAYER
 10
17.3303446429
 20
97.0237676561
 11
24.401383015
 21
101.1062091948
  0
LINE
  5
218
100
AcDbEntity
  8
0
100
AcDbLine
 62
7
  6
BYLAYER
 10
17.3303446429
 20
31.7035742857
 11
57.6355989763
 21
8.433851278
  0
LINE
  5
219
100
AcDbEntity
  8
0
100
AcDbLine
 62
7
  6
BYLAYER
 10
17.3374156813
 20
34.2543458573
 11
16.6303059561
 21
34.6625866118
  0
LINE
  5
21A
100
AcDbEntity
  8
0
100
AcDbLine
 62
7
  6
BYLAYER
 10
13.7507023862
 20
40.2258650512
 11
13.7575870552
 21
39.4486886586
  0
LINE
  5
21B
100
AcDbEntity
  8
0
100
AcDbLine
 62
7
  6
BYLAYER
 10
27.9369905201
 20
77.8361176642
 11
31.4725696934
 21
79.877373067
  0
LINE
  5
21C
100
AcDbEntity
  8
0
100
AcDbLine
 62
7
  6
BYLAYER
 10
14.5858898765
 20
37.6506961549
 11
16.6303059561
 21
36.4703786833
  0
LINE
  5
21D
100
AcDbEntity
  8
0
100
AcDbLine
 62
7
  6
BYLAYER
 10
17.3374156813
 20
38.9589966027
 11
16.6303059561
 21
39.3672373572
  0
LINE
  5
21E
100
AcDbEntity
  8
0
100
AcDbLine
 62
7
  6
BYLAYER
 10
16.6303059561
 20
34.6625866118
 11
16.6303059561
 21
39.3672373572
  0
LINE
  5
21F
100
AcDbEntity
  8
0
100
AcDbLine
 62
7
  6
BYLAYER
 10
17.3303446429
 20
97.0237676561
 11
17.3303446429
 21
88.0422410676
  0
LINE
  5
220
100
AcDbEntity
  8
0
100
AcDbLine
 62
7
  6
BYLAYER
 10
17.3303446429
 20
47.2171202112
 11
17.3303446429
 21
31.7035742857
  0
LINE
  5
221
100
AcDbEntity
  8
0
100
AcDbLine
 62
7
  6
BYLAYER
 10
17.6838995055
 20
87.8381206904
 11
17.6838995055
 21
47.0129998339
  0
LINE
  5
222
100
AcDbEntity
  8
0
100
AcDbLine
 62
7
  6
BYLAYER
 10
56.9284892511
 20
24.355637958
 11
31.4725391458
 21
39.0523051207
  0
LINE
  5
223
100
AcDbEntity
  8
0
100
AcDbLine
 62
7
  6
BYLAYER
 10
17.6838995055
 20
47.0129998339
 11
17.3303446429
 21
47.2171202112
  0
LINE
  5
224
100
AcDbEntity
  8
0
100
AcDbLine
 62
7
  6
BYLAYER
 10
27.9369905201
 20
45.176020979
 11
27.9369905201
 21
77.8361176642
  0
LINE
  5
225
100
AcDbEntity
  8
0
100
AcDbLine
 62
7
  6
BYLAYER
 10
63.9995276233
 20
28.4380794967
 11
38.543577518
 21
43.1347466595
  0
LINE
  5
226
100
AcDbEntity
  8
0
100
AcDbLine
 62
7
  6
BYLAYER
 10
16.6303059561
 20
39.3672373572
 11
17.3303446429
 21
40.2381002057
  0
LINE
  5
227
100
AcDbEntity
  8
0
100
AcDbLine
 62
7
  6
BYLAYER
 10
57.6355989763
 20
73.7540446484
 11
64.7066373484
 21
77.8364861871
  0
LINE
  5
228
100
AcDbEntity
  8
0
100
AcDbLine
 62
7
  6
BYLAYER
 10
35.0080288922
 20
77.8362561979
 11
35.0080288922
 21
49.2584625177
  0
LINE
  5
229
100
AcDbEntity
  8
0
100
AcDbLine
 62
7
  6
BYLAYER
 10
17.3303446429
 20
47.2171202112
 11
17.6838995055
 21
47.4212439878
  0
LINE
  5
22A
100
AcDbEntity
  8
0
100
AcDbLine
 62
7
  6
BYLAYER
 10
56.9284892511
 20
65.1807588145
 11
64.7066373484
 21
69.6714620158
  0
LINE
  5
22B
100
AcDbEntity
  8
0
100
AcDbLine
 62
7
  6
BYLAYER
 10
16.5858559424
 20
44.3808270301
 11
16.6145669732
 21
44.3972349813
  0
LINE
  5
22C
100
AcDbEntity
  8
0
100
AcDbLine
 62
7
  6
BYLAYER
 10
15.9160957529
 20
44.0020334919
 11
16.6145669732
 21
44.3972349813
  0
LINE
  5
22D
100
AcDbEntity
  8
0
100
AcDbLine
 62
7
  6
BYLAYER
 10
57.6355989763
 20
23.1308947864
 11
56.9284892511
 21
24.355637958
  0
LINE
  5
22E
100
AcDbEntity
  8
0
100
AcDbLine
 62
7
  6
BYLAYER
 10
35.0080288922
 20
49.2584625177
 11
27.9369905201
 21
45.176020979
  0
LINE
  5
22F
100
AcDbEntity
  8
0
100
AcDbLine
 62
7
  6
BYLAYER
 10
31.4725391458
 20
39.0523051207
 11
38.543577518
 21
43.1347466595
  0
LINE
  5
230
100
AcDbEntity
  8
0
100
AcDbLine
 62
7
  6
BYLAYER
 10
63.9995276233
 20
28.4380794967
 11
64.7066373484
 21
27.2133363251
  0
LINE
  5
231
100
AcDbEntity
  8
0
100
AcDbLine
 62
7
  6
BYLAYER
 10
17.3303446429
 20
88.0422410676
 11
17.6838995055
 21
87.8381206904
  0
LINE
  5
232
100
AcDbEntity
  8
0
100
AcDbLine
 62
7
  6
BYLAYER
 10
31.4725391458
 20
79.8774259772
 11
56.9284892511
 21
65.1807588145
  0
LINE
  5
233
100
AcDbEntity
  8
0
100
AcDbLine
 62
7
  6
BYLAYER
 10
57.6355989763
 20
8.433851278
 11
57.6355989763
 21
23.1308947864
  0
LINE
  5
234
100
AcDbEntity
  8
0
100
AcDbLine
 62
7
  6
BYLAYER
 10
57.6355989763
 20
65.5890204771
 11
57.6355989763
 21
73.7540446484
  0
LINE
  5
235
100
AcDbEntity
  8
0
100
AcDbLine
 62
7
  6
BYLAYER
 10
64.7066373484
 20
12.5162928167
 11
64.7066373484
 21
27.2133363251
  0
LINE
  5
236
100
AcDbEntity
  8
0
100
AcDbLine
 62
7
  6
BYLAYER
 10
64.7066373484
 20
69.6714620158
 11
64.7066373484
 21
77.8364861871
  0
LINE
  5
237
100
AcDbEntity
  8
0
100
AcDbLine
 62
7
  6
BYLAYER
 10
57.6355989763
 20
73.7540446484
 11
17.3303446429
 21
97.0237676561
  0
LINE
  5
238
100
AcDbEntity
  8
0
100
AcDbLine
 62
7
  6
BYLAYER
 10
56.9284892511
 20
24.355637958
 11
63.9995276233
 21
28.4380794967
  0
LINE
  5
239
100
AcDbEntity
  8
0
100
AcDbLine
 62
7
  6
BYLAYER
 10
64.7066373484
 20
77.8364861871
 11
24.401383015
 21
101.1062091948
  0
LINE
  5
23A
100
AcDbEntity
  8
0
100
AcDbLine
 62
7
  6
BYLAYER
 10
57.6355989763
 20
23.1308947864
 11
64.7066373484
 21
27.2133363251
  0
LINE
  5
23B
100
AcDbEntity
  8
0
100
AcDbLine
 62
7
  6
BYLAYER
 10
57.6355989763
 20
8.433851278
 11
64.7066373484
 21
12.5162928167
  0
ARC
  5
23C
100
AcDbEntity
  8
0
100
AcDbCircle
 62
7
  6
BYLAYER
 10
60.0084506236
 20
27.0011963536
 40
0.5421791324
100
AcDbArc
 50
13.4078072304
 51
18.6356850097
  0
SPLINE
  5
23D
100
AcDbEntity
  8
0
100
AcDbSpline
 62
7
  6
BYLAYER
 70
0
 71
3
 72
18
 73
14
 74
0
 42
0.0000001
 43
0.0000001
 44
0.0000000001
 40
0.0
 40
0.0
 40
0.0
 40
0.0
 40
0.0428472499
 40
0.0874631197
 40
0.13528251
 40
0.1872316014
 40
0.2437213921
 40
0.3047231359
 40
0.4383515521
 40
0.582655767
 40
0.7297791381
 40
0.8713440339
 40
1.0
 40
1.0
 40
1.0
 40
1.0
 10
19.8659148713
 20
42.0089258761
 30
0.0
 10
19.9152081261
 20
42.0374141454
 30
0.0
 10
20.0239037072
 20
42.082573984
 30
0.0
 10
20.2033090886
 20
42.1088901678
 30
0.0
 10
20.3959667795
 20
42.094678281
 30
0.0
 10
20.5975999849
 20
42.0411378499
 30
0.0
 10
20.8042425412
 20
41.9497925731
 30
0.0
 10
21.0895338941
 20
41.7752256043
 30
0.0
 10
21.4293731315
 20
41.4742410088
 30
0.0
 10
21.7786395832
 20
41.0271188877
 30
0.0
 10
22.053786073
 20
40.5186228118
 30
0.0
 10
22.2322739338
 20
39.9908405855
 30
0.0
 10
22.2801127189
 20
39.6313722452
 30
0.0
 10
22.2801127189
 20
39.4604204267
 30
0.0
  0
SPLINE
  5
23E
100
AcDbEntity
  8
0
100
AcDbSpline
 62
7
  6
BYLAYER
 70
0
 71
3
 72
18
 73
14
 74
0
 42
0.0000001
 43
0.0000001
 44
0.0000000001
 40
0.0
 40
0.0
 40
0.0
 40
0.0
 40
0.0428472499
 40
0.0874631197
 40
0.13528251
 40
0.1872316014
 40
0.2437213921
 40
0.3047231359
 40
0.4383515521
 40
0.582655767
 40
0.7297791381
 40
0.8713440339
 40
1.0
 40
1.0
 40
1.0
 40
1.0
 10
19.8659148713
 20
50.9904524645
 30
0.0
 10
19.9152081261
 20
51.0189407339
 30
0.0
 10
20.0239037072
 20
51.0641005724
 30
0.0
 10
20.2033090886
 20
51.0904167562
 30
0.0
 10
20.3959667795
 20
51.0762048694
 30
0.0
 10
20.5975999849
 20
51.0226644383
 30
0.0
 10
20.8042425412
 20
50.9313191615
 30
0.0
 10
21.0895338941
 20
50.7567521927
 30
0.0
 10
21.4293731315
 20
50.4557675972
 30
0.0
 10
21.7786395832
 20
50.0086454762
 30
0.0
 10
22.053786073
 20
49.5001494003
 30
0.0
 10
22.2322739338
 20
48.9723671739
 30
0.0
 10
22.2801127189
 20
48.6128988337
 30
0.0
 10
22.2801127189
 20
48.4419470152
 30
0.0
  0
SPLINE
  5
23F
100
AcDbEntity
  8
0
100
AcDbSpline
 62
7
  6
BYLAYER
 70
0
 71
3
 72
18
 73
14
 74
0
 42
0.0000001
 43
0.0000001
 44
0.0000000001
 40
0.0
 40
0.0
 40
0.0
 40
0.0
 40
0.0428472499
 40
0.0874631197
 40
0.13528251
 40
0.1872316014
 40
0.2437213921
 40
0.3047231359
 40
0.4383515521
 40
0.582655767
 40
0.7297791381
 40
0.8713440339
 40
1.0
 40
1.0
 40
1.0
 40
1.0
 10
19.8659148713
 20
77.1185298127
 30
0.0
 10
19.9152081261
 20
77.147018082
 30
0.0
 10
20.0239037072
 20
77.1921779206
 30
0.0
 10
20.2033090886
 20
77.2184941044
 30
0.0
 10
20.3959667795
 20
77.2042822176
 30
0.0
 10
20.5975999849
 20
77.1507417865
 30
0.0
 10
20.8042425412
 20
77.0593965097
 30
0.0
 10
21.0895338941
 20
76.8848295409
 30
0.0
 10
21.4293731315
 20
76.5838449453
 30
0.0
 10
21.7786395832
 20
76.1367228243
 30
0.0
 10
22.053786073
 20
75.6282267484
 30
0.0
 10
22.2322739338
 20
75.1004445221
 30
0.0
 10
22.2801127189
 20
74.7409761818
 30
0.0
 10
22.2801127189
 20
74.5700243633
 30
0.0
  0
SPLINE
  5
240
100
AcDbEntity
  8
0
100
AcDbSpline
 62
7
  6
BYLAYER
 70
0
 71
3
 72
18
 73
14
 74
0
 42
0.0000001
 43
0.0000001
 44
0.0000000001
 40
0.0
 40
0.0
 40
0.0
 40
0.0
 40
0.0428472499
 40
0.0874631197
 40
0.13528251
 40
0.1872316014
 40
0.2437213921
 40
0.3047231359
 40
0.4383515521
 40
0.582655767
 40
0.7297791381
 40
0.8713440339
 40
1.0
 40
1.0
 40
1.0
 40
1.0
 10
19.8659148713
 20
83.6505491497
 30
0.0
 10
19.9152081261
 20
83.679037419
 30
0.0
 10
20.0239037072
 20
83.7241972576
 30
0.0
 10
20.2033090886
 20
83.7505134414
 30
0.0
 10
20.3959667795
 20
83.7363015546
 30
0.0
 10
20.5975999849
 20
83.6827611235
 30
0.0
 10
20.8042425412
 20
83.5914158467
 30
0.0
 10
21.0895338941
 20
83.4168488779
 30
0.0
 10
21.4293731315
 20
83.1158642824
 30
0.0
 10
21.7786395832
 20
82.6687421614
 30
0.0
 10
22.053786073
 20
82.1602460855
 30
0.0
 10
22.2322739338
 20
81.6324638591
 30
0.0
 10
22.2801127189
 20
81.2729955188
 30
0.0
 10
22.2801127189
 20
81.1020437003
 30
0.0
  0
SPLINE
  5
241
100
AcDbEntity
  8
0
100
AcDbSpline
 62
7
  6
BYLAYER
 70
0
 71
3
 72
18
 73
14
 74
0
 42
0.0000001
 43
0.0000001
 44
0.0000000001
 40
0.0
 40
0.0
 40
0.0
 40
0.0
 40
0.0428472499
 40
0.0874631197
 40
0.13528251
 40
0.1872316014
 40
0.2437213921
 40
0.3047231359
 40
0.4383515521
 40
0.582655767
 40
0.7297791381
 40
0.8713440339
 40
1.0
 40
1.0
 40
1.0
 40
1.0
 10
50.2716330526
 20
24.4545734317
 30
0.0
 10
50.3209263074
 20
24.4830617011
 30
0.0
 10
50.4296218885
 20
24.5282215396
 30
0.0
 10
50.6090272699
 20
24.5545377234
 30
0.0
 10
50.8016849608
 20
24.5403258366
 30
0.0
 10
51.0033181662
 20
24.4867854055
 30
0.0
 10
51.2099607225
 20
24.3954401287
 30
0.0
 10
51.4952520754
 20
24.2208731599
 30
0.0
 10
51.8350913128
 20
23.9198885644
 30
0.0
 10
52.1843577645
 20
23.4727664434
 30
0.0
 10
52.4595042543
 20
22.9642703675
 30
0.0
 10
52.6379921152
 20
22.4364881411
 30
0.0
 10
52.6858309003
 20
22.0770198009
 30
0.0
 10
52.6858309003
 20
21.9060679824
 30
0.0
  0
SPLINE
  5
242
100
AcDbEntity
  8
0
100
AcDbSpline
 62
7
  6
BYLAYER
 70
0
 71
3
 72
11
 73
7
 74
0
 42
0.0000001
 43
0.0000001
 44
0.0000000001
 40
0.0
 40
0.0
 40
0.0
 40
0.0
 40
0.2896359344
 40
0.5491027565
 40
0.7822319971
 40
1.0
 40
1.0
 40
1.0
 40
1.0
 10
52.6858309003
 20
21.9060679824
 30
0.0
 10
52.6858309003
 20
21.8047557784
 30
0.0
 10
52.6704307809
 20
21.6120348232
 30
0.0
 10
52.592423366
 20
21.3472422941
 30
0.0
 10
52.4610321339
 20
21.1323189666
 30
0.0
 10
52.3375412653
 20
21.0286411465
 30
0.0
 10
52.2715898473
 20
20.9905255511
 30
0.0
  0
SPLINE
  5
243
100
AcDbEntity
  8
0
100
AcDbSpline
 62
7
  6
BYLAYER
 70
0
 71
3
 72
11
 73
7
 74
0
 42
0.0000001
 43
0.0000001
 44
0.0000000001
 40
0.0
 40
0.0
 40
0.0
 40
0.0
 40
0.2896359344
 40
0.5491027565
 40
0.7822319971
 40
1.0
 40
1.0
 40
1.0
 40
1.0
 10
22.2801127189
 20
81.1020437003
 30
0.0
 10
22.2801127189
 20
81.0007314964
 30
0.0
 10
22.2647125996
 20
80.8080105412
 30
0.0
 10
22.1867051847
 20
80.5432180121
 30
0.0
 10
22.0553139526
 20
80.3282946846
 30
0.0
 10
21.931823084
 20
80.2246168645
 30
0.0
 10
21.865871666
 20
80.1865012691
 30
0.0
  0
SPLINE
  5
244
100
AcDbEntity
  8
0
100
AcDbSpline
 62
7
  6
BYLAYER
 70
0
 71
3
 72
11
 73
7
 74
0
 42
0.0000001
 43
0.0000001
 44
0.0000000001
 40
0.0
 40
0.0
 40
0.0
 40
0.0
 40
0.2896359344
 40
0.5491027565
 40
0.7822319971
 40
1.0
 40
1.0
 40
1.0
 40
1.0
 10
22.2801127189
 20
74.5700243633
 30
0.0
 10
22.2801127189
 20
74.4687121594
 30
0.0
 10
22.2647125996
 20
74.2759912041
 30
0.0
 10
22.1867051847
 20
74.0111986751
 30
0.0
 10
22.0553139526
 20
73.7962753475
 30
0.0
 10
21.931823084
 20
73.6925975274
 30
0.0
 10
21.865871666
 20
73.654481932
 30
0.0
  0
SPLINE
  5
245
100
AcDbEntity
  8
0
100
AcDbSpline
 62
7
  6
BYLAYER
 70
0
 71
3
 72
11
 73
7
 74
0
 42
0.0000001
 43
0.0000001
 44
0.0000000001
 40
0.0
 40
0.0
 40
0.0
 40
0.0
 40
0.2896359344
 40
0.5491027565
 40
0.7822319971
 40
1.0
 40
1.0
 40
1.0
 40
1.0
 10
22.2801127189
 20
48.4419470152
 30
0.0
 10
22.2801127189
 20
48.3406348112
 30
0.0
 10
22.2647125996
 20
48.147913856
 30
0.0
 10
22.1867051847
 20
47.8831213269
 30
0.0
 10
22.0553139526
 20
47.6681979994
 30
0.0
 10
21.931823084
 20
47.5645201793
 30
0.0
 10
21.865871666
 20
47.5264045839
 30
0.0
  0
SPLINE
  5
246
100
AcDbEntity
  8
0
100
AcDbSpline
 62
7
  6
BYLAYER
 70
0
 71
3
 72
11
 73
7
 74
0
 42
0.0000001
 43
0.0000001
 44
0.0000000001
 40
0.0
 40
0.0
 40
0.0
 40
0.0
 40
0.2896359344
 40
0.5491027565
 40
0.7822319971
 40
1.0
 40
1.0
 40
1.0
 40
1.0
 10
22.2801127189
 20
39.4604204267
 30
0.0
 10
22.2801127189
 20
39.3591082228
 30
0.0
 10
22.2647125996
 20
39.1663872675
 30
0.0
 10
22.1867051847
 20
38.9015947385
 30
0.0
 10
22.0553139526
 20
38.6866714109
 30
0.0
 10
21.931823084
 20
38.5829935909
 30
0.0
 10
21.865871666
 20
38.5448779954
 30
0.0
  0
SPLINE
  5
247
100
AcDbEntity
  8
0
100
AcDbSpline
 62
7
  6
BYLAYER
 70
0
 71
3
 72
15
 73
11
 74
0
 42
0.0000001
 43
0.0000001
 44
0.0000000001
 40
0.0
 40
0.0
 40
0.0
 40
0.0
 40
0.1141474765
 40
0.2373368178
 40
0.3669776594
 40
0.5000010819
 40
0.633024354
 40
0.7626647561
 40
0.8858534048
 40
1.0
 40
1.0
 40
1.0
 40
1.0
 10
35.0080288922
 20
49.2584625177
 30
0.0
 10
35.0080288922
 20
48.9790024311
 30
0.0
 10
35.0592528516
 20
48.397407554
 30
0.0
 10
35.263272308
 20
47.5200213208
 30
0.0
 10
35.5902544027
 20
46.6313189933
 30
0.0
 10
36.0277336862
 20
45.7646947407
 30
0.0
 10
36.5595159284
 20
44.9525178583
 30
0.0
 10
37.1656654999
 20
44.224997472
 30
0.0
 10
37.8234948708
 20
43.6096258424
 30
0.0
 10
38.3015584834
 20
43.2744732532
 30
0.0
 10
38.543577518
 20
43.1347466595
 30
0.0
  0
SPLINE
  5
248
100
AcDbEntity
  8
0
100
AcDbSpline
 62
7
  6
BYLAYER
 70
0
 71
3
 72
9
 73
5
 74
0
 42
0.0000001
 43
0.0000001
 44
0.0000000001
 40
0.0
 40
0.0
 40
0.0
 40
0.0
 40
0.2473109588
 40
1.0
 40
1.0
 40
1.0
 40
1.0
 10
60.5497575442
 20
27.2133403376
 30
0.0
 10
60.5497516634
 20
27.1985355135
 30
0.0
 10
60.547091398
 20
27.1386894001
 30
0.0
 10
60.533625689
 20
27.0794289333
 30
0.0
 10
60.518367956
 20
27.0370324867
 30
0.0
  0
SPLINE
  5
249
100
AcDbEntity
  8
0
100
AcDbSpline
 62
7
  6
BYLAYER
 70
0
 71
3
 72
10
 73
6
 74
0
 42
0.0000001
 43
0.0000001
 44
0.0000000001
 40
0.0
 40
0.0
 40
0.0
 40
0.0
 40
0.4584940178
 40
0.7186342885
 40
1.0
 40
1.0
 40
1.0
 40
1.0
 10
60.518367956
 20
27.0370324867
 30
0.0
 10
60.4869517035
 20
26.9497365912
 30
0.0
 10
60.402824323
 20
26.8247948831
 30
0.0
 10
60.2515404909
 20
26.6902164807
 30
0.0
 10
60.1597605841
 20
26.6294463499
 30
0.0
 10
60.1104535746
 20
26.6009791046
 30
0.0
  0
SPLINE
  5
24A
100
AcDbEntity
  8
0
100
AcDbSpline
 62
7
  6
BYLAYER
 70
0
 71
3
 72
14
 73
10
 74
0
 42
0.0000001
 43
0.0000001
 44
0.0000000001
 40
0.0
 40
0.0
 40
0.0
 40
0.0
 40
0.108046144
 40
0.2181359093
 40
0.3321085861
 40
0.4514831362
 40
0.5774302378
 40
0.7107534897
 40
1.0
 40
1.0
 40
1.0
 40
1.0
 10
28.9725687149
 20
80.1250155424
 30
0.0
 10
29.0545428185
 20
80.1723430336
 30
0.0
 10
29.2285746797
 20
80.2538962998
 30
0.0
 10
29.5102210369
 20
80.3316810824
 30
0.0
 10
29.8104068063
 20
80.3652145693
 30
0.0
 10
30.125979756
 20
80.3542637634
 30
0.0
 10
30.4540014595
 20
80.2992574126
 30
0.0
 10
30.9160992293
 20
80.1644605136
 30
0.0
 10
31.2530882557
 20
80.0041231414
 30
0.0
 10
31.4725391458
 20
79.8774259772
 30
0.0
  0
SPLINE
  5
24B
100
AcDbEntity
  8
0
100
AcDbSpline
 62
7
  6
BYLAYER
 70
0
 71
3
 72
13
 73
9
 74
0
 42
0.0000001
 43
0.0000001
 44
0.0000000001
 40
0.0
 40
0.0
 40
0.0
 40
0.0
 40
0.1083936581
 40
0.2187815194
 40
0.3329766641
 40
0.4524894555
 40
0.7111742352
 40
1.0
 40
1.0
 40
1.0
 40
1.0
 10
14.5859012346
 20
37.650715828
 30
0.0
 10
14.5211729862
 20
37.6880864828
 30
0.0
 10
14.3966461262
 20
37.7747194491
 30
0.0
 10
14.2318373213
 20
37.9359448707
 30
0.0
 10
14.0896179196
 20
38.1270132654
 30
0.0
 10
13.9278053904
 20
38.42665718
 30
0.0
 10
13.7926384955
 20
38.8711553784
 30
0.0
 10
13.7593583252
 20
39.2495402874
 30
0.0
 10
13.7575876213
 20
39.4486889921
 30
0.0
  0
SPLINE
  5
24C
100
AcDbEntity
  8
0
100
AcDbSpline
 62
7
  6
BYLAYER
 70
0
 71
3
 72
9
 73
5
 74
0
 42
0.0000001
 43
0.0000001
 44
0.0000000001
 40
0.0
 40
0.0
 40
0.0
 40
0.0
 40
0.2636698379
 40
1.0
 40
1.0
 40
1.0
 40
1.0
 10
16.6145669617
 20
44.397233674
 30
0.0
 10
16.6753595175
 20
44.431614186
 30
0.0
 10
16.9094845915
 20
44.5553891128
 30
0.0
 10
17.1588791555
 20
44.6519632518
 30
0.0
 10
17.3479038314
 20
44.7000256717
 30
0.0
  0
SPLINE
  5
24D
100
AcDbEntity
  8
0
100
AcDbSpline
 62
7
  6
BYLAYER
 70
0
 71
3
 72
17
 73
13
 74
0
 42
0.0000001
 43
0.0000001
 44
0.0000000001
 40
0.0
 40
0.0
 40
0.0
 40
0.0
 40
0.1246192356
 40
0.2612652608
 40
0.4040397335
 40
0.5461447263
 40
0.6808546098
 40
0.802625097
 40
0.857681239
 40
0.9086659221
 40
0.9558802134
 40
1.0
 40
1.0
 40
1.0
 40
1.0
 10
60.1104535746
 20
26.6009791046
 30
0.0
 10
60.0089210126
 20
26.5423596025
 30
0.0
 10
59.7807933398
 20
26.4453446715
 30
0.0
 10
59.4083322417
 20
26.3618504276
 30
0.0
 10
59.010900326
 20
26.3373313436
 30
0.0
 10
58.6161847521
 20
26.3735765117
 30
0.0
 10
58.2515354755
 20
26.468020978
 30
0.0
 10
57.9842137906
 20
26.5943684751
 30
0.0
 10
57.8104445443
 20
26.7208189982
 30
0.0
 10
57.7067469457
 20
26.8218326801
 30
0.0
 10
57.6272068675
 20
26.9303783122
 30
0.0
 10
57.5905648316
 20
27.0089152336
 30
0.0
 10
57.5773260289
 20
27.0482544431
 30
0.0
  0
SPLINE
  5
24E
100
AcDbEntity
  8
0
100
AcDbSpline
 62
7
  6
BYLAYER
 70
0
 71
3
 72
9
 73
5
 74
0
 42
0.0000001
 43
0.0000001
 44
0.0000000001
 40
0.0
 40
0.0
 40
0.0
 40
0.0
 40
0.2543035794
 40
1.0
 40
1.0
 40
1.0
 40
1.0
 10
57.5773260289
 20
27.0482544431
 30
0.0
 10
57.5727898647
 20
27.061733692
 30
0.0
 10
57.5569670574
 20
27.1153904684
 30
0.0
 10
57.5498038643
 20
27.1716366836
 30
0.0
 10
57.5498204297
 20
27.2133401352
 30
0.0
  0
SPLINE
  5
24F
100
AcDbEntity
  8
0
100
AcDbSpline
 62
7
  6
BYLAYER
 70
0
 71
3
 72
15
 73
11
 74
0
 42
0.0000001
 43
0.0000001
 44
0.0000000001
 40
0.0
 40
0.0
 40
0.0
 40
0.0
 40
0.1137550127
 40
0.2366902858
 40
0.3662647462
 40
0.4993434905
 40
0.6325213861
 40
0.7623493208
 40
0.8857350607
 40
1.0
 40
1.0
 40
1.0
 40
1.0
 10
13.7507307074
 20
40.2258817097
 30
0.0
 10
13.7492136649
 20
40.3974145549
 30
0.0
 10
13.7780311384
 20
40.7549442107
 30
0.0
 10
13.9005236128
 20
41.2950192209
 30
0.0
 10
14.0994508938
 20
41.8429139114
 30
0.0
 10
14.3672818883
 20
42.3777901441
 30
0.0
 10
14.6938849865
 20
42.8793935137
 30
0.0
 10
15.0668729138
 20
43.3288887069
 30
0.0
 10
15.4721358845
 20
43.7089724202
 30
0.0
 10
15.7668719839
 20
43.9158796229
 30
0.0
 10
15.9160957529
 20
44.0020334919
 30
0.0
  0
SPLINE
  5
250
100
AcDbEntity
  8
0
100
AcDbSpline
 62
7
  6
BYLAYER
 70
0
 71
3
 72
15
 73
11
 74
0
 42
0.0000001
 43
0.0000001
 44
0.0000000001
 40
0.0
 40
0.0
 40
0.0
 40
0.0
 40
0.1117256342
 40
0.2315840067
 40
0.3577815632
 40
0.4880864531
 40
0.6200048845
 40
0.7509497753
 40
0.8783711469
 40
1.0
 40
1.0
 40
1.0
 40
1.0
 10
13.7575876213
 20
39.4486889921
 30
0.0
 10
13.7558624257
 20
39.64271944
 30
0.0
 10
13.7836118351
 20
40.0455103662
 30
0.0
 10
13.904807853
 20
40.6563157993
 30
0.0
 10
14.1036211027
 20
41.2803463036
 30
0.0
 10
14.3743028369
 20
41.8994882275
 30
0.0
 10
14.7090418381
 20
42.4959090537
 30
0.0
 10
15.0981744876
 20
43.0523141741
 30
0.0
 10
15.530291843
 20
43.5526230883
 30
0.0
 10
15.8481060227
 20
43.8477568134
 30
0.0
 10
16.0117303969
 20
43.9813543725
 30
0.0
  0
SPLINE
  5
251
100
AcDbEntity
  8
0
100
AcDbSpline
 62
7
  6
BYLAYER
 70
0
 71
3
 72
9
 73
5
 74
0
 42
0.0000001
 43
0.0000001
 44
0.0000000001
 40
0.0
 40
0.0
 40
0.0
 40
0.0
 40
0.258663766
 40
1.0
 40
1.0
 40
1.0
 40
1.0
 10
16.0117303969
 20
43.9813543725
 30
0.0
 10
16.0584705725
 20
44.0195172282
 30
0.0
 10
16.2418450291
 20
44.1637135279
 30
0.0
 10
16.4360861983
 20
44.2943579442
 30
0.0
 10
16.5858559424
 20
44.3808270301
 30
0.0
  0
SPLINE
  5
252
100
AcDbEntity
  8
0
100
AcDbSpline
 62
7
  6
BYLAYER
 70
0
 71
3
 72
18
 73
14
 74
0
 42
0.0000001
 43
0.0000001
 44
0.0000000001
 40
0.0
 40
0.0
 40
0.0
 40
0.0
 40
0.0428472499
 40
0.0874631197
 40
0.13528251
 40
0.1872316014
 40
0.2437213921
 40
0.3047231359
 40
0.4383515521
 40
0.582655767
 40
0.7297791381
 40
0.8713440339
 40
1.0
 40
1.0
 40
1.0
 40
1.0
 10
52.2715898473
 20
20.9905255511
 30
0.0
 10
52.2222965925
 20
20.9620372817
 30
0.0
 10
52.1136010114
 20
20.9168774432
 30
0.0
 10
51.93419563
 20
20.8905612594
 30
0.0
 10
51.7415379391
 20
20.9047731462
 30
0.0
 10
51.5399047337
 20
20.9583135773
 30
0.0
 10
51.3332621774
 20
21.0496588541
 30
0.0
 10
51.0479708245
 20
21.2242258229
 30
0.0
 10
50.7081315871
 20
21.5252104184
 30
0.0
 10
50.3588651354
 20
21.9723325394
 30
0.0
 10
50.0837186456
 20
22.4808286153
 30
0.0
 10
49.9052307847
 20
23.0086108417
 30
0.0
 10
49.8573919997
 20
23.3680791819
 30
0.0
 10
49.8573919997
 20
23.5390310004
 30
0.0
  0
SPLINE
  5
253
100
AcDbEntity
  8
0
100
AcDbSpline
 62
7
  6
BYLAYER
 70
0
 71
3
 72
11
 73
7
 74
0
 42
0.0000001
 43
0.0000001
 44
0.0000000001
 40
0.0
 40
0.0
 40
0.0
 40
0.0
 40
0.2896359344
 40
0.5491027565
 40
0.7822319971
 40
1.0
 40
1.0
 40
1.0
 40
1.0
 10
19.4516738183
 20
50.0749100332
 30
0.0
 10
19.4516738183
 20
50.1762222372
 30
0.0
 10
19.4670739377
 20
50.3689431924
 30
0.0
 10
19.5450813526
 20
50.6337357215
 30
0.0
 10
19.6764725847
 20
50.848659049
 30
0.0
 10
19.7999634533
 20
50.9523368691
 30
0.0
 10
19.8659148713
 20
50.9904524645
 30
0.0
  0
SPLINE
  5
254
100
AcDbEntity
  8
0
100
AcDbSpline
 62
7
  6
BYLAYER
 70
0
 71
3
 72
18
 73
14
 74
0
 42
0.0000001
 43
0.0000001
 44
0.0000000001
 40
0.0
 40
0.0
 40
0.0
 40
0.0
 40
0.0428472499
 40
0.0874631197
 40
0.13528251
 40
0.1872316014
 40
0.2437213921
 40
0.3047231359
 40
0.4383515521
 40
0.582655767
 40
0.7297791381
 40
0.8713440339
 40
1.0
 40
1.0
 40
1.0
 40
1.0
 10
21.865871666
 20
38.5448779954
 30
0.0
 10
21.8165784112
 20
38.5163897261
 30
0.0
 10
21.7078828301
 20
38.4712298875
 30
0.0
 10
21.5284774487
 20
38.4449137037
 30
0.0
 10
21.3358197578
 20
38.4591255906
 30
0.0
 10
21.1341865524
 20
38.5126660216
 30
0.0
 10
20.9275439961
 20
38.6040112984
 30
0.0
 10
20.6422526432
 20
38.7785782672
 30
0.0
 10
20.3024134058
 20
39.0795628628
 30
0.0
 10
19.9531469541
 20
39.5266849838
 30
0.0
 10
19.6780004643
 20
40.0351810597
 30
0.0
 10
19.4995126034
 20
40.562963286
 30
0.0
 10
19.4516738183
 20
40.9224316263
 30
0.0
 10
19.4516738183
 20
41.0933834448
 30
0.0
  0
SPLINE
  5
255
100
AcDbEntity
  8
0
100
AcDbSpline
 62
7
  6
BYLAYER
 70
0
 71
3
 72
11
 73
7
 74
0
 42
0.0000001
 43
0.0000001
 44
0.0000000001
 40
0.0
 40
0.0
 40
0.0
 40
0.0
 40
0.2896359344
 40
0.5491027565
 40
0.7822319971
 40
1.0
 40
1.0
 40
1.0
 40
1.0
 10
19.4516738183
 20
41.0933834448
 30
0.0
 10
19.4516738183
 20
41.1946956488
 30
0.0
 10
19.4670739377
 20
41.387416604
 30
0.0
 10
19.5450813526
 20
41.652209133
 30
0.0
 10
19.6764725847
 20
41.8671324606
 30
0.0
 10
19.7999634533
 20
41.9708102807
 30
0.0
 10
19.8659148713
 20
42.0089258761
 30
0.0
  0
SPLINE
  5
256
100
AcDbEntity
  8
0
100
AcDbSpline
 62
7
  6
BYLAYER
 70
0
 71
3
 72
11
 73
7
 74
0
 42
0.0000001
 43
0.0000001
 44
0.0000000001
 40
0.0
 40
0.0
 40
0.0
 40
0.0
 40
0.2177648073
 40
0.4508950352
 40
0.7103684932
 40
1.0
 40
1.0
 40
1.0
 40
1.0
 10
57.5498204297
 20
27.2133401352
 30
0.0
 10
57.5498431216
 20
27.2704673931
 30
0.0
 10
57.5708649215
 20
27.389553564
 30
0.0
 10
57.6611909053
 20
27.555486083
 30
0.0
 10
57.8039257746
 20
27.7054415684
 30
0.0
 10
57.9233233526
 20
27.787711343
 30
0.0
 10
57.9891243992
 20
27.8257013682
 30
0.0
  0
SPLINE
  5
257
100
AcDbEntity
  8
0
100
AcDbSpline
 62
7
  6
BYLAYER
 70
0
 71
3
 72
17
 73
13
 74
0
 42
0.0000001
 43
0.0000001
 44
0.0000000001
 40
0.0
 40
0.0
 40
0.0
 40
0.0
 40
0.0441193168
 40
0.091335701
 40
0.1423216268
 40
0.1973797974
 40
0.3191493863
 40
0.4538551679
 40
0.5959596091
 40
0.7387357698
 40
0.8753845395
 40
1.0
 40
1.0
 40
1.0
 40
1.0
 10
60.5222030718
 20
27.1744494446
 30
0.0
 10
60.5089555321
 20
27.2137828206
 30
0.0
 10
60.4722965373
 20
27.2923084374
 30
0.0
 10
60.3927316684
 20
27.4008291654
 30
0.0
 10
60.2890268979
 20
27.5018305543
 30
0.0
 10
60.1152445206
 20
27.6282471118
 30
0.0
 10
59.8479347366
 20
27.7545693012
 30
0.0
 10
59.4833055904
 20
27.8489890434
 30
0.0
 10
59.0886143059
 20
27.8852201967
 30
0.0
 10
58.6912010311
 20
27.8606974726
 30
0.0
 10
58.318761481
 20
27.7772006725
 30
0.0
 10
58.0906482621
 20
27.6801902436
 30
0.0
 10
57.9891243992
 20
27.6215757639
 30
0.0
  0
SPLINE
  5
258
100
AcDbEntity
  8
0
100
AcDbSpline
 62
7
  6
BYLAYER
 70
0
 71
3
 72
18
 73
14
 74
0
 42
0.0000001
 43
0.0000001
 44
0.0000000001
 40
0.0
 40
0.0
 40
0.0
 40
0.0
 40
0.0428472499
 40
0.0874631197
 40
0.13528251
 40
0.1872316014
 40
0.2437213921
 40
0.3047231359
 40
0.4383515521
 40
0.582655767
 40
0.7297791381
 40
0.8713440339
 40
1.0
 40
1.0
 40
1.0
 40
1.0
 10
21.865871666
 20
47.5264045839
 30
0.0
 10
21.8165784112
 20
47.4979163145
 30
0.0
 10
21.7078828301
 20
47.452756476
 30
0.0
 10
21.5284774487
 20
47.4264402922
 30
0.0
 10
21.3358197578
 20
47.440652179
 30
0.0
 10
21.1341865524
 20
47.4941926101
 30
0.0
 10
20.9275439961
 20
47.5855378869
 30
0.0
 10
20.6422526432
 20
47.7601048557
 30
0.0
 10
20.3024134058
 20
48.0610894512
 30
0.0
 10
19.9531469541
 20
48.5082115722
 30
0.0
 10
19.6780004643
 20
49.0167076481
 30
0.0
 10
19.4995126034
 20
49.5444898745
 30
0.0
 10
19.4516738183
 20
49.9039582147
 30
0.0
 10
19.4516738183
 20
50.0749100332
 30
0.0
  0
SPLINE
  5
259
100
AcDbEntity
  8
0
100
AcDbSpline
 62
7
  6
BYLAYER
 70
0
 71
3
 72
10
 73
6
 74
0
 42
0.0000001
 43
0.0000001
 44
0.0000000001
 40
0.0
 40
0.0
 40
0.0
 40
0.0
 40
0.2813839899
 40
0.5415264295
 40
1.0
 40
1.0
 40
1.0
 40
1.0
 10
57.9891243992
 20
27.6215757639
 30
0.0
 10
57.9398057317
 20
27.5931017879
 30
0.0
 10
57.8480068238
 20
27.5323180279
 30
0.0
 10
57.6967044931
 20
27.3977084976
 30
0.0
 10
57.6125757992
 20
27.2727369857
 30
0.0
 10
57.5811742467
 20
27.1854232935
 30
0.0
  0
SPLINE
  5
25A
100
AcDbEntity
  8
0
100
AcDbSpline
 62
7
  6
BYLAYER
 70
0
 71
3
 72
18
 73
14
 74
0
 42
0.0000001
 43
0.0000001
 44
0.0000000001
 40
0.0
 40
0.0
 40
0.0
 40
0.0
 40
0.0428472499
 40
0.0874631197
 40
0.13528251
 40
0.1872316014
 40
0.2437213921
 40
0.3047231359
 40
0.4383515521
 40
0.582655767
 40
0.7297791381
 40
0.8713440339
 40
1.0
 40
1.0
 40
1.0
 40
1.0
 10
21.865871666
 20
73.654481932
 30
0.0
 10
21.8165784112
 20
73.6259936627
 30
0.0
 10
21.7078828301
 20
73.5808338241
 30
0.0
 10
21.5284774487
 20
73.5545176403
 30
0.0
 10
21.3358197578
 20
73.5687295271
 30
0.0
 10
21.1341865524
 20
73.6222699582
 30
0.0
 10
20.9275439961
 20
73.713615235
 30
0.0
 10
20.6422526432
 20
73.8881822038
 30
0.0
 10
20.3024134058
 20
74.1891667993
 30
0.0
 10
19.9531469541
 20
74.6362889204
 30
0.0
 10
19.6780004643
 20
75.1447849963
 30
0.0
 10
19.4995126034
 20
75.6725672226
 30
0.0
 10
19.4516738183
 20
76.0320355629
 30
0.0
 10
19.4516738183
 20
76.2029873814
 30
0.0
  0
SPLINE
  5
25B
100
AcDbEntity
  8
0
100
AcDbSpline
 62
7
  6
BYLAYER
 70
0
 71
3
 72
14
 73
10
 74
0
 42
0.0000001
 43
0.0000001
 44
0.0000000001
 40
0.0
 40
0.0
 40
0.0
 40
0.0
 40
0.2892474877
 40
0.422571007
 40
0.5485181942
 40
0.667892638
 40
0.7818650293
 40
0.8919543638
 40
1.0
 40
1.0
 40
1.0
 40
1.0
 10
27.9369905201
 20
77.8361176642
 30
0.0
 10
27.9369905201
 20
78.0895239367
 30
0.0
 10
27.9666261279
 20
78.4615450619
 30
0.0
 10
28.0809369105
 20
78.9291465479
 30
0.0
 10
28.1973117839
 20
79.2407342717
 30
0.0
 10
28.3456168773
 20
79.5195119524
 30
0.0
 10
28.5247541663
 20
79.7627202968
 30
0.0
 10
28.7329457283
 20
79.9677456415
 30
0.0
 10
28.8905928006
 20
80.0776870058
 30
0.0
 10
28.9725687149
 20
80.1250155424
 30
0.0
  0
SPLINE
  5
25C
100
AcDbEntity
  8
0
100
AcDbSpline
 62
7
  6
BYLAYER
 70
0
 71
3
 72
15
 73
11
 74
0
 42
0.0000001
 43
0.0000001
 44
0.0000000001
 40
0.0
 40
0.0
 40
0.0
 40
0.0
 40
0.1141465952
 40
0.2373352439
 40
0.366975646
 40
0.4999989181
 40
0.6330223406
 40
0.7626631822
 40
0.8858525235
 40
1.0
 40
1.0
 40
1.0
 40
1.0
 10
31.4725391458
 20
39.0523051207
 30
0.0
 10
31.2305201113
 20
39.1920317145
 30
0.0
 10
30.7524564986
 20
39.5271843037
 30
0.0
 10
30.0946271278
 20
40.1425559333
 30
0.0
 10
29.4884775562
 20
40.8700763196
 30
0.0
 10
28.9566953141
 20
41.6822532019
 30
0.0
 10
28.5192160306
 20
42.5488774546
 30
0.0
 10
28.1922339359
 20
43.4375797821
 30
0.0
 10
27.9882144795
 20
44.3149660153
 30
0.0
 10
27.9369905201
 20
44.8965608924
 30
0.0
 10
27.9369905201
 20
45.176020979
 30
0.0
  0
SPLINE
  5
25D
100
AcDbEntity
  8
0
100
AcDbSpline
 62
7
  6
BYLAYER
 70
0
 71
3
 72
18
 73
14
 74
0
 42
0.0000001
 43
0.0000001
 44
0.0000000001
 40
0.0
 40
0.0
 40
0.0
 40
0.0
 40
0.0428472499
 40
0.0874631197
 40
0.13528251
 40
0.1872316014
 40
0.2437213921
 40
0.3047231359
 40
0.4383515521
 40
0.582655767
 40
0.7297791381
 40
0.8713440339
 40
1.0
 40
1.0
 40
1.0
 40
1.0
 10
21.865871666
 20
80.1865012691
 30
0.0
 10
21.8165784112
 20
80.1580129997
 30
0.0
 10
21.7078828301
 20
80.1128531611
 30
0.0
 10
21.5284774487
 20
80.0865369773
 30
0.0
 10
21.3358197578
 20
80.1007488642
 30
0.0
 10
21.1341865524
 20
80.1542892952
 30
0.0
 10
20.9275439961
 20
80.2456345721
 30
0.0
 10
20.6422526432
 20
80.4202015408
 30
0.0
 10
20.3024134058
 20
80.7211861364
 30
0.0
 10
19.9531469541
 20
81.1683082574
 30
0.0
 10
19.6780004643
 20
81.6768043333
 30
0.0
 10
19.4995126034
 20
82.2045865597
 30
0.0
 10
19.4516738183
 20
82.5640548999
 30
0.0
 10
19.4516738183
 20
82.7350067184
 30
0.0
  0
SPLINE
  5
25E
100
AcDbEntity
  8
0
100
AcDbSpline
 62
7
  6
BYLAYER
 70
0
 71
3
 72
11
 73
7
 74
0
 42
0.0000001
 43
0.0000001
 44
0.0000000001
 40
0.0
 40
0.0
 40
0.0
 40
0.0
 40
0.2896359344
 40
0.5491027565
 40
0.7822319971
 40
1.0
 40
1.0
 40
1.0
 40
1.0
 10
49.8573919997
 20
23.5390310004
 30
0.0
 10
49.8573919997
 20
23.6403432044
 30
0.0
 10
49.872792119
 20
23.8330641596
 30
0.0
 10
49.9507995339
 20
24.0978566887
 30
0.0
 10
50.082190766
 20
24.3127800162
 30
0.0
 10
50.2056816346
 20
24.4164578363
 30
0.0
 10
50.2716330526
 20
24.4545734317
 30
0.0
  0
SPLINE
  5
25F
100
AcDbEntity
  8
0
100
AcDbSpline
 62
7
  6
BYLAYER
 70
0
 71
3
 72
11
 73
7
 74
0
 42
0.0000001
 43
0.0000001
 44
0.0000000001
 40
0.0
 40
0.0
 40
0.0
 40
0.0
 40
0.2896359344
 40
0.5491027565
 40
0.7822319971
 40
1.0
 40
1.0
 40
1.0
 40
1.0
 10
19.4516738183
 20
82.7350067184
 30
0.0
 10
19.4516738183
 20
82.8363189224
 30
0.0
 10
19.4670739377
 20
83.0290398776
 30
0.0
 10
19.5450813526
 20
83.2938324066
 30
0.0
 10
19.6764725847
 20
83.5087557342
 30
0.0
 10
19.7999634533
 20
83.6124335543
 30
0.0
 10
19.8659148713
 20
83.6505491497
 30
0.0
  0
SPLINE
  5
260
100
AcDbEntity
  8
0
100
AcDbSpline
 62
7
  6
BYLAYER
 70
0
 71
3
 72
17
 73
13
 74
0
 42
0.0000001
 43
0.0000001
 44
0.0000000001
 40
0.0
 40
0.0
 40
0.0
 40
0.0
 40
0.128688448
 40
0.2702796817
 40
0.4174325464
 40
0.5617749928
 40
0.6954478191
 40
0.8127119577
 40
0.8646769781
 40
0.912510124
 40
0.9571398159
 40
1.0
 40
1.0
 40
1.0
 40
1.0
 10
57.9891243992
 20
27.8257013682
 30
0.0
 10
58.1001593325
 20
27.8898070342
 30
0.0
 10
58.35156257
 20
27.9935351737
 30
0.0
 10
58.76129481
 20
28.0755130907
 30
0.0
 10
59.1946624776
 20
28.0875097587
 30
0.0
 10
59.6162946128
 20
28.0282632698
 30
0.0
 10
59.9920134615
 20
27.9027689352
 30
0.0
 10
60.2533262369
 20
27.7437046861
 30
0.0
 10
60.4066769911
 20
27.5897969889
 30
0.0
 10
60.4881465972
 20
27.4699723779
 30
0.0
 10
60.5383483673
 20
27.3435814338
 30
0.0
 10
60.5497745059
 20
27.2560418042
 30
0.0
 10
60.5497575442
 20
27.2133403376
 30
0.0
  0
SPLINE
  5
261
100
AcDbEntity
  8
0
100
AcDbSpline
 62
7
  6
BYLAYER
 70
0
 71
3
 72
11
 73
7
 74
0
 42
0.0000001
 43
0.0000001
 44
0.0000000001
 40
0.0
 40
0.0
 40
0.0
 40
0.0
 40
0.2896359344
 40
0.5491027565
 40
0.7822319971
 40
1.0
 40
1.0
 40
1.0
 40
1.0
 10
19.4516738183
 20
76.2029873814
 30
0.0
 10
19.4516738183
 20
76.3042995853
 30
0.0
 10
19.4670739377
 20
76.4970205406
 30
0.0
 10
19.5450813526
 20
76.7618130696
 30
0.0
 10
19.6764725847
 20
76.9767363972
 30
0.0
 10
19.7999634533
 20
77.0804142172
 30
0.0
 10
19.8659148713
 20
77.1185298127
 30
0.0
  0
ENDSEC
  0
SECTION
  2
OBJECTS
  0
DICTIONARY
  5
C
100
AcDbDictionary
280
0
281
1
  3
ACAD_GROUP
350
D
  3
ACAD_MLINESTYLE
350
17
  3
ACAD_LAYOUT
350
1A
  3
ACAD_PLOTSETTINGS
350
19
  3
ACAD_PLOTSTYLENAME
350
E
  0
DICTIONARY
  5
D
102
{ACAD_REACTORS
330
C
102
}
100
AcDbDictionary
280
0
281
1
  0
ACDBDICTIONARYWDFLT
  5
E
102
{ACAD_REACTORS
330
C
102
}
100
AcDbDictionary
281
1
  3
Normal
350
F
100
AcDbDictionaryWithDefault
340
F
  0
DICTIONARY
  5
17
102
{ACAD_REACTORS
330
C
102
}
100
AcDbDictionary
280
0
281
1
  3
Standard
350
18
  0
DICTIONARY
  5
19
102
{ACAD_REACTORS
330
C
102
}
100
AcDbDictionary
281
1
  0
DICTIONARY
  5
1A
102
{ACAD_REACTORS
330
C
102
}
100
AcDbDictionary
281
1
  3
Model
350
262
  3
Layout1
350
263
  0
ACDBPLACEHOLDER
  5
F
102
{ACAD_REACTORS
330
E
102
}
  0
MLINESTYLE
  5
18
102
{ACAD_REACTORS
330
17
102
}
100
AcDbMlineStyle
  2
STANDARD
 70
0
  3

 62
256
 51
90.0
 52
90.0
 71
2
 49
0.5
 62
256
  6
BYLAYER
 49
-0.5
 62
256
  6
BYLAYER
  0
LAYOUT
  5
262
102
{ACAD_REACTORS
330
1A
102
}
100
AcDbPlotSettings
  1

  2
none_device
  4

  6

 40
0.0
 41
0.0
 42
0.0
 43
0.0
 44
210.0
 45
297.0
 46
0.0
 47
0.0
 48
0.0
 49
0.0
140
0.0
141
0.0
142
1.0
143
1.0
 70
1024
 72
1
 73
0
 74
0
  7

 75
0
147
1.0
148
0.0
149
0.0
100
AcDbLayout
  1
Model
 70
0
 71
0
 10
0.0
 20
0.0
 11
210.0
 21
297.0
 12
0.0
 22
0.0
 32
0.0
 14
0.0
 24
0.0
 34
0.0
 15
0.0
 25
0.0
 35
0.0
146
0.0
 13
0.0
 23
0.0
 33
0.0
 16
1.0
 26
0.0
 36
0.0
 17
0.0
 27
1.0
 37
0.0
 76
0
330
210
345
0
346
0
  0
LAYOUT
  5
263
102
{ACAD_REACTORS
330
1A
102
}
100
AcDbPlotSettings
  1

  2
none_device
  4

  6

 40
0.0
 41
0.0
 42
0.0
 43
0.0
 44
210.0
 45
297.0
 46
0.0
 47
0.0
 48
0.0
 49
0.0
140
0.0
141
0.0
142
1.0
143
1.0
 70
0
 72
1
 73
0
 74
0
  7

 75
0
147
1.0
148
0.0
149
0.0
100
AcDbLayout
  1
Layout1
 70
0
 71
1
 10
0.0
 20
0.0
 11
210.0
 21
297.0
 12
0.0
 22
0.0
 32
0.0
 14
0.0
 24
0.0
 34
0.0
 15
0.0
 25
0.0
 35
0.0
146
0.0
 13
0.0
 23
0.0
 33
0.0
 16
1.0
 26
0.0
 36
0.0
 17
0.0
 27
1.0
 37
0.0
 76
0
330
211
345
0
346
0
  0
ENDSEC
  0
EOF
