999
DXF file: C:\Users\sesa63760\Dev\_Creo\CAD\MCADPP0003179_3D-CAD\drw0001_3.dxf
999
Pro/ENGINEER 2019471 by Parametric Technology Corporation
  0
SECTION
  2
HEADER
  9
$ACADVER
  1
AC1024
  9
$DWGCODEPAGE
  3
ANSI_1252
  9
$EXTMAX
 10
551.7418733521
 20
780.3206494551
 30
0.0
  9
$EXTMIN
 10
0.0
 20
0.0
 30
0.0
  9
$LIMMIN
 10
0.0
 20
0.0
  9
$LIMMAX
 10
551.7418733521
 20
780.3206494551
  9
$VIEWCTR
 10
275.8709366761
 20
390.1603247276
  9
$VIEWSIZE
 40
780.3206494551
  9
$CLAYER
  8
0
  9
$LTSCALE
 40
50.8653460386
  9
$CELTYPE
  6
BYLAYER
  9
$DIMSCALE
 40
1.0
  9
$DIMASZ
 40
6.5683556351
  9
$DIMEXO
 40
1.0
  9
$DIMDLI
 40
35.1433299903
  9
$DIMEXE
 40
1.0
  9
$DIMCEN
 40
8.3234202609
  9
$DIMLFAC
 40
1.0
  9
$DIMBLK
  1
_FILLED
  9
$DIMALT
 70
0
  9
$DIMALTF
 40
0.0393700787
  9
$DIMTXT
 40
9.1956978892
  9
$DIMTOL
 70
1
  9
$DIMLIM
 70
0
  9
$DIMTFAC
 40
1.0
  9
$DIMTP
 40
0.01
  9
$DIMTM
 40
0.01
  9
$DIMGAP
 40
0.625
  9
$DIMDSEP
 70
46
  9
$AUNITS
 70
0
  9
$PDMODE
 70
3
  9
$PDSIZE
 40
0.3125
  9
$HANDSEED
  5
503
  9
$TILEMODE
 70
1
  9
$MEASUREMENT
 70
1
  9
$INSUNITS
 70
4
  0
ENDSEC
  0
SECTION
  2
CLASSES
  0
CLASS
  1
ACDBDICTIONARYWDFLT
  2
AcDbDictionaryWithDefault
  3
AutoCAD 2000
 90
0
 91
1
280
0
281
0
  0
CLASS
  1
ACDBPLACEHOLDER
  2
AcDbPlaceHolder
  3
AutoCAD 2000
 90
0
 91
1
280
0
281
0
  0
CLASS
  1
LAYOUT
  2
AcDbLayout
  3
AutoCAD 2000
 90
0
 91
0
280
0
281
0
  0
ENDSEC
  0
SECTION
  2
TABLES
  0
TABLE
  2
VPORT
  5
8
100
AcDbSymbolTable
 70
2
  0
VPORT
  5
1F4
100
AcDbSymbolTableRecord
100
AcDbViewportTableRecord
  2
*ACTIVE
 70
0
 10
0.0
 20
0.0
 11
1.0
 21
1.0
 12
275.8709366761
 22
390.1603247276
 13
0.0
 23
0.0
 14
1.0
 24
1.0
 15
0.0
 25
0.0
 16
0.0
 26
0.0
 36
1.0
 17
0.0
 27
0.0
 37
0.0
 40
780.3206494551
 41
0.7070707071
 42
50.0
 43
0.0
 44
0.0
 50
0.0
 51
0.0
 71
0
 72
100
 73
1
 74
1
 75
0
 76
0
 77
0
 78
0
  0
ENDTAB
  0
TABLE
  2
LTYPE
  5
5
100
AcDbSymbolTable
 70
6
  0
LTYPE
  5
14
100
AcDbSymbolTableRecord
100
AcDbLinetypeTableRecord
  2
BYBLOCK
 70
0
  3

 72
65
 73
0
 40
0.0
  0
LTYPE
  5
15
100
AcDbSymbolTableRecord
100
AcDbLinetypeTableRecord
  2
BYLAYER
 70
0
  3

 72
65
 73
0
 40
0.0
  0
LTYPE
  5
16
100
AcDbSymbolTableRecord
100
AcDbLinetypeTableRecord
  2
CONTINUOUS
 70
64
  3
Solid line
 72
65
 73
0
 40
0.0
  0
LTYPE
  5
1F5
100
AcDbSymbolTableRecord
100
AcDbLinetypeTableRecord
  2
CENTER
 70
64
  3
____ _ ____ _ ____ _ ____ _ ____ _ ____ _ ____
 72
65
 73
4
 40
0.6
 49
0.375
 74
0
 49
-0.075
 74
0
 49
0.075
 74
0
 49
-0.075
 74
0
  0
LTYPE
  5
1F6
100
AcDbSymbolTableRecord
100
AcDbLinetypeTableRecord
  2
HIDDEN
 70
64
  3
- - - - - - - - - - - - - - - - - - - -
 72
65
 73
2
 40
0.2
 49
0.1
 74
0
 49
-0.1
 74
0
  0
LTYPE
  5
1F7
100
AcDbSymbolTableRecord
100
AcDbLinetypeTableRecord
  2
PHANTOM
 70
64
  3
_____ _ _ _____ _ _ _____ _ _ _____
 72
65
 73
6
 40
0.8
 49
0.45
 74
0
 49
-0.05
 74
0
 49
0.1
 74
0
 49
-0.05
 74
0
 49
0.1
 74
0
 49
-0.05
 74
0
  0
LTYPE
  5
1F8
100
AcDbSymbolTableRecord
100
AcDbLinetypeTableRecord
  2
DOT
 70
64
  3
. . . . . . . . . . . . . . . . . . . .
 72
65
 73
2
 40
0.2
 49
0.1
 74
0
 49
-0.1
 74
0
  0
LTYPE
  5
1F9
100
AcDbSymbolTableRecord
100
AcDbLinetypeTableRecord
  2
DASHED
 70
64
  3
- - - - - - - - - - - - - - - - - - - -
 72
65
 73
2
 40
0.2
 49
0.1
 74
0
 49
-0.1
 74
0
  0
ENDTAB
  0
TABLE
  2
LAYER
  5
2
100
AcDbSymbolTable
 70
36
  0
LAYER
  5
10
100
AcDbSymbolTableRecord
100
AcDbLayerTableRecord
  2
0
 70
0
 62
7
  6
CONTINUOUS
370
-3
390
F
  0
LAYER
  5
1FA
100
AcDbSymbolTableRecord
100
AcDbLayerTableRecord
  2
DEFAULT_1
 70
0
 62
7
  6
CENTER
370
-3
390
F
  0
LAYER
  5
1FB
100
AcDbSymbolTableRecord
100
AcDbLayerTableRecord
  2
DEFAULT_2
 70
0
 62
8
  6
HIDDEN
370
-3
390
F
  0
LAYER
  5
1FC
100
AcDbSymbolTableRecord
100
AcDbLayerTableRecord
  2
DEFAULT_3
 70
0
 62
7
  6
PHANTOM
370
-3
390
F
  0
LAYER
  5
1FD
100
AcDbSymbolTableRecord
100
AcDbLayerTableRecord
  2
00_COMPONENTS
 70
0
 62
7
  6
CONTINUOUS
370
-3
390
F
  0
LAYER
  5
1FE
100
AcDbSymbolTableRecord
100
AcDbLayerTableRecord
  2
01_1_DEFAULT_DATUMS
 70
0
 62
7
  6
CONTINUOUS
370
-3
390
F
  0
LAYER
  5
1FF
100
AcDbSymbolTableRecord
100
AcDbLayerTableRecord
  2
01_PLANES
 70
0
 62
7
  6
CONTINUOUS
370
-3
390
F
  0
LAYER
  5
200
100
AcDbSymbolTableRecord
100
AcDbLayerTableRecord
  2
02_COORD_SYS
 70
0
 62
7
  6
CONTINUOUS
370
-3
390
F
  0
LAYER
  5
201
100
AcDbSymbolTableRecord
100
AcDbLayerTableRecord
  2
03_AXES
 70
0
 62
7
  6
CONTINUOUS
370
-3
390
F
  0
LAYER
  5
202
100
AcDbSymbolTableRecord
100
AcDbLayerTableRecord
  2
04_POINTS
 70
0
 62
7
  6
CONTINUOUS
370
-3
390
F
  0
LAYER
  5
203
100
AcDbSymbolTableRecord
100
AcDbLayerTableRecord
  2
05_CURVES
 70
0
 62
7
  6
CONTINUOUS
370
-3
390
F
  0
LAYER
  5
204
100
AcDbSymbolTableRecord
100
AcDbLayerTableRecord
  2
06_SURFS
 70
0
 62
7
  6
CONTINUOUS
370
-3
390
F
  0
LAYER
  5
205
100
AcDbSymbolTableRecord
100
AcDbLayerTableRecord
  2
07_COSMETICS
 70
0
 62
7
  6
CONTINUOUS
370
-3
390
F
  0
LAYER
  5
206
100
AcDbSymbolTableRecord
100
AcDbLayerTableRecord
  2
10_NOTES
 70
0
 62
7
  6
CONTINUOUS
370
-3
390
F
  0
LAYER
  5
207
100
AcDbSymbolTableRecord
100
AcDbLayerTableRecord
  2
11_NOTES_PUB
 70
0
 62
7
  6
CONTINUOUS
370
-3
390
F
  0
LAYER
  5
208
100
AcDbSymbolTableRecord
100
AcDbLayerTableRecord
  2
13_REF_GTOL
 70
0
 62
7
  6
CONTINUOUS
370
-3
390
F
  0
LAYER
  5
209
100
AcDbSymbolTableRecord
100
AcDbLayerTableRecord
  2
16_MISC
 70
0
 62
7
  6
CONTINUOUS
370
-3
390
F
  0
LAYER
  5
20A
100
AcDbSymbolTableRecord
100
AcDbLayerTableRecord
  2
17_NO_PRINT
 70
0
 62
7
  6
CONTINUOUS
370
-3
390
F
  0
LAYER
  5
20B
100
AcDbSymbolTableRecord
100
AcDbLayerTableRecord
  2
18_DATUM_CAMS_JOINTS
 70
0
 62
7
  6
CONTINUOUS
370
-3
390
F
  0
LAYER
  5
20C
100
AcDbSymbolTableRecord
100
AcDbLayerTableRecord
  2
19_DATUM_FUNCTIONAL
 70
0
 62
7
  6
CONTINUOUS
370
-3
390
F
  0
LAYER
  5
20D
100
AcDbSymbolTableRecord
100
AcDbLayerTableRecord
  2
20_DATUM_KINEMATIC_SCHEME
 70
0
 62
7
  6
CONTINUOUS
370
-3
390
F
  0
ENDTAB
  0
TABLE
  2
STYLE
  5
3
100
AcDbSymbolTable
 70
1
  0
STYLE
  5
11
100
AcDbSymbolTableRecord
100
AcDbTextStyleTableRecord
  2
STANDARD
 70
0
 40
0.0
 41
0.8
 50
0.0
 71
0
 42
0.2
  3
txt
  4

  0
STYLE
  5
20E
100
AcDbSymbolTableRecord
100
AcDbTextStyleTableRecord
  2
TEXTSTYLE_1
 70
0
 40
0.0
 41
0.8
 50
0.0
 71
0
 42
0.2
  3
gdt
  4

  0
ENDTAB
  0
TABLE
  2
VIEW
  5
6
100
AcDbSymbolTable
 70
0
  0
ENDTAB
  0
TABLE
  2
UCS
  5
7
100
AcDbSymbolTable
 70
0
  0
ENDTAB
  0
TABLE
  2
APPID
  5
9
100
AcDbSymbolTable
 70
1
  0
APPID
  5
20F
100
AcDbSymbolTableRecord
100
AcDbRegAppTableRecord
  2
ACAD
 70
0
  0
ENDTAB
  0
TABLE
  2
BLOCK_RECORD
  5
1
100
AcDbSymbolTable
 70
0
  0
BLOCK_RECORD
  5
210
100
AcDbSymbolTableRecord
100
AcDbBlockTableRecord
  2
*Model_Space
  0
BLOCK_RECORD
  5
211
100
AcDbSymbolTableRecord
100
AcDbBlockTableRecord
  2
*Paper_Space
  0
BLOCK_RECORD
  5
212
100
AcDbSymbolTableRecord
100
AcDbBlockTableRecord
  2
_FILLED
  0
ENDTAB
  0
TABLE
  2
DIMSTYLE
  5
A
100
AcDbSymbolTable
 70
1
100
AcDbDimStyleTable
 71
0
  0
DIMSTYLE
105
213
100
AcDbSymbolTableRecord
100
AcDbDimStyleTableRecord
  2
STANDARD
 70
0
  3

  4

 40
1.0
 41
6.5683556351
 42
1.0
 43
0.38
 44
1.0
 45
0.0
 46
0.0
 47
0.01
 48
0.01
140
9.1956978892
141
0.09
142
0.0
143
25.4
144
1.0
145
0.0
146
1.0
147
0.625
 71
1
 72
0
 73
0
 74
0
 75
0
 76
0
 77
1
 78
8
 79
2
170
0
171
1
172
0
173
0
174
0
175
0
176
0
177
0
178
0
270
2
179
2
271
2
272
2
273
2
274
2
275
0
280
0
281
0
282
0
283
1
284
8
285
0
286
0
287
3
288
0
340
11
278
46
341
212
342
212
343
212
344
212
  0
ENDTAB
  0
ENDSEC
  0
SECTION
  2
BLOCKS
  0
BLOCK
  5
20
100
AcDbEntity
  8
0
100
AcDbBlockBegin
  2
*Model_Space
 70
0
 10
0.0
 20
0.0
 30
0.0
  3
*Model_Space
  1

  0
ENDBLK
  5
21
100
AcDbEntity
  8
0
100
AcDbBlockEnd
  0
BLOCK
  5
1C
100
AcDbEntity
  8
0
100
AcDbBlockBegin
  2
*Paper_Space
 70
0
 10
0.0
 20
0.0
 30
0.0
  3
*Paper_Space
  1

  0
ENDBLK
  5
1D
100
AcDbEntity
  8
0
100
AcDbBlockEnd
  0
BLOCK
  5
214
100
AcDbEntity
  8
0
100
AcDbBlockBegin
  2
_FILLED
 70
64
 10
0.0
 20
0.0
  3
_FILLED
  1

  0
SOLID
  5
215
100
AcDbEntity
  8
0
  6
BYBLOCK
 62
0
100
AcDbTrace
 10
0.0
 20
0.0
 11
-1.0
 21
0.25
 12
-1.0
 22
-0.25
 13
-1.0
 23
-0.25
  0
ENDBLK
  5
216
100
AcDbEntity
  8
0
  6
BYBLOCK
 62
0
100
AcDbBlockEnd
  0
ENDSEC
  0
SECTION
  2
ENTITIES
  0
LINE
  5
217
100
AcDbEntity
  8
0
100
AcDbLine
 62
7
  6
CONTINUOUS
 10
73.0777747654
 20
231.5186061232
 11
73.838381913
 21
230.7570708793
  0
LINE
  5
218
100
AcDbEntity
  8
0
100
AcDbLine
 62
7
  6
CONTINUOUS
 10
73.8422513404
 20
230.7551343957
 11
73.838381913
 21
230.7570708793
  0
LINE
  5
219
100
AcDbEntity
  8
0
100
AcDbLine
 62
7
  6
CONTINUOUS
 10
87.7647007182
 20
239.4762116452
 11
87.7499379861
 21
239.5018439624
  0
LINE
  5
21A
100
AcDbEntity
  8
0
100
AcDbLine
 62
7
  6
CONTINUOUS
 10
65.2703207582
 20
227.1991343957
 11
65.2703207582
 21
263.9021343957
  0
LINE
  5
21B
100
AcDbEntity
  8
0
100
AcDbLine
 62
7
  6
CONTINUOUS
 10
65.2703207582
 20
354.1991343957
 11
65.2703207582
 21
543.6831343957
  0
LINE
  5
21C
100
AcDbEntity
  8
0
100
AcDbLine
 62
7
  6
CONTINUOUS
 10
66.4943971848
 20
229.8661343957
 11
66.4943971848
 21
227.1991343957
  0
LINE
  5
21D
100
AcDbEntity
  8
0
100
AcDbLine
 62
7
  6
CONTINUOUS
 10
128.107966189
 20
229.8661343957
 11
127.8879957364
 21
229.9931343957
  0
LINE
  5
21E
100
AcDbEntity
  8
0
100
AcDbLine
 62
7
  6
CONTINUOUS
 10
118.3563207582
 20
246.5285343957
 11
119.1183207582
 21
245.7665343957
  0
LINE
  5
21F
100
AcDbEntity
  8
0
100
AcDbLine
 62
7
  6
CONTINUOUS
 10
161.4347207582
 20
557.0435343957
 11
161.9427207582
 21
557.5515343957
  0
LINE
  5
220
100
AcDbEntity
  8
0
100
AcDbLine
 62
7
  6
CONTINUOUS
 10
83.8004920717
 20
237.4795547264
 11
83.7885890794
 21
237.4839019081
  0
LINE
  5
221
100
AcDbEntity
  8
0
100
AcDbLine
 62
7
  6
CONTINUOUS
 10
132.1612207582
 20
238.7561343957
 11
132.5422207582
 21
238.3751343957
  0
LINE
  5
222
100
AcDbEntity
  8
0
100
AcDbLine
 62
7
  6
CONTINUOUS
 10
97.7337299501
 20
238.1211343957
 11
97.7337299501
 21
242.8201343957
  0
LINE
  5
223
100
AcDbEntity
  8
0
100
AcDbLine
 62
7
  6
CONTINUOUS
 10
97.9117737128
 20
227.1991343957
 11
97.9117737128
 21
229.8661343957
  0
LINE
  5
224
100
AcDbEntity
  8
0
100
AcDbLine
 62
7
  6
CONTINUOUS
 10
100.0683207582
 20
231.3901343957
 11
100.0683207582
 21
240.1531343957
  0
LINE
  5
225
100
AcDbEntity
  8
0
100
AcDbLine
 62
7
  6
CONTINUOUS
 10
100.2535468769
 20
344.3185343957
 11
100.2535468769
 21
341.6515343957
  0
LINE
  5
226
100
AcDbEntity
  8
0
100
AcDbLine
 62
7
  6
CONTINUOUS
 10
100.8025332209
 20
344.3185343957
 11
100.8025332209
 21
341.6515343957
  0
LINE
  5
227
100
AcDbEntity
  8
0
100
AcDbLine
 62
7
  6
CONTINUOUS
 10
102.3543207582
 20
243.0360343957
 11
102.3543207582
 21
244.1028343957
  0
LINE
  5
228
100
AcDbEntity
  8
0
100
AcDbLine
 62
7
  6
CONTINUOUS
 10
103.0376972862
 20
229.8661343957
 11
103.0376972862
 21
227.1991343957
  0
LINE
  5
229
100
AcDbEntity
  8
0
100
AcDbLine
 62
7
  6
CONTINUOUS
 10
73.0836991052
 20
231.5186492981
 11
73.0777755454
 21
231.519226287
  0
LINE
  5
22A
100
AcDbEntity
  8
0
100
AcDbLine
 62
7
  6
CONTINUOUS
 10
145.6867207582
 20
249.3225343957
 11
146.4487207582
 21
248.5605343957
  0
LINE
  5
22B
100
AcDbEntity
  8
0
100
AcDbLine
 62
7
  6
CONTINUOUS
 10
104.0837299501
 20
242.8201343957
 11
104.0837299501
 21
240.1531343957
  0
LINE
  5
22C
100
AcDbEntity
  8
0
100
AcDbLine
 62
7
  6
CONTINUOUS
 10
104.7668758803
 20
354.0721343957
 11
104.7668758803
 21
354.1991343957
  0
LINE
  5
22D
100
AcDbEntity
  8
0
100
AcDbLine
 62
7
  6
CONTINUOUS
 10
104.7668758803
 20
543.6831343957
 11
104.7668758803
 21
543.8101343957
  0
LINE
  5
22E
100
AcDbEntity
  8
0
100
AcDbLine
 62
7
  6
CONTINUOUS
 10
105.1177993384
 20
344.3185343957
 11
105.1177993384
 21
341.6515343957
  0
LINE
  5
22F
100
AcDbEntity
  8
0
100
AcDbLine
 62
7
  6
CONTINUOUS
 10
105.6667856824
 20
344.3185343957
 11
105.6667856824
 21
341.6515343957
  0
LINE
  5
230
100
AcDbEntity
  8
0
100
AcDbLine
 62
7
  6
CONTINUOUS
 10
106.1512447186
 20
354.0721343957
 11
106.1512447186
 21
354.1991343957
  0
LINE
  5
231
100
AcDbEntity
  8
0
100
AcDbLine
 62
7
  6
CONTINUOUS
 10
106.1512447186
 20
543.6831343957
 11
106.1512447186
 21
543.8101343957
  0
LINE
  5
232
100
AcDbEntity
  8
0
100
AcDbLine
 62
7
  6
CONTINUOUS
 10
106.4183207582
 20
242.8201343957
 11
106.4183207582
 21
243.0360343957
  0
LINE
  5
233
100
AcDbEntity
  8
0
100
AcDbLine
 62
7
  6
CONTINUOUS
 10
106.4183207582
 20
244.2425343957
 11
106.4183207582
 21
245.7665343957
  0
LINE
  5
234
100
AcDbEntity
  8
0
100
AcDbLine
 62
7
  6
CONTINUOUS
 10
107.1245539198
 20
347.7221343957
 11
107.1245539198
 21
344.3185343957
  0
LINE
  5
235
100
AcDbEntity
  8
0
100
AcDbLine
 62
7
  6
CONTINUOUS
 10
107.1245539198
 20
550.1601343957
 11
107.1245539198
 21
553.5637343957
  0
LINE
  5
236
100
AcDbEntity
  8
0
100
AcDbLine
 62
7
  6
CONTINUOUS
 10
107.7391207582
 20
244.1028343957
 11
107.7391207582
 21
244.2425343957
  0
LINE
  5
237
100
AcDbEntity
  8
0
100
AcDbLine
 62
7
  6
CONTINUOUS
 10
107.7833375326
 20
553.5637343957
 11
107.7833375326
 21
550.1601343957
  0
LINE
  5
238
100
AcDbEntity
  8
0
100
AcDbLine
 62
7
  6
CONTINUOUS
 10
107.7833375326
 20
347.7221343957
 11
107.7833375326
 21
344.3185343957
  0
LINE
  5
239
100
AcDbEntity
  8
0
100
AcDbLine
 62
7
  6
CONTINUOUS
 10
114.2201995587
 20
344.3185343957
 11
114.2201995587
 21
347.7221343957
  0
LINE
  5
23A
100
AcDbEntity
  8
0
100
AcDbLine
 62
7
  6
CONTINUOUS
 10
114.2201995587
 20
550.1601343957
 11
114.2201995587
 21
553.5637343957
  0
LINE
  5
23B
100
AcDbEntity
  8
0
100
AcDbLine
 62
7
  6
CONTINUOUS
 10
117.7975207582
 20
244.1028343957
 11
117.7975207582
 21
244.2425343957
  0
LINE
  5
23C
100
AcDbEntity
  8
0
100
AcDbLine
 62
7
  6
CONTINUOUS
 10
118.4039420493
 20
341.6515343957
 11
118.4039420493
 21
344.3185343957
  0
LINE
  5
23D
100
AcDbEntity
  8
0
100
AcDbLine
 62
7
  6
CONTINUOUS
 10
119.1183207582
 20
242.8201343957
 11
119.1183207582
 21
243.0360343957
  0
LINE
  5
23E
100
AcDbEntity
  8
0
100
AcDbLine
 62
7
  6
CONTINUOUS
 10
119.1183207582
 20
244.2425343957
 11
119.1183207582
 21
245.7665343957
  0
LINE
  5
23F
100
AcDbEntity
  8
0
100
AcDbLine
 62
7
  6
CONTINUOUS
 10
119.2071212653
 20
337.7780343957
 11
119.2071212653
 21
341.1308343957
  0
LINE
  5
240
100
AcDbEntity
  8
0
100
AcDbLine
 62
7
  6
CONTINUOUS
 10
119.2198212653
 20
341.1308343957
 11
119.2198212653
 21
341.6515343957
  0
LINE
  5
241
100
AcDbEntity
  8
0
100
AcDbLine
 62
7
  6
CONTINUOUS
 10
119.2503307504
 20
337.6510343957
 11
119.2503307504
 21
337.7780343957
  0
LINE
  5
242
100
AcDbEntity
  8
0
100
AcDbLine
 62
7
  6
CONTINUOUS
 10
120.6257623639
 20
244.1028343957
 11
120.6257623639
 21
243.0360343957
  0
LINE
  5
243
100
AcDbEntity
  8
0
100
AcDbLine
 62
7
  6
CONTINUOUS
 10
120.8876537116
 20
243.0360343957
 11
120.8876537116
 21
244.1028343957
  0
LINE
  5
244
100
AcDbEntity
  8
0
100
AcDbLine
 62
7
  6
CONTINUOUS
 10
270.195634261
 20
226.5895343957
 11
275.9080814773
 21
226.5895343957
  0
LINE
  5
245
100
AcDbEntity
  8
0
100
AcDbLine
 62
7
  6
CONTINUOUS
 10
243.4108917423
 20
226.8181343957
 11
236.0493789105
 21
226.8181343957
  0
LINE
  5
246
100
AcDbEntity
  8
0
100
AcDbLine
 62
7
  6
CONTINUOUS
 10
65.2703207582
 20
227.1991343957
 11
298.6963207582
 21
227.1991343957
  0
LINE
  5
247
100
AcDbEntity
  8
0
100
AcDbLine
 62
7
  6
CONTINUOUS
 10
387.0873145979
 20
228.7231343957
 11
298.6963207582
 21
228.7231343957
  0
LINE
  5
248
100
AcDbEntity
  8
0
100
AcDbLine
 62
7
  6
CONTINUOUS
 10
298.6963207582
 20
229.8661343957
 11
276.8523207582
 21
229.8661343957
  0
LINE
  5
249
100
AcDbEntity
  8
0
100
AcDbLine
 62
7
  6
CONTINUOUS
 10
65.2703207582
 20
229.8661343957
 11
257.8023207582
 21
229.8661343957
  0
LINE
  5
24A
100
AcDbEntity
  8
0
100
AcDbLine
 62
7
  6
CONTINUOUS
 10
281.0709969672
 20
229.9203267848
 11
276.8523207582
 21
229.9203267848
  0
LINE
  5
24B
100
AcDbEntity
  8
0
100
AcDbLine
 62
7
  6
CONTINUOUS
 10
245.9184567167
 20
229.9203267848
 11
229.4372924483
 21
229.9203267848
  0
LINE
  5
24C
100
AcDbEntity
  8
0
100
AcDbLine
 62
7
  6
CONTINUOUS
 10
127.8879957364
 20
229.9931343957
 11
97.6486457801
 21
229.9931343957
  0
LINE
  5
24D
100
AcDbEntity
  8
0
100
AcDbLine
 62
7
  6
CONTINUOUS
 10
121.6709212653
 20
349.0556343957
 11
121.6709212653
 21
347.7221343957
  0
LINE
  5
24E
100
AcDbEntity
  8
0
100
AcDbLine
 62
7
  6
CONTINUOUS
 10
121.9779228361
 20
553.5637343957
 11
121.9779228361
 21
550.1601343957
  0
LINE
  5
24F
100
AcDbEntity
  8
0
100
AcDbLine
 62
7
  6
CONTINUOUS
 10
121.9779228361
 20
347.7221343957
 11
121.9779228361
 21
344.3185343957
  0
LINE
  5
250
100
AcDbEntity
  8
0
100
AcDbLine
 62
7
  6
CONTINUOUS
 10
125.4683207582
 20
231.3901343957
 11
125.4683207582
 21
240.1531343957
  0
LINE
  5
251
100
AcDbEntity
  8
0
100
AcDbLine
 62
7
  6
CONTINUOUS
 10
126.2175212653
 20
349.0556343957
 11
126.2175212653
 21
347.7221343957
  0
LINE
  5
252
100
AcDbEntity
  8
0
100
AcDbLine
 62
7
  6
CONTINUOUS
 10
126.7877333889
 20
344.3185343957
 11
126.7877333889
 21
341.6515343957
  0
LINE
  5
253
100
AcDbEntity
  8
0
100
AcDbLine
 62
7
  6
CONTINUOUS
 10
127.3987207582
 20
242.8201343957
 11
127.3987207582
 21
245.4871343957
  0
LINE
  5
254
100
AcDbEntity
  8
0
100
AcDbLine
 62
7
  6
CONTINUOUS
 10
128.6381117803
 20
337.7780343957
 11
128.6381117803
 21
337.6510343957
  0
LINE
  5
255
100
AcDbEntity
  8
0
100
AcDbLine
 62
7
  6
CONTINUOUS
 10
128.6686212653
 20
341.1308343957
 11
128.6686212653
 21
341.6515343957
  0
LINE
  5
256
100
AcDbEntity
  8
0
100
AcDbLine
 62
7
  6
CONTINUOUS
 10
128.6813212653
 20
337.7780343957
 11
128.6813212653
 21
341.1308343957
  0
LINE
  5
257
100
AcDbEntity
  8
0
100
AcDbLine
 62
7
  6
CONTINUOUS
 10
129.6847207582
 20
245.8681343957
 11
129.6847207582
 21
246.9349343957
  0
LINE
  5
258
100
AcDbEntity
  8
0
100
AcDbLine
 62
7
  6
CONTINUOUS
 10
131.2492495632
 20
334.9205343957
 11
131.2492495632
 21
336.7112343957
  0
LINE
  5
259
100
AcDbEntity
  8
0
100
AcDbLine
 62
7
  6
CONTINUOUS
 10
131.2492495632
 20
341.1054343957
 11
131.2492495632
 21
341.6515343957
  0
LINE
  5
25A
100
AcDbEntity
  8
0
100
AcDbLine
 62
7
  6
CONTINUOUS
 10
132.1612207582
 20
238.7561343957
 11
132.1612207582
 21
240.1531343957
  0
LINE
  5
25B
100
AcDbEntity
  8
0
100
AcDbLine
 62
7
  6
CONTINUOUS
 10
133.7487207582
 20
245.4871343957
 11
133.7487207582
 21
245.8681343957
  0
LINE
  5
25C
100
AcDbEntity
  8
0
100
AcDbLine
 62
7
  6
CONTINUOUS
 10
133.7487207582
 20
247.0365343957
 11
133.7487207582
 21
248.5605343957
  0
LINE
  5
25D
100
AcDbEntity
  8
0
100
AcDbLine
 62
7
  6
CONTINUOUS
 10
135.0695207582
 20
246.9349343957
 11
135.0695207582
 21
247.0365343957
  0
LINE
  5
25E
100
AcDbEntity
  8
0
100
AcDbLine
 62
7
  6
CONTINUOUS
 10
138.0690304229
 20
230.7551343957
 11
127.1259957364
 21
230.7551343957
  0
LINE
  5
25F
100
AcDbEntity
  8
0
100
AcDbLine
 62
7
  6
CONTINUOUS
 10
98.4106457801
 20
230.7551343957
 11
87.9100820237
 21
230.7551343957
  0
LINE
  5
260
100
AcDbEntity
  8
0
100
AcDbLine
 62
7
  6
CONTINUOUS
 10
83.8459313743
 20
230.7551343957
 11
73.8422513404
 21
230.7551343957
  0
LINE
  5
261
100
AcDbEntity
  8
0
100
AcDbLine
 62
7
  6
CONTINUOUS
 10
230.6641059578
 20
230.8821343957
 11
244.6916432072
 21
230.8821343957
  0
LINE
  5
262
100
AcDbEntity
  8
0
100
AcDbLine
 62
7
  6
CONTINUOUS
 10
276.8523207582
 20
230.8821343957
 11
280.003444329
 21
230.8821343957
  0
LINE
  5
263
100
AcDbEntity
  8
0
100
AcDbLine
 62
7
  6
CONTINUOUS
 10
288.2781389357
 20
231.2149894438
 11
280.003444329
 21
231.2149894438
  0
LINE
  5
264
100
AcDbEntity
  8
0
100
AcDbLine
 62
7
  6
CONTINUOUS
 10
125.4682820822
 20
231.3901343957
 11
100.0683594343
 21
231.3901343957
  0
LINE
  5
265
100
AcDbEntity
  8
0
100
AcDbLine
 62
7
  6
CONTINUOUS
 10
65.2703207582
 20
231.3901343957
 11
73.2060899221
 21
231.3901343957
  0
LINE
  5
266
100
AcDbEntity
  8
0
100
AcDbLine
 62
7
  6
CONTINUOUS
 10
257.8023207582
 20
231.3901343957
 11
276.8523207582
 21
231.3901343957
  0
LINE
  5
267
100
AcDbEntity
  8
0
100
AcDbLine
 62
7
  6
CONTINUOUS
 10
239.2631989689
 20
232.1521343957
 11
236.0925501961
 21
232.1521343957
  0
LINE
  5
268
100
AcDbEntity
  8
0
100
AcDbLine
 62
7
  6
CONTINUOUS
 10
280.003444329
 20
232.4047986639
 11
288.2936389498
 21
232.4047986639
  0
LINE
  5
269
100
AcDbEntity
  8
0
100
AcDbLine
 62
7
  6
CONTINUOUS
 10
280.003444329
 20
232.4061343957
 11
276.8523207582
 21
232.4061343957
  0
LINE
  5
26A
100
AcDbEntity
  8
0
100
AcDbLine
 62
7
  6
CONTINUOUS
 10
288.2852867828
 20
232.4941324224
 11
279.6347468887
 21
232.4941324224
  0
LINE
  5
26B
100
AcDbEntity
  8
0
100
AcDbLine
 62
7
  6
CONTINUOUS
 10
276.8523207582
 20
232.9395343957
 11
278.2168349026
 21
232.9395343957
  0
LINE
  5
26C
100
AcDbEntity
  8
0
100
AcDbLine
 62
7
  6
CONTINUOUS
 10
278.1305814773
 20
233.1681343957
 11
279.6196014248
 21
233.1681343957
  0
LINE
  5
26D
100
AcDbEntity
  8
0
100
AcDbLine
 62
7
  6
CONTINUOUS
 10
279.6196014248
 20
233.9301343957
 11
278.1305814773
 21
233.9301343957
  0
LINE
  5
26E
100
AcDbEntity
  8
0
100
AcDbLine
 62
7
  6
CONTINUOUS
 10
278.1305814773
 20
234.0444343957
 11
276.8523207582
 21
234.0444343957
  0
LINE
  5
26F
100
AcDbEntity
  8
0
100
AcDbLine
 62
7
  6
CONTINUOUS
 10
278.1305294272
 20
234.0571343957
 11
278.0775999384
 21
234.0571343957
  0
LINE
  5
270
100
AcDbEntity
  8
0
100
AcDbLine
 62
7
  6
CONTINUOUS
 10
84.5127156387
 20
234.1574407747
 11
87.4807780062
 21
234.1574407747
  0
LINE
  5
271
100
AcDbEntity
  8
0
100
AcDbLine
 62
7
  6
CONTINUOUS
 10
272.7197181566
 20
235.5938343957
 11
270.4890690089
 21
235.5938343957
  0
LINE
  5
272
100
AcDbEntity
  8
0
100
AcDbLine
 62
7
  6
CONTINUOUS
 10
279.6094467345
 20
235.7635328351
 11
288.2812417645
 21
235.7635328351
  0
LINE
  5
273
100
AcDbEntity
  8
0
100
AcDbLine
 62
7
  6
CONTINUOUS
 10
288.2893521875
 20
235.8695895175
 11
279.6088593156
 21
235.8695895175
  0
LINE
  5
274
100
AcDbEntity
  8
0
100
AcDbLine
 62
7
  6
CONTINUOUS
 10
279.5886162907
 20
237.0249610602
 11
288.2709506324
 21
237.0249610602
  0
LINE
  5
275
100
AcDbEntity
  8
0
100
AcDbLine
 62
7
  6
CONTINUOUS
 10
138.0651046655
 20
237.1051343957
 11
125.4683207582
 21
237.1051343957
  0
LINE
  5
276
100
AcDbEntity
  8
0
100
AcDbLine
 62
7
  6
CONTINUOUS
 10
100.0683207582
 20
237.1051343957
 11
87.9107925458
 21
237.1051343957
  0
LINE
  5
277
100
AcDbEntity
  8
0
100
AcDbLine
 62
7
  6
CONTINUOUS
 10
83.8454391277
 20
237.1051343957
 11
73.8422513404
 21
237.1051343957
  0
LINE
  5
278
100
AcDbEntity
  8
0
100
AcDbLine
 62
7
  6
CONTINUOUS
 10
100.0683207582
 20
238.1211343957
 11
97.7337299501
 21
238.1211343957
  0
LINE
  5
279
100
AcDbEntity
  8
0
100
AcDbLine
 62
7
  6
CONTINUOUS
 10
221.0725079758
 20
238.2481343957
 11
149.6639439205
 21
238.2481343957
  0
LINE
  5
27A
100
AcDbEntity
  8
0
100
AcDbLine
 62
7
  6
CONTINUOUS
 10
132.5422207582
 20
238.3751343957
 11
147.6552207582
 21
238.3751343957
  0
LINE
  5
27B
100
AcDbEntity
  8
0
100
AcDbLine
 62
7
  6
CONTINUOUS
 10
132.1612207582
 20
238.7561343957
 11
148.0362207582
 21
238.7561343957
  0
LINE
  5
27C
100
AcDbEntity
  8
0
100
AcDbLine
 62
7
  6
CONTINUOUS
 10
255.0750819017
 20
239.0863343957
 11
249.6423072526
 21
239.0863343957
  0
LINE
  5
27D
100
AcDbEntity
  8
0
100
AcDbLine
 62
7
  6
CONTINUOUS
 10
387.0873145979
 20
239.1371343957
 11
288.1792987625
 21
239.1371343957
  0
LINE
  5
27E
100
AcDbEntity
  8
0
100
AcDbLine
 62
7
  6
CONTINUOUS
 10
279.5226587701
 20
239.1487625274
 11
288.1792987625
 21
239.1487625274
  0
LINE
  5
27F
100
AcDbEntity
  8
0
100
AcDbLine
 62
7
  6
CONTINUOUS
 10
227.164794431
 20
239.2641343957
 11
221.0725079768
 21
239.2641343957
  0
LINE
  5
280
100
AcDbEntity
  8
0
100
AcDbLine
 62
7
  6
CONTINUOUS
 10
288.1824164657
 20
239.3880830846
 11
279.5062856984
 21
239.3880830846
  0
LINE
  5
281
100
AcDbEntity
  8
0
100
AcDbLine
 62
7
  6
CONTINUOUS
 10
84.3939616701
 20
239.5965493233
 11
87.3620240376
 21
239.5965493233
  0
LINE
  5
282
100
AcDbEntity
  8
0
100
AcDbLine
 62
7
  6
CONTINUOUS
 10
235.2878431003
 20
239.7721343957
 11
227.8827783545
 21
239.7721343957
  0
LINE
  5
283
100
AcDbEntity
  8
0
100
AcDbLine
 62
7
  6
CONTINUOUS
 10
279.4759004292
 20
239.8322159697
 11
288.1408927227
 21
239.8322159697
  0
LINE
  5
284
100
AcDbEntity
  8
0
100
AcDbLine
 62
7
  6
CONTINUOUS
 10
97.7337299501
 20
240.1531343957
 11
152.7987065157
 21
240.1531343957
  0
LINE
  5
285
100
AcDbEntity
  8
0
100
AcDbLine
 62
7
  6
CONTINUOUS
 10
257.8023207582
 20
240.2801343957
 11
255.0750819017
 21
240.2801343957
  0
LINE
  5
286
100
AcDbEntity
  8
0
100
AcDbLine
 62
7
  6
CONTINUOUS
 10
249.5158704874
 20
240.2801343957
 11
243.5166282604
 21
240.2801343957
  0
LINE
  5
287
100
AcDbEntity
  8
0
100
AcDbLine
 62
7
  6
CONTINUOUS
 10
276.8523207582
 20
240.2801343957
 11
279.3979896207
 21
240.2801343957
  0
LINE
  5
288
100
AcDbEntity
  8
0
100
AcDbLine
 62
7
  6
CONTINUOUS
 10
209.7963207582
 20
240.6611343957
 11
184.3963207582
 21
240.6611343957
  0
LINE
  5
289
100
AcDbEntity
  8
0
100
AcDbLine
 62
7
  6
CONTINUOUS
 10
162.0443207582
 20
240.6611343957
 11
152.7987207582
 21
240.6611343957
  0
LINE
  5
28A
100
AcDbEntity
  8
0
100
AcDbLine
 62
7
  6
CONTINUOUS
 10
243.4108917423
 20
241.0421343957
 11
236.0493789105
 21
241.0421343957
  0
LINE
  5
28B
100
AcDbEntity
  8
0
100
AcDbLine
 62
7
  6
CONTINUOUS
 10
97.7337299501
 20
242.8201343957
 11
163.7715207582
 21
242.8201343957
  0
LINE
  5
28C
100
AcDbEntity
  8
0
100
AcDbLine
 62
7
  6
CONTINUOUS
 10
102.3543207582
 20
243.0360343957
 11
120.8876537116
 21
243.0360343957
  0
LINE
  5
28D
100
AcDbEntity
  8
0
100
AcDbLine
 62
7
  6
CONTINUOUS
 10
120.8876537116
 20
244.1028343957
 11
102.3543207582
 21
244.1028343957
  0
LINE
  5
28E
100
AcDbEntity
  8
0
100
AcDbLine
 62
7
  6
CONTINUOUS
 10
106.4183207582
 20
244.2425343957
 11
119.1183207582
 21
244.2425343957
  0
LINE
  5
28F
100
AcDbEntity
  8
0
100
AcDbLine
 62
7
  6
CONTINUOUS
 10
163.7715207582
 20
245.4871343957
 11
127.3987207582
 21
245.4871343957
  0
LINE
  5
290
100
AcDbEntity
  8
0
100
AcDbLine
 62
7
  6
CONTINUOUS
 10
119.1183207582
 20
245.7665343957
 11
106.4183207582
 21
245.7665343957
  0
LINE
  5
291
100
AcDbEntity
  8
0
100
AcDbLine
 62
7
  6
CONTINUOUS
 10
129.6847207582
 20
245.8681343957
 11
148.2180537116
 21
245.8681343957
  0
LINE
  5
292
100
AcDbEntity
  8
0
100
AcDbLine
 62
7
  6
CONTINUOUS
 10
118.3563207582
 20
246.5285343957
 11
107.1803207582
 21
246.5285343957
  0
LINE
  5
293
100
AcDbEntity
  8
0
100
AcDbLine
 62
7
  6
CONTINUOUS
 10
148.2180537116
 20
246.9349343957
 11
129.6847207582
 21
246.9349343957
  0
LINE
  5
294
100
AcDbEntity
  8
0
100
AcDbLine
 62
7
  6
CONTINUOUS
 10
133.7487207582
 20
247.0365343957
 11
146.4487207582
 21
247.0365343957
  0
LINE
  5
295
100
AcDbEntity
  8
0
100
AcDbLine
 62
7
  6
CONTINUOUS
 10
131.2492495632
 20
334.9205343957
 11
132.0112495632
 21
334.1585343957
  0
LINE
  5
296
100
AcDbEntity
  8
0
100
AcDbLine
 62
7
  6
CONTINUOUS
 10
140.0987207582
 20
240.1531343957
 11
140.0987207582
 21
242.8201343957
  0
LINE
  5
297
100
AcDbEntity
  8
0
100
AcDbLine
 62
7
  6
CONTINUOUS
 10
142.3490495632
 20
334.9205343957
 11
142.3490495632
 21
336.7112343957
  0
LINE
  5
298
100
AcDbEntity
  8
0
100
AcDbLine
 62
7
  6
CONTINUOUS
 10
142.3490495632
 20
341.1054343957
 11
142.3490495632
 21
341.6515343957
  0
LINE
  5
299
100
AcDbEntity
  8
0
100
AcDbLine
 62
7
  6
CONTINUOUS
 10
143.3245207582
 20
254.3136343957
 11
143.3245207582
 21
249.3225343957
  0
LINE
  5
29A
100
AcDbEntity
  8
0
100
AcDbLine
 62
7
  6
CONTINUOUS
 10
145.1279207582
 20
246.9349343957
 11
145.1279207582
 21
247.0365343957
  0
LINE
  5
29B
100
AcDbEntity
  8
0
100
AcDbLine
 62
7
  6
CONTINUOUS
 10
145.9915207582
 20
247.0365343957
 11
145.9915207582
 21
246.9349343957
  0
LINE
  5
29C
100
AcDbEntity
  8
0
100
AcDbLine
 62
7
  6
CONTINUOUS
 10
145.9915207582
 20
249.0177343957
 11
145.9915207582
 21
254.3136343957
  0
LINE
  5
29D
100
AcDbEntity
  8
0
100
AcDbLine
 62
7
  6
CONTINUOUS
 10
146.4487207582
 20
245.4871343957
 11
146.4487207582
 21
245.8681343957
  0
LINE
  5
29E
100
AcDbEntity
  8
0
100
AcDbLine
 62
7
  6
CONTINUOUS
 10
146.4487207582
 20
247.0365343957
 11
146.4487207582
 21
248.5605343957
  0
LINE
  5
29F
100
AcDbEntity
  8
0
100
AcDbLine
 62
7
  6
CONTINUOUS
 10
147.9561623639
 20
246.9349343957
 11
147.9561623639
 21
245.8681343957
  0
LINE
  5
2A0
100
AcDbEntity
  8
0
100
AcDbLine
 62
7
  6
CONTINUOUS
 10
148.0362207582
 20
238.7561343957
 11
148.0362207582
 21
240.1531343957
  0
LINE
  5
2A1
100
AcDbEntity
  8
0
100
AcDbLine
 62
7
  6
CONTINUOUS
 10
148.2180537116
 20
245.8681343957
 11
148.2180537116
 21
246.9349343957
  0
LINE
  5
2A2
100
AcDbEntity
  8
0
100
AcDbLine
 62
7
  6
CONTINUOUS
 10
149.6568248927
 20
227.1991343957
 11
149.6568248927
 21
229.8661343957
  0
LINE
  5
2A3
100
AcDbEntity
  8
0
100
AcDbLine
 62
7
  6
CONTINUOUS
 10
152.1510151824
 20
245.4871343957
 11
152.1510151824
 21
242.8201343957
  0
LINE
  5
2A4
100
AcDbEntity
  8
0
100
AcDbLine
 62
7
  6
CONTINUOUS
 10
152.7987207582
 20
240.1531343957
 11
152.7987207582
 21
242.8201343957
  0
LINE
  5
2A5
100
AcDbEntity
  8
0
100
AcDbLine
 62
7
  6
CONTINUOUS
 10
155.5321744908
 20
229.8661343957
 11
155.5321744908
 21
227.1991343957
  0
LINE
  5
2A6
100
AcDbEntity
  8
0
100
AcDbLine
 62
7
  6
CONTINUOUS
 10
157.4723207582
 20
343.4041343957
 11
157.4723207582
 21
344.2931343957
  0
LINE
  5
2A7
100
AcDbEntity
  8
0
100
AcDbLine
 62
7
  6
CONTINUOUS
 10
158.1073207582
 20
354.1991343957
 11
158.1073207582
 21
348.2555343957
  0
LINE
  5
2A8
100
AcDbEntity
  8
0
100
AcDbLine
 62
7
  6
CONTINUOUS
 10
158.1073207582
 20
543.6831343957
 11
158.1073207582
 21
549.6267343957
  0
LINE
  5
2A9
100
AcDbEntity
  8
0
100
AcDbLine
 62
7
  6
CONTINUOUS
 10
146.4487207582
 20
248.5605343957
 11
133.7487207582
 21
248.5605343957
  0
LINE
  5
2AA
100
AcDbEntity
  8
0
100
AcDbLine
 62
7
  6
CONTINUOUS
 10
145.6867207582
 20
249.3225343957
 11
134.5107207582
 21
249.3225343957
  0
LINE
  5
2AB
100
AcDbEntity
  8
0
100
AcDbLine
 62
7
  6
CONTINUOUS
 10
166.9465207582
 20
250.5036343957
 11
164.2795207582
 21
250.5036343957
  0
LINE
  5
2AC
100
AcDbEntity
  8
0
100
AcDbLine
 62
7
  6
CONTINUOUS
 10
145.9915207582
 20
250.5036343957
 11
143.3245207582
 21
250.5036343957
  0
LINE
  5
2AD
100
AcDbEntity
  8
0
100
AcDbLine
 62
7
  6
CONTINUOUS
 10
136.6443207582
 20
253.3611343957
 11
143.3245207582
 21
253.3611343957
  0
LINE
  5
2AE
100
AcDbEntity
  8
0
100
AcDbLine
 62
7
  6
CONTINUOUS
 10
145.9915207582
 20
253.3611343957
 11
162.0443207582
 21
253.3611343957
  0
LINE
  5
2AF
100
AcDbEntity
  8
0
100
AcDbLine
 62
7
  6
CONTINUOUS
 10
184.3963207582
 20
253.3611343957
 11
209.7963207582
 21
253.3611343957
  0
LINE
  5
2B0
100
AcDbEntity
  8
0
100
AcDbLine
 62
7
  6
CONTINUOUS
 10
166.9465207582
 20
254.3136343957
 11
164.2795207582
 21
254.3136343957
  0
LINE
  5
2B1
100
AcDbEntity
  8
0
100
AcDbLine
 62
7
  6
CONTINUOUS
 10
143.3245207582
 20
254.3136343957
 11
145.9915207582
 21
254.3136343957
  0
LINE
  5
2B2
100
AcDbEntity
  8
0
100
AcDbLine
 62
7
  6
CONTINUOUS
 10
264.1523207582
 20
258.8221343957
 11
268.9783207582
 21
258.8221343957
  0
LINE
  5
2B3
100
AcDbEntity
  8
0
100
AcDbLine
 62
7
  6
CONTINUOUS
 10
65.2703207582
 20
263.9021343957
 11
298.6963207582
 21
263.9021343957
  0
LINE
  5
2B4
100
AcDbEntity
  8
0
100
AcDbLine
 62
7
  6
CONTINUOUS
 10
268.2163207582
 20
250.8983116804
 11
276.0903207582
 21
246.3522556608
  0
LINE
  5
2B5
100
AcDbEntity
  8
0
100
AcDbLine
 62
7
  6
CONTINUOUS
 10
158.9645385485
 20
335.6753158997
 11
159.7095273835
 21
334.9190574273
  0
LINE
  5
2B6
100
AcDbEntity
  8
0
100
AcDbLine
 62
7
  6
CONTINUOUS
 10
169.4963236992
 20
332.6404486257
 11
169.6482608088
 21
332.3691376645
  0
LINE
  5
2B7
100
AcDbEntity
  8
0
100
AcDbLine
 62
7
  6
CONTINUOUS
 10
159.200475673
 20
554.4781343957
 11
159.200475673
 21
553.5891343957
  0
LINE
  5
2B8
100
AcDbEntity
  8
0
100
AcDbLine
 62
7
  6
CONTINUOUS
 10
159.3987885321
 20
553.5891343957
 11
159.3987885321
 21
554.4781343957
  0
LINE
  5
2B9
100
AcDbEntity
  8
0
100
AcDbLine
 62
7
  6
CONTINUOUS
 10
161.4347207582
 20
348.2555343957
 11
161.4347207582
 21
347.7221343957
  0
LINE
  5
2BA
100
AcDbEntity
  8
0
100
AcDbLine
 62
7
  6
CONTINUOUS
 10
161.4347207582
 20
343.3025343957
 11
161.4347207582
 21
340.8387343957
  0
LINE
  5
2BB
100
AcDbEntity
  8
0
100
AcDbLine
 62
7
  6
CONTINUOUS
 10
161.4347207582
 20
549.6267343957
 11
161.4347207582
 21
550.1601343957
  0
LINE
  5
2BC
100
AcDbEntity
  8
0
100
AcDbLine
 62
7
  6
CONTINUOUS
 10
161.4347207582
 20
553.5637343957
 11
161.4347207582
 21
553.5891343957
  0
LINE
  5
2BD
100
AcDbEntity
  8
0
100
AcDbLine
 62
7
  6
CONTINUOUS
 10
161.4347207582
 20
554.5797343957
 11
161.4347207582
 21
557.0435343957
  0
LINE
  5
2BE
100
AcDbEntity
  8
0
100
AcDbLine
 62
7
  6
CONTINUOUS
 10
161.6727061569
 20
242.8201343957
 11
161.6727061569
 21
245.4871343957
  0
LINE
  5
2BF
100
AcDbEntity
  8
0
100
AcDbLine
 62
7
  6
CONTINUOUS
 10
162.2602207582
 20
343.4041343957
 11
162.2602207582
 21
343.3025343957
  0
LINE
  5
2C0
100
AcDbEntity
  8
0
100
AcDbLine
 62
7
  6
CONTINUOUS
 10
162.2602207582
 20
554.4781343957
 11
162.2602207582
 21
554.5797343957
  0
LINE
  5
2C1
100
AcDbEntity
  8
0
100
AcDbLine
 62
7
  6
CONTINUOUS
 10
162.7144670257
 20
227.1991343957
 11
162.7144670257
 21
229.8661343957
  0
LINE
  5
2C2
100
AcDbEntity
  8
0
100
AcDbLine
 62
7
  6
CONTINUOUS
 10
162.8307439587
 20
337.7780343957
 11
162.8307439587
 21
340.3307343957
  0
LINE
  5
2C3
100
AcDbEntity
  8
0
100
AcDbLine
 62
7
  6
CONTINUOUS
 10
162.8739534437
 20
337.6510343957
 11
162.8739534437
 21
337.7780343957
  0
LINE
  5
2C4
100
AcDbEntity
  8
0
100
AcDbLine
 62
7
  6
CONTINUOUS
 10
163.1365207582
 20
245.4871343957
 11
163.1365207582
 21
242.8201343957
  0
LINE
  5
2C5
100
AcDbEntity
  8
0
100
AcDbLine
 62
7
  6
CONTINUOUS
 10
163.7715207582
 20
245.4871343957
 11
163.7715207582
 21
242.8201343957
  0
LINE
  5
2C6
100
AcDbEntity
  8
0
100
AcDbLine
 62
7
  6
CONTINUOUS
 10
164.2795207582
 20
254.3136343957
 11
164.2795207582
 21
245.9951343957
  0
LINE
  5
2C7
100
AcDbEntity
  8
0
100
AcDbLine
 62
7
  6
CONTINUOUS
 10
166.9465207582
 20
245.9951343957
 11
166.9465207582
 21
254.3136343957
  0
LINE
  5
2C8
100
AcDbEntity
  8
0
100
AcDbLine
 62
7
  6
CONTINUOUS
 10
168.5898166237
 20
229.8661343957
 11
168.5898166237
 21
227.1991343957
  0
LINE
  5
2C9
100
AcDbEntity
  8
0
100
AcDbLine
 62
7
  6
CONTINUOUS
 10
169.427099467
 20
344.3185343957
 11
169.427099467
 21
347.7221343957
  0
LINE
  5
2CA
100
AcDbEntity
  8
0
100
AcDbLine
 62
7
  6
CONTINUOUS
 10
169.427099467
 20
550.1601343957
 11
169.427099467
 21
553.5637343957
  0
LINE
  5
2CB
100
AcDbEntity
  8
0
100
AcDbLine
 62
7
  6
CONTINUOUS
 10
169.9564207582
 20
343.4041343957
 11
169.9564207582
 21
343.3025343957
  0
LINE
  5
2CC
100
AcDbEntity
  8
0
100
AcDbLine
 62
7
  6
CONTINUOUS
 10
169.9564207582
 20
554.4781343957
 11
169.9564207582
 21
554.5797343957
  0
LINE
  5
2CD
100
AcDbEntity
  8
0
100
AcDbLine
 62
7
  6
CONTINUOUS
 10
170.7819207582
 20
348.2555343957
 11
170.7819207582
 21
347.7221343957
  0
LINE
  5
2CE
100
AcDbEntity
  8
0
100
AcDbLine
 62
7
  6
CONTINUOUS
 10
170.7819207582
 20
343.3025343957
 11
170.7819207582
 21
340.8387343957
  0
LINE
  5
2CF
100
AcDbEntity
  8
0
100
AcDbLine
 62
7
  6
CONTINUOUS
 10
170.7819207582
 20
549.6267343957
 11
170.7819207582
 21
550.1601343957
  0
LINE
  5
2D0
100
AcDbEntity
  8
0
100
AcDbLine
 62
7
  6
CONTINUOUS
 10
170.7819207582
 20
553.5637343957
 11
170.7819207582
 21
553.5891343957
  0
LINE
  5
2D1
100
AcDbEntity
  8
0
100
AcDbLine
 62
7
  6
CONTINUOUS
 10
170.7819207582
 20
554.5797343957
 11
170.7819207582
 21
557.0435343957
  0
LINE
  5
2D2
100
AcDbEntity
  8
0
100
AcDbLine
 62
7
  6
CONTINUOUS
 10
172.2617344737
 20
337.7780343957
 11
172.2617344737
 21
337.6510343957
  0
LINE
  5
2D3
100
AcDbEntity
  8
0
100
AcDbLine
 62
7
  6
CONTINUOUS
 10
172.2922439587
 20
341.1308343957
 11
172.2922439587
 21
341.6515343957
  0
LINE
  5
2D4
100
AcDbEntity
  8
0
100
AcDbLine
 62
7
  6
CONTINUOUS
 10
172.3049439587
 20
337.7780343957
 11
172.3049439587
 21
341.1308343957
  0
LINE
  5
2D5
100
AcDbEntity
  8
0
100
AcDbLine
 62
7
  6
CONTINUOUS
 10
172.8178529844
 20
344.2931343957
 11
172.8178529844
 21
343.4041343957
  0
LINE
  5
2D6
100
AcDbEntity
  8
0
100
AcDbLine
 62
7
  6
CONTINUOUS
 10
173.0161658435
 20
343.4041343957
 11
173.0161658435
 21
344.2931343957
  0
LINE
  5
2D7
100
AcDbEntity
  8
0
100
AcDbLine
 62
7
  6
CONTINUOUS
 10
173.1958426371
 20
341.6515343957
 11
173.1958426371
 21
344.3185343957
  0
LINE
  5
2D8
100
AcDbEntity
  8
0
100
AcDbLine
 62
7
  6
CONTINUOUS
 10
174.1093207582
 20
354.1991343957
 11
174.1093207582
 21
348.2555343957
  0
LINE
  5
2D9
100
AcDbEntity
  8
0
100
AcDbLine
 62
7
  6
CONTINUOUS
 10
174.1093207582
 20
543.6831343957
 11
174.1093207582
 21
549.6267343957
  0
LINE
  5
2DA
100
AcDbEntity
  8
0
100
AcDbLine
 62
7
  6
CONTINUOUS
 10
174.7443207582
 20
554.4781343957
 11
174.7443207582
 21
553.5891343957
  0
LINE
  5
2DB
100
AcDbEntity
  8
0
100
AcDbLine
 62
7
  6
CONTINUOUS
 10
161.4347207582
 20
340.8387343957
 11
161.9427207582
 21
340.3307343957
  0
LINE
  5
2DC
100
AcDbEntity
  8
0
100
AcDbLine
 62
7
  6
CONTINUOUS
 10
173.1419870321
 20
344.3024892938
 11
173.1364702559
 21
344.3200753584
  0
LINE
  5
2DD
100
AcDbEntity
  8
0
100
AcDbLine
 62
7
  6
CONTINUOUS
 10
173.1293174865
 20
344.3008572782
 11
173.1246203083
 21
344.3185343957
  0
LINE
  5
2DE
100
AcDbEntity
  8
0
100
AcDbLine
 62
7
  6
CONTINUOUS
 10
176.9630649536
 20
344.3185343957
 11
176.9630649536
 21
341.6515343957
  0
LINE
  5
2DF
100
AcDbEntity
  8
0
100
AcDbLine
 62
7
  6
CONTINUOUS
 10
159.7095273835
 20
334.9190574273
 11
159.7568393701
 21
334.8951343957
  0
LINE
  5
2E0
100
AcDbEntity
  8
0
100
AcDbLine
 62
7
  6
CONTINUOUS
 10
197.8583207582
 20
347.7221343957
 11
197.8583207582
 21
344.3185343957
  0
LINE
  5
2E1
100
AcDbEntity
  8
0
100
AcDbLine
 62
7
  6
CONTINUOUS
 10
197.8583207582
 20
550.1601343957
 11
197.8583207582
 21
553.5637343957
  0
LINE
  5
2E2
100
AcDbEntity
  8
0
100
AcDbLine
 62
7
  6
CONTINUOUS
 10
83.7812574452
 20
239.476166
 11
83.7861158528
 21
239.4828961338
  0
LINE
  5
2E3
100
AcDbEntity
  8
0
100
AcDbLine
 62
7
  6
CONTINUOUS
 10
223.5197073762
 20
332.4850947424
 11
227.5492676419
 21
331.4061666276
  0
LINE
  5
2E4
100
AcDbEntity
  8
0
100
AcDbLine
 62
7
  6
CONTINUOUS
 10
239.5529204423
 20
230.8821343957
 11
239.2631989689
 21
232.1521043826
  0
LINE
  5
2E5
100
AcDbEntity
  8
0
100
AcDbLine
 62
7
  6
CONTINUOUS
 10
226.4092836289
 20
354.1991343957
 11
226.4092836289
 21
351.5321343957
  0
LINE
  5
2E6
100
AcDbEntity
  8
0
100
AcDbLine
 62
7
  6
CONTINUOUS
 10
229.351683064
 20
354.1991343957
 11
229.351683064
 21
351.5321343957
  0
LINE
  5
2E7
100
AcDbEntity
  8
0
100
AcDbLine
 62
7
  6
CONTINUOUS
 10
173.7161246767
 20
332.6404486257
 11
173.5641875671
 21
332.3691376645
  0
LINE
  5
2E8
100
AcDbEntity
  8
0
100
AcDbLine
 62
7
  6
CONTINUOUS
 10
83.7973827742
 20
230.3763668834
 11
83.8004921517
 21
230.3806757566
  0
LINE
  5
2E9
100
AcDbEntity
  8
0
100
AcDbLine
 62
7
  6
CONTINUOUS
 10
83.7822276094
 20
239.4779570315
 11
83.7861158528
 21
239.4828961338
  0
LINE
  5
2EA
100
AcDbEntity
  8
0
100
AcDbLine
 62
7
  6
CONTINUOUS
 10
158.9645385485
 20
340.4649528918
 11
159.7095273835
 21
341.2212113642
  0
LINE
  5
2EB
100
AcDbEntity
  8
0
100
AcDbLine
 62
7
  6
CONTINUOUS
 10
142.3490495632
 20
334.9205343957
 11
141.5870495632
 21
334.1585343957
  0
LINE
  5
2EC
100
AcDbEntity
  8
0
100
AcDbLine
 62
7
  6
CONTINUOUS
 10
364.5173572724
 20
324.4319663369
 11
356.0349689088
 21
324.4319663369
  0
LINE
  5
2ED
100
AcDbEntity
  8
0
100
AcDbLine
 62
7
  6
CONTINUOUS
 10
351.3639130202
 20
324.6335343957
 11
350.2041859954
 21
324.6335343957
  0
LINE
  5
2EE
100
AcDbEntity
  8
0
100
AcDbLine
 62
7
  6
CONTINUOUS
 10
354.3892878673
 20
324.6335343957
 11
355.549014892
 21
324.6335343957
  0
LINE
  5
2EF
100
AcDbEntity
  8
0
100
AcDbLine
 62
7
  6
CONTINUOUS
 10
340.4065241018
 20
326.2591343957
 11
349.4574906329
 21
326.2591343957
  0
LINE
  5
2F0
100
AcDbEntity
  8
0
100
AcDbLine
 62
7
  6
CONTINUOUS
 10
349.2324458428
 20
326.8941343957
 11
354.1113839312
 21
326.8941343957
  0
LINE
  5
2F1
100
AcDbEntity
  8
0
100
AcDbLine
 62
7
  6
CONTINUOUS
 10
349.0471008709
 20
328.4181343957
 11
351.6943038621
 21
328.4181343957
  0
LINE
  5
2F2
100
AcDbEntity
  8
0
100
AcDbLine
 62
7
  6
CONTINUOUS
 10
372.5415369499
 20
330.1326343957
 11
371.7851932381
 21
330.1326343957
  0
LINE
  5
2F3
100
AcDbEntity
  8
0
100
AcDbLine
 62
7
  6
CONTINUOUS
 10
371.7383453918
 20
330.1504143957
 11
364.7271834321
 21
330.1504143957
  0
LINE
  5
2F4
100
AcDbEntity
  8
0
100
AcDbLine
 62
7
  6
CONTINUOUS
 10
339.6938775944
 20
330.1504143957
 11
335.5260756956
 21
330.1504143957
  0
LINE
  5
2F5
100
AcDbEntity
  8
0
100
AcDbLine
 62
7
  6
CONTINUOUS
 10
372.5415369499
 20
330.4501343957
 11
397.7529940091
 21
330.4501343957
  0
LINE
  5
2F6
100
AcDbEntity
  8
0
100
AcDbLine
 62
7
  6
CONTINUOUS
 10
397.4650028168
 20
330.6939197852
 11
372.2535457576
 21
330.6939197852
  0
LINE
  5
2F7
100
AcDbEntity
  8
0
100
AcDbLine
 62
7
  6
CONTINUOUS
 10
397.9431954407
 20
330.6939197852
 11
398.0409852015
 21
330.6939197852
  0
LINE
  5
2F8
100
AcDbEntity
  8
0
100
AcDbLine
 62
7
  6
CONTINUOUS
 10
328.6736016669
 20
330.9581343957
 11
321.3622791197
 21
330.9581343957
  0
LINE
  5
2F9
100
AcDbEntity
  8
0
100
AcDbLine
 62
7
  6
CONTINUOUS
 10
372.1108487359
 20
331.1799277443
 11
397.3223057951
 21
331.1799277443
  0
LINE
  5
2FA
100
AcDbEntity
  8
0
100
AcDbLine
 62
7
  6
CONTINUOUS
 10
363.0809337398
 20
331.2510503663
 11
354.5985453762
 21
331.2510503663
  0
LINE
  5
2FB
100
AcDbEntity
  8
0
100
AcDbLine
 62
7
  6
CONTINUOUS
 10
397.3282367901
 20
331.2976632362
 11
372.1167797309
 21
331.2976632362
  0
LINE
  5
2FC
100
AcDbEntity
  8
0
100
AcDbLine
 62
7
  6
CONTINUOUS
 10
234.8869814066
 20
331.4026343957
 11
227.5756588594
 21
331.4026343957
  0
LINE
  5
2FD
100
AcDbEntity
  8
0
100
AcDbLine
 62
7
  6
CONTINUOUS
 10
170.132311026
 20
331.6543295294
 11
173.0801373499
 21
331.6543295294
  0
LINE
  5
2FE
100
AcDbEntity
  8
0
100
AcDbLine
 62
7
  6
CONTINUOUS
 10
333.9205167451
 20
331.7201343957
 11
328.673601667
 21
331.7201343957
  0
LINE
  5
2FF
100
AcDbEntity
  8
0
100
AcDbLine
 62
7
  6
CONTINUOUS
 10
320.273944195
 20
332.2281343957
 11
313.2513578807
 21
332.2281343957
  0
LINE
  5
300
100
AcDbEntity
  8
0
100
AcDbLine
 62
7
  6
CONTINUOUS
 10
312.4642643782
 20
332.7361343957
 11
306.4875194548
 21
332.7361343957
  0
LINE
  5
301
100
AcDbEntity
  8
0
100
AcDbLine
 62
7
  6
CONTINUOUS
 10
501.1199679519
 20
332.8631343957
 11
397.7529940078
 21
332.8631343957
  0
LINE
  5
302
100
AcDbEntity
  8
0
100
AcDbLine
 62
7
  6
CONTINUOUS
 10
353.4750328609
 20
333.3711343957
 11
352.4665745785
 21
333.3711343957
  0
LINE
  5
303
100
AcDbEntity
  8
0
100
AcDbLine
 62
7
  6
CONTINUOUS
 10
306.1066747193
 20
333.7521343957
 11
234.5746987259
 21
333.7521343957
  0
LINE
  5
304
100
AcDbEntity
  8
0
100
AcDbLine
 62
7
  6
CONTINUOUS
 10
132.0112495632
 20
334.1585343957
 11
141.5870495632
 21
334.1585343957
  0
LINE
  5
305
100
AcDbEntity
  8
0
100
AcDbLine
 62
7
  6
CONTINUOUS
 10
396.915024745
 20
334.528798306
 11
371.7035676858
 21
334.528798306
  0
LINE
  5
306
100
AcDbEntity
  8
0
100
AcDbLine
 62
7
  6
CONTINUOUS
 10
169.4565741491
 20
334.8622319626
 11
172.404400473
 21
334.8622319626
  0
LINE
  5
307
100
AcDbEntity
  8
0
100
AcDbLine
 62
7
  6
CONTINUOUS
 10
222.9833864602
 20
334.8951343957
 11
173.389817621
 21
334.8951343957
  0
LINE
  5
308
100
AcDbEntity
  8
0
100
AcDbLine
 62
7
  6
CONTINUOUS
 10
169.0915621278
 20
334.8951343957
 11
159.7568393701
 21
334.8951343957
  0
LINE
  5
309
100
AcDbEntity
  8
0
100
AcDbLine
 62
7
  6
CONTINUOUS
 10
131.2492495632
 20
334.9205343957
 11
142.3490495632
 21
334.9205343957
  0
LINE
  5
30A
100
AcDbEntity
  8
0
100
AcDbLine
 62
7
  6
CONTINUOUS
 10
371.6444606441
 20
335.7021253123
 11
396.8559177033
 21
335.7021253123
  0
LINE
  5
30B
100
AcDbEntity
  8
0
100
AcDbLine
 62
7
  6
CONTINUOUS
 10
396.8702363919
 20
335.7508929498
 11
371.6587793327
 21
335.7508929498
  0
LINE
  5
30C
100
AcDbEntity
  8
0
100
AcDbLine
 62
7
  6
CONTINUOUS
 10
119.2503307504
 20
337.6510343957
 11
128.6381117803
 21
337.6510343957
  0
LINE
  5
30D
100
AcDbEntity
  8
0
100
AcDbLine
 62
7
  6
CONTINUOUS
 10
162.8739534437
 20
337.6510343957
 11
172.2617344737
 21
337.6510343957
  0
LINE
  5
30E
100
AcDbEntity
  8
0
100
AcDbLine
 62
7
  6
CONTINUOUS
 10
119.2071212653
 20
337.7780343957
 11
119.2503307504
 21
337.7780343957
  0
LINE
  5
30F
100
AcDbEntity
  8
0
100
AcDbLine
 62
7
  6
CONTINUOUS
 10
128.6381117803
 20
337.7780343957
 11
128.6813212653
 21
337.7780343957
  0
LINE
  5
310
100
AcDbEntity
  8
0
100
AcDbLine
 62
7
  6
CONTINUOUS
 10
162.8307439587
 20
337.7780343957
 11
162.8739534437
 21
337.7780343957
  0
LINE
  5
311
100
AcDbEntity
  8
0
100
AcDbLine
 62
7
  6
CONTINUOUS
 10
172.2617344737
 20
337.7780343957
 11
172.3049439587
 21
337.7780343957
  0
LINE
  5
312
100
AcDbEntity
  8
0
100
AcDbLine
 62
7
  6
CONTINUOUS
 10
339.5772045886
 20
338.0701343957
 11
348.0595929522
 21
338.0701343957
  0
LINE
  5
313
100
AcDbEntity
  8
0
100
AcDbLine
 62
7
  6
CONTINUOUS
 10
227.5492676419
 20
331.4061666276
 11
227.5756588594
 21
331.4026343957
  0
LINE
  5
314
100
AcDbEntity
  8
0
100
AcDbLine
 62
7
  6
CONTINUOUS
 10
243.6078183776
 20
238.2591715045
 11
243.6076357013
 21
238.2659859642
  0
LINE
  5
315
100
AcDbEntity
  8
0
100
AcDbLine
 62
7
  6
CONTINUOUS
 10
243.6065313656
 20
238.230880246
 11
243.6063728444
 21
238.2381562196
  0
LINE
  5
316
100
AcDbEntity
  8
0
100
AcDbLine
 62
7
  6
CONTINUOUS
 10
232.7452207582
 20
347.6586343957
 11
232.7452207582
 21
351.0114343957
  0
LINE
  5
317
100
AcDbEntity
  8
0
100
AcDbLine
 62
7
  6
CONTINUOUS
 10
232.7579207582
 20
351.0114343957
 11
232.7579207582
 21
351.5321343957
  0
LINE
  5
318
100
AcDbEntity
  8
0
100
AcDbLine
 62
7
  6
CONTINUOUS
 10
232.7884302433
 20
347.5316343957
 11
232.7884302433
 21
347.6586343957
  0
LINE
  5
319
100
AcDbEntity
  8
0
100
AcDbLine
 62
7
  6
CONTINUOUS
 10
242.1762112732
 20
347.6586343957
 11
242.1762112732
 21
347.5316343957
  0
LINE
  5
31A
100
AcDbEntity
  8
0
100
AcDbLine
 62
7
  6
CONTINUOUS
 10
242.2067207582
 20
351.0114343957
 11
242.2067207582
 21
351.5321343957
  0
LINE
  5
31B
100
AcDbEntity
  8
0
100
AcDbLine
 62
7
  6
CONTINUOUS
 10
242.2194207582
 20
347.6586343957
 11
242.2194207582
 21
351.0114343957
  0
LINE
  5
31C
100
AcDbEntity
  8
0
100
AcDbLine
 62
7
  6
CONTINUOUS
 10
245.1023207582
 20
227.1991343957
 11
245.1023207582
 21
229.8661343957
  0
LINE
  5
31D
100
AcDbEntity
  8
0
100
AcDbLine
 62
7
  6
CONTINUOUS
 10
73.8383255837
 20
237.1031411032
 11
73.0777319551
 21
236.3416194934
  0
LINE
  5
31E
100
AcDbEntity
  8
0
100
AcDbLine
 62
7
  6
CONTINUOUS
 10
170.7819207582
 20
340.8387343957
 11
170.2739207582
 21
340.3307343957
  0
LINE
  5
31F
100
AcDbEntity
  8
0
100
AcDbLine
 62
7
  6
CONTINUOUS
 10
227.5756588594
 20
344.7376343957
 11
227.5492676419
 21
344.7341021639
  0
LINE
  5
320
100
AcDbEntity
  8
0
100
AcDbLine
 62
7
  6
CONTINUOUS
 10
161.9427207582
 20
340.3307343957
 11
170.2739207582
 21
340.3307343957
  0
LINE
  5
321
100
AcDbEntity
  8
0
100
AcDbLine
 62
7
  6
CONTINUOUS
 10
371.6587793327
 20
340.3893758417
 11
396.8702363919
 21
340.3893758417
  0
LINE
  5
322
100
AcDbEntity
  8
0
100
AcDbLine
 62
7
  6
CONTINUOUS
 10
396.8559177033
 20
340.4381434792
 11
371.6444606441
 21
340.4381434792
  0
LINE
  5
323
100
AcDbEntity
  8
0
100
AcDbLine
 62
7
  6
CONTINUOUS
 10
161.4347207582
 20
340.8387343957
 11
170.7819207582
 21
340.8387343957
  0
LINE
  5
324
100
AcDbEntity
  8
0
100
AcDbLine
 62
7
  6
CONTINUOUS
 10
172.3049439587
 20
341.1308343957
 11
170.7819207582
 21
341.1308343957
  0
LINE
  5
325
100
AcDbEntity
  8
0
100
AcDbLine
 62
7
  6
CONTINUOUS
 10
128.6813212653
 20
341.1308343957
 11
119.2071212653
 21
341.1308343957
  0
LINE
  5
326
100
AcDbEntity
  8
0
100
AcDbLine
 62
7
  6
CONTINUOUS
 10
222.9832207187
 20
341.2451343957
 11
173.389572486
 21
341.2451343957
  0
LINE
  5
327
100
AcDbEntity
  8
0
100
AcDbLine
 62
7
  6
CONTINUOUS
 10
161.4347207582
 20
341.2451343957
 11
159.7568393701
 21
341.2451343957
  0
LINE
  5
328
100
AcDbEntity
  8
0
100
AcDbLine
 62
7
  6
CONTINUOUS
 10
172.2922439587
 20
341.2780368289
 11
172.404400473
 21
341.2780368289
  0
LINE
  5
329
100
AcDbEntity
  8
0
100
AcDbLine
 62
7
  6
CONTINUOUS
 10
371.7035676858
 20
341.6114704855
 11
396.915024745
 21
341.6114704855
  0
LINE
  5
32A
100
AcDbEntity
  8
0
100
AcDbLine
 62
7
  6
CONTINUOUS
 10
100.2535865387
 20
341.6515343957
 11
161.4347207582
 21
341.6515343957
  0
LINE
  5
32B
100
AcDbEntity
  8
0
100
AcDbLine
 62
7
  6
CONTINUOUS
 10
170.7819207582
 20
341.6515343957
 11
176.9630252918
 21
341.6515343957
  0
LINE
  5
32C
100
AcDbEntity
  8
0
100
AcDbLine
 62
7
  6
CONTINUOUS
 10
306.1069898047
 20
342.3881343957
 11
234.5746769197
 21
342.3881343957
  0
LINE
  5
32D
100
AcDbEntity
  8
0
100
AcDbLine
 62
7
  6
CONTINUOUS
 10
501.1199679519
 20
343.2771343957
 11
397.7529940105
 21
343.2771343957
  0
LINE
  5
32E
100
AcDbEntity
  8
0
100
AcDbLine
 62
7
  6
CONTINUOUS
 10
170.7819207582
 20
343.3025343957
 11
161.4347207582
 21
343.3025343957
  0
LINE
  5
32F
100
AcDbEntity
  8
0
100
AcDbLine
 62
7
  6
CONTINUOUS
 10
312.4643136345
 20
343.4041343957
 11
306.4875194548
 21
343.4041343957
  0
LINE
  5
330
100
AcDbEntity
  8
0
100
AcDbLine
 62
7
  6
CONTINUOUS
 10
157.4723207582
 20
343.4041343957
 11
173.0161658435
 21
343.4041343957
  0
LINE
  5
331
100
AcDbEntity
  8
0
100
AcDbLine
 62
7
  6
CONTINUOUS
 10
320.2745810272
 20
343.9121343957
 11
313.2513578807
 21
343.9121343957
  0
LINE
  5
332
100
AcDbEntity
  8
0
100
AcDbLine
 62
7
  6
CONTINUOUS
 10
100.2535864051
 20
344.3185343957
 11
197.8577111777
 21
344.3185343957
  0
LINE
  5
333
100
AcDbEntity
  8
0
100
AcDbLine
 62
7
  6
CONTINUOUS
 10
333.9205167451
 20
344.4201343957
 11
328.6736016668
 21
344.4201343957
  0
LINE
  5
334
100
AcDbEntity
  8
0
100
AcDbLine
 62
7
  6
CONTINUOUS
 10
234.8869814066
 20
344.7376343957
 11
227.5756588594
 21
344.7376343957
  0
LINE
  5
335
100
AcDbEntity
  8
0
100
AcDbLine
 62
7
  6
CONTINUOUS
 10
372.1167797309
 20
344.8426055553
 11
397.3282367901
 21
344.8426055553
  0
LINE
  5
336
100
AcDbEntity
  8
0
100
AcDbLine
 62
7
  6
CONTINUOUS
 10
363.0809337398
 20
344.8892184251
 11
354.5985453762
 21
344.8892184251
  0
LINE
  5
337
100
AcDbEntity
  8
0
100
AcDbLine
 62
7
  6
CONTINUOUS
 10
397.3223057951
 20
344.9603410472
 11
372.1108487359
 21
344.9603410472
  0
LINE
  5
338
100
AcDbEntity
  8
0
100
AcDbLine
 62
7
  6
CONTINUOUS
 10
328.6736016669
 20
345.1821343957
 11
321.3622791197
 21
345.1821343957
  0
LINE
  5
339
100
AcDbEntity
  8
0
100
AcDbLine
 62
7
  6
CONTINUOUS
 10
372.2535457576
 20
345.4463490063
 11
397.4650028168
 21
345.4463490063
  0
LINE
  5
33A
100
AcDbEntity
  8
0
100
AcDbLine
 62
7
  6
CONTINUOUS
 10
372.5415369499
 20
345.6901343957
 11
397.7529940091
 21
345.6901343957
  0
LINE
  5
33B
100
AcDbEntity
  8
0
100
AcDbLine
 62
7
  6
CONTINUOUS
 10
339.6938775944
 20
345.9898543957
 11
335.5260756956
 21
345.9898543957
  0
LINE
  5
33C
100
AcDbEntity
  8
0
100
AcDbLine
 62
7
  6
CONTINUOUS
 10
372.5415369499
 20
346.0076343957
 11
371.7851932381
 21
346.0076343957
  0
LINE
  5
33D
100
AcDbEntity
  8
0
100
AcDbLine
 62
7
  6
CONTINUOUS
 10
232.7884302433
 20
347.5316343957
 11
242.1762112732
 21
347.5316343957
  0
LINE
  5
33E
100
AcDbEntity
  8
0
100
AcDbLine
 62
7
  6
CONTINUOUS
 10
270.8884302433
 20
347.5316343957
 11
280.2762112732
 21
347.5316343957
  0
LINE
  5
33F
100
AcDbEntity
  8
0
100
AcDbLine
 62
7
  6
CONTINUOUS
 10
232.7452207582
 20
347.6586343957
 11
232.7884302433
 21
347.6586343957
  0
LINE
  5
340
100
AcDbEntity
  8
0
100
AcDbLine
 62
7
  6
CONTINUOUS
 10
242.1762112732
 20
347.6586343957
 11
242.2194207582
 21
347.6586343957
  0
LINE
  5
341
100
AcDbEntity
  8
0
100
AcDbLine
 62
7
  6
CONTINUOUS
 10
270.8452207582
 20
347.6586343957
 11
270.8884302433
 21
347.6586343957
  0
LINE
  5
342
100
AcDbEntity
  8
0
100
AcDbLine
 62
7
  6
CONTINUOUS
 10
280.2762112732
 20
347.6586343957
 11
280.3194207582
 21
347.6586343957
  0
LINE
  5
343
100
AcDbEntity
  8
0
100
AcDbLine
 62
7
  6
CONTINUOUS
 10
107.1247084062
 20
347.7221343957
 11
197.8577112267
 21
347.7221343957
  0
LINE
  5
344
100
AcDbEntity
  8
0
100
AcDbLine
 62
7
  6
CONTINUOUS
 10
158.1073207582
 20
348.2555343957
 11
174.1093207582
 21
348.2555343957
  0
LINE
  5
345
100
AcDbEntity
  8
0
100
AcDbLine
 62
7
  6
CONTINUOUS
 10
126.2175212653
 20
349.0556343957
 11
121.6709212653
 21
349.0556343957
  0
LINE
  5
346
100
AcDbEntity
  8
0
100
AcDbLine
 62
7
  6
CONTINUOUS
 10
340.4065241018
 20
349.8811343957
 11
349.0471008709
 21
349.8811343957
  0
LINE
  5
347
100
AcDbEntity
  8
0
100
AcDbLine
 62
7
  6
CONTINUOUS
 10
353.6722783272
 20
350.0081343957
 11
351.6943038621
 21
350.0081343957
  0
LINE
  5
348
100
AcDbEntity
  8
0
100
AcDbLine
 62
7
  6
CONTINUOUS
 10
280.3194207582
 20
351.0114343957
 11
270.8452207582
 21
351.0114343957
  0
LINE
  5
349
100
AcDbEntity
  8
0
100
AcDbLine
 62
7
  6
CONTINUOUS
 10
242.2194207582
 20
351.0114343957
 11
232.7452207582
 21
351.0114343957
  0
LINE
  5
34A
100
AcDbEntity
  8
0
100
AcDbLine
 62
7
  6
CONTINUOUS
 10
354.3892878673
 20
351.5067343957
 11
355.549014892
 21
351.5067343957
  0
LINE
  5
34B
100
AcDbEntity
  8
0
100
AcDbLine
 62
7
  6
CONTINUOUS
 10
226.4096810701
 20
351.5321343957
 11
347.5344134473
 21
351.5321343957
  0
LINE
  5
34C
100
AcDbEntity
  8
0
100
AcDbLine
 62
7
  6
CONTINUOUS
 10
364.5173572724
 20
351.7083024545
 11
356.0349689088
 21
351.7083024545
  0
LINE
  5
34D
100
AcDbEntity
  8
0
100
AcDbLine
 62
7
  6
CONTINUOUS
 10
106.1512447186
 20
354.0721343957
 11
158.1073207582
 21
354.0721343957
  0
LINE
  5
34E
100
AcDbEntity
  8
0
100
AcDbLine
 62
7
  6
CONTINUOUS
 10
351.3795514456
 20
354.1991343957
 11
65.2703207582
 21
354.1991343957
  0
LINE
  5
34F
100
AcDbEntity
  8
0
100
AcDbLine
 62
7
  6
CONTINUOUS
 10
251.4523207582
 20
229.8661343957
 11
251.4523207582
 21
227.1991343957
  0
LINE
  5
350
100
AcDbEntity
  8
0
100
AcDbLine
 62
7
  6
CONTINUOUS
 10
252.9763207582
 20
229.8661343957
 11
252.9763207582
 21
227.1991343957
  0
LINE
  5
351
100
AcDbEntity
  8
0
100
AcDbLine
 62
7
  6
CONTINUOUS
 10
256.2783207582
 20
227.1991343957
 11
256.2783207582
 21
229.8661343957
  0
LINE
  5
352
100
AcDbEntity
  8
0
100
AcDbLine
 62
7
  6
CONTINUOUS
 10
257.8023207582
 20
227.1991343957
 11
257.8023207582
 21
252.4721343957
  0
LINE
  5
353
100
AcDbEntity
  8
0
100
AcDbLine
 62
7
  6
CONTINUOUS
 10
254.9494274258
 20
239.1607205189
 11
254.9498044565
 21
239.1681411344
  0
LINE
  5
354
100
AcDbEntity
  8
0
100
AcDbLine
 62
7
  6
CONTINUOUS
 10
254.9512145446
 20
239.0863343957
 11
254.9515968402
 21
239.0932051888
  0
LINE
  5
355
100
AcDbEntity
  8
0
100
AcDbLine
 62
7
  6
CONTINUOUS
 10
107.1803207582
 20
246.5285343957
 11
106.4183207582
 21
245.7665343957
  0
LINE
  5
356
100
AcDbEntity
  8
0
100
AcDbLine
 62
7
  6
CONTINUOUS
 10
223.5197073762
 20
343.6551740491
 11
227.5492676419
 21
344.7341021639
  0
LINE
  5
357
100
AcDbEntity
  8
0
100
AcDbLine
 62
7
  6
CONTINUOUS
 10
65.2703207582
 20
359.5331343957
 11
306.5703207582
 21
359.5331343957
  0
LINE
  5
358
100
AcDbEntity
  8
0
100
AcDbLine
 62
7
  6
CONTINUOUS
 10
335.4080606761
 20
330.2100880057
 11
335.5260756956
 21
330.1504143957
  0
LINE
  5
359
100
AcDbEntity
  8
0
100
AcDbLine
 62
7
  6
CONTINUOUS
 10
288.2936389498
 20
232.4047986639
 11
288.2852867828
 21
232.4941324224
  0
LINE
  5
35A
100
AcDbEntity
  8
0
100
AcDbLine
 62
7
  6
CONTINUOUS
 10
270.195634261
 20
226.5895343957
 11
270.195634261
 21
227.1991343957
  0
LINE
  5
35B
100
AcDbEntity
  8
0
100
AcDbLine
 62
7
  6
CONTINUOUS
 10
270.5023207582
 20
257.2981343957
 11
270.5023207582
 21
255.2661343957
  0
LINE
  5
35C
100
AcDbEntity
  8
0
100
AcDbLine
 62
7
  6
CONTINUOUS
 10
270.8452207582
 20
347.6586343957
 11
270.8452207582
 21
351.0114343957
  0
LINE
  5
35D
100
AcDbEntity
  8
0
100
AcDbLine
 62
7
  6
CONTINUOUS
 10
270.8579207582
 20
351.0114343957
 11
270.8579207582
 21
351.5321343957
  0
LINE
  5
35E
100
AcDbEntity
  8
0
100
AcDbLine
 62
7
  6
CONTINUOUS
 10
270.8884302433
 20
347.5316343957
 11
270.8884302433
 21
347.6586343957
  0
LINE
  5
35F
100
AcDbEntity
  8
0
100
AcDbLine
 62
7
  6
CONTINUOUS
 10
271.0820814773
 20
226.5895343957
 11
271.0820814773
 21
227.1991343957
  0
LINE
  5
360
100
AcDbEntity
  8
0
100
AcDbLine
 62
7
  6
CONTINUOUS
 10
275.9080814773
 20
226.5895343957
 11
275.9080814773
 21
227.1991343957
  0
LINE
  5
361
100
AcDbEntity
  8
0
100
AcDbLine
 62
7
  6
CONTINUOUS
 10
276.8523207582
 20
227.1991343957
 11
276.8523207582
 21
245.0324329454
  0
LINE
  5
362
100
AcDbEntity
  8
0
100
AcDbLine
 62
7
  6
CONTINUOUS
 10
277.1032730271
 20
232.9395343957
 11
277.1032730271
 21
232.4061343957
  0
LINE
  5
363
100
AcDbEntity
  8
0
100
AcDbLine
 62
7
  6
CONTINUOUS
 10
277.7116104368
 20
232.9395343957
 11
277.7116104368
 21
232.4061343957
  0
LINE
  5
364
100
AcDbEntity
  8
0
100
AcDbLine
 62
7
  6
CONTINUOUS
 10
278.0032152123
 20
232.9395343957
 11
278.0032152123
 21
232.4061343957
  0
LINE
  5
365
100
AcDbEntity
  8
0
100
AcDbLine
 62
7
  6
CONTINUOUS
 10
278.1305814773
 20
234.0444343957
 11
278.1305814773
 21
232.9395343957
  0
LINE
  5
366
100
AcDbEntity
  8
0
100
AcDbLine
 62
7
  6
CONTINUOUS
 10
278.2168349026
 20
232.9395343957
 11
278.2168349026
 21
232.4061343957
  0
LINE
  5
367
100
AcDbEntity
  8
0
100
AcDbLine
 62
7
  6
CONTINUOUS
 10
278.3763207582
 20
229.8661343957
 11
278.3763207582
 21
227.1991343957
  0
LINE
  5
368
100
AcDbEntity
  8
0
100
AcDbLine
 62
7
  6
CONTINUOUS
 10
279.0629299198
 20
351.5321343957
 11
279.0629299198
 21
354.1991343957
  0
LINE
  5
369
100
AcDbEntity
  8
0
100
AcDbLine
 62
7
  6
CONTINUOUS
 10
279.6196014248
 20
233.1681343957
 11
279.6196014248
 21
233.9301343957
  0
LINE
  5
36A
100
AcDbEntity
  8
0
100
AcDbLine
 62
7
  6
CONTINUOUS
 10
280.003444329
 20
232.4061343957
 11
280.003444329
 21
230.8821343957
  0
LINE
  5
36B
100
AcDbEntity
  8
0
100
AcDbLine
 62
7
  6
CONTINUOUS
 10
280.2762112732
 20
347.6586343957
 11
280.2762112732
 21
347.5316343957
  0
LINE
  5
36C
100
AcDbEntity
  8
0
100
AcDbLine
 62
7
  6
CONTINUOUS
 10
280.3067207582
 20
351.0114343957
 11
280.3067207582
 21
351.5321343957
  0
LINE
  5
36D
100
AcDbEntity
  8
0
100
AcDbLine
 62
7
  6
CONTINUOUS
 10
280.3194207582
 20
347.6586343957
 11
280.3194207582
 21
351.0114343957
  0
LINE
  5
36E
100
AcDbEntity
  8
0
100
AcDbLine
 62
7
  6
CONTINUOUS
 10
280.9742525242
 20
354.1991343957
 11
280.9742525242
 21
351.5321343957
  0
LINE
  5
36F
100
AcDbEntity
  8
0
100
AcDbLine
 62
7
  6
CONTINUOUS
 10
235.8028287227
 20
230.8821343958
 11
236.0925501961
 21
232.1521043826
  0
LINE
  5
370
100
AcDbEntity
  8
0
100
AcDbLine
 62
7
  6
CONTINUOUS
 10
134.5107207582
 20
249.3225343957
 11
133.7487207582
 21
248.5605343957
  0
LINE
  5
371
100
AcDbEntity
  8
0
100
AcDbLine
 62
7
  6
CONTINUOUS
 10
159.7568393701
 20
341.2451343957
 11
159.7095273835
 21
341.2212113642
  0
LINE
  5
372
100
AcDbEntity
  8
0
100
AcDbLine
 62
7
  6
CONTINUOUS
 10
333.8733836761
 20
331.7679804589
 11
335.4080606761
 21
330.2100880057
  0
LINE
  5
373
100
AcDbEntity
  8
0
100
AcDbLine
 62
7
  6
CONTINUOUS
 10
292.3463207582
 20
227.1991343957
 11
292.3463207582
 21
229.8661343957
  0
LINE
  5
374
100
AcDbEntity
  8
0
100
AcDbLine
 62
7
  6
CONTINUOUS
 10
298.6963207582
 20
263.9021343957
 11
298.6963207582
 21
239.1371343957
  0
LINE
  5
375
100
AcDbEntity
  8
0
100
AcDbLine
 62
7
  6
CONTINUOUS
 10
298.6963207582
 20
229.8661343957
 11
298.6963207582
 21
227.1991343957
  0
LINE
  5
376
100
AcDbEntity
  8
0
100
AcDbLine
 62
7
  6
CONTINUOUS
 10
288.1792987625
 20
239.1487625274
 11
288.1824164657
 21
239.3880830846
  0
LINE
  5
377
100
AcDbEntity
  8
0
100
AcDbLine
 62
7
  6
CONTINUOUS
 10
288.2812417645
 20
235.7635328351
 11
288.2893521875
 21
235.8695895175
  0
LINE
  5
378
100
AcDbEntity
  8
0
100
AcDbLine
 62
7
  6
CONTINUOUS
 10
148.0362207582
 20
238.7561343957
 11
147.6552207582
 21
238.3751343957
  0
LINE
  5
379
100
AcDbEntity
  8
0
100
AcDbLine
 62
7
  6
CONTINUOUS
 10
306.5703207582
 20
354.1991343957
 11
306.5703207582
 21
543.6831343957
  0
LINE
  5
37A
100
AcDbEntity
  8
0
100
AcDbLine
 62
7
  6
CONTINUOUS
 10
289.7809207582
 20
423.2871343957
 11
288.5109207582
 21
423.2871343957
  0
LINE
  5
37B
100
AcDbEntity
  8
0
100
AcDbLine
 62
7
  6
CONTINUOUS
 10
288.5109207582
 20
429.6371343957
 11
289.7809207582
 21
429.6371343957
  0
LINE
  5
37C
100
AcDbEntity
  8
0
100
AcDbLine
 62
7
  6
CONTINUOUS
 10
170.7819207582
 20
557.0435343957
 11
170.2739207582
 21
557.5515343957
  0
LINE
  5
37D
100
AcDbEntity
  8
0
100
AcDbLine
 62
7
  6
CONTINUOUS
 10
97.4286753275
 20
229.8661343957
 11
97.6486457801
 21
229.9931343957
  0
LINE
  5
37E
100
AcDbEntity
  8
0
100
AcDbLine
 62
7
  6
CONTINUOUS
 10
73.8383255837
 20
237.1031411032
 11
73.8422513404
 21
237.1051343957
  0
LINE
  5
37F
100
AcDbEntity
  8
0
100
AcDbLine
 62
7
  6
CONTINUOUS
 10
73.846177097
 20
230.7571276883
 11
73.8422513404
 21
230.7551343957
  0
LINE
  5
380
100
AcDbEntity
  8
0
100
AcDbLine
 62
7
  6
CONTINUOUS
 10
340.0930464534
 20
327.5663235943
 11
340.4022292729
 21
326.2591343957
  0
LINE
  5
381
100
AcDbEntity
  8
0
100
AcDbLine
 62
7
  6
CONTINUOUS
 10
354.8921717472
 20
327.5663235943
 11
354.8951169247
 21
327.5538717243
  0
LINE
  5
382
100
AcDbEntity
  8
0
100
AcDbLine
 62
7
  6
CONTINUOUS
 10
349.3045035883
 20
326.9110445504
 11
349.3084719796
 21
326.8941343957
  0
LINE
  5
383
100
AcDbEntity
  8
0
100
AcDbLine
 62
7
  6
CONTINUOUS
 10
353.4926060539
 20
326.8982583856
 11
353.4935738514
 21
326.8941343957
  0
LINE
  5
384
100
AcDbEntity
  8
0
100
AcDbLine
 62
7
  6
CONTINUOUS
 10
354.8308031255
 20
327.8415083525
 11
354.8951797062
 21
327.5538721377
  0
LINE
  5
385
100
AcDbEntity
  8
0
100
AcDbLine
 62
7
  6
CONTINUOUS
 10
353.4891834942
 20
326.8556143491
 11
353.4900919678
 21
326.8506882999
  0
LINE
  5
386
100
AcDbEntity
  8
0
100
AcDbLine
 62
7
  6
CONTINUOUS
 10
349.3012683112
 20
326.8709144147
 11
349.3049900959
 21
326.8506882999
  0
LINE
  5
387
100
AcDbEntity
  8
0
100
AcDbLine
 62
7
  6
CONTINUOUS
 10
342.7201606885
 20
354.1991343957
 11
342.7201606885
 21
351.5321343957
  0
LINE
  5
388
100
AcDbEntity
  8
0
100
AcDbLine
 62
7
  6
CONTINUOUS
 10
349.0471008709
 20
328.4181343957
 11
349.0471008709
 21
350.0081343957
  0
LINE
  5
389
100
AcDbEntity
  8
0
100
AcDbLine
 62
7
  6
CONTINUOUS
 10
351.6943038621
 20
328.4181343957
 11
351.6943038621
 21
350.0081343957
  0
LINE
  5
38A
100
AcDbEntity
  8
0
100
AcDbLine
 62
7
  6
CONTINUOUS
 10
352.4665745785
 20
326.8941343957
 11
352.4665745785
 21
333.3711343957
  0
LINE
  5
38B
100
AcDbEntity
  8
0
100
AcDbLine
 62
7
  6
CONTINUOUS
 10
353.4750328609
 20
326.8941343957
 11
353.4750328609
 21
333.3711343957
  0
LINE
  5
38C
100
AcDbEntity
  8
0
100
AcDbLine
 62
7
  6
CONTINUOUS
 10
340.0930464534
 20
348.5739451971
 11
340.4022292729
 21
349.8811343957
  0
LINE
  5
38D
100
AcDbEntity
  8
0
100
AcDbLine
 62
7
  6
CONTINUOUS
 10
333.8733836761
 20
344.3722883326
 11
335.4080606761
 21
345.9301807858
  0
LINE
  5
38E
100
AcDbEntity
  8
0
100
AcDbLine
 62
7
  6
CONTINUOUS
 10
335.5260756956
 20
345.9898543957
 11
335.4080606761
 21
345.9301807858
  0
LINE
  5
38F
100
AcDbEntity
  8
0
100
AcDbLine
 62
7
  6
CONTINUOUS
 10
371.6444606441
 20
340.4381434792
 11
371.6587793327
 21
340.3893758417
  0
LINE
  5
390
100
AcDbEntity
  8
0
100
AcDbLine
 62
7
  6
CONTINUOUS
 10
365.660154434
 20
348.5739451971
 11
365.6572092565
 21
348.5863970672
  0
LINE
  5
391
100
AcDbEntity
  8
0
100
AcDbLine
 62
7
  6
CONTINUOUS
 10
365.6601487175
 20
348.5738537993
 11
365.7215230552
 21
348.2987604411
  0
LINE
  5
392
100
AcDbEntity
  8
0
100
AcDbLine
 62
7
  6
CONTINUOUS
 10
372.1108487359
 20
344.9603410472
 11
372.1167797309
 21
344.8426055553
  0
LINE
  5
393
100
AcDbEntity
  8
0
100
AcDbLine
 62
7
  6
CONTINUOUS
 10
372.1167797309
 20
331.2976632362
 11
372.1108487359
 21
331.1799277443
  0
LINE
  5
394
100
AcDbEntity
  8
0
100
AcDbLine
 62
7
  6
CONTINUOUS
 10
354.8951791303
 20
348.5863966576
 11
354.830803126
 21
348.2987604414
  0
LINE
  5
395
100
AcDbEntity
  8
0
100
AcDbLine
 62
7
  6
CONTINUOUS
 10
354.8921717472
 20
348.5739451971
 11
354.8951169247
 21
348.5863970672
  0
LINE
  5
396
100
AcDbEntity
  8
0
100
AcDbLine
 62
7
  6
CONTINUOUS
 10
138.065104667
 20
230.7552153863
 11
138.0690304229
 21
230.7571276883
  0
LINE
  5
397
100
AcDbEntity
  8
0
100
AcDbLine
 62
7
  6
CONTINUOUS
 10
289.7809207582
 20
468.2959343957
 11
288.5109207582
 21
468.2959343957
  0
LINE
  5
398
100
AcDbEntity
  8
0
100
AcDbLine
 62
7
  6
CONTINUOUS
 10
288.5109207582
 20
474.6459343957
 11
289.7809207582
 21
474.6459343957
  0
LINE
  5
399
100
AcDbEntity
  8
0
100
AcDbLine
 62
7
  6
CONTINUOUS
 10
398.0409852015
 20
330.6939197852
 11
398.0350542064
 21
330.8116552771
  0
LINE
  5
39A
100
AcDbEntity
  8
0
100
AcDbLine
 62
7
  6
CONTINUOUS
 10
397.3282367901
 20
344.8426055553
 11
397.3223057951
 21
344.9603410472
  0
LINE
  5
39B
100
AcDbEntity
  8
0
100
AcDbLine
 62
7
  6
CONTINUOUS
 10
397.4650028168
 20
345.4463490063
 11
397.4709338118
 21
345.3286135144
  0
LINE
  5
39C
100
AcDbEntity
  8
0
100
AcDbLine
 62
7
  6
CONTINUOUS
 10
398.1777512281
 20
331.2976632362
 11
398.1836822232
 21
331.1799277443
  0
LINE
  5
39D
100
AcDbEntity
  8
0
100
AcDbLine
 62
7
  6
CONTINUOUS
 10
365.7215230552
 20
327.8415083504
 11
365.6601487175
 21
327.5664149922
  0
LINE
  5
39E
100
AcDbEntity
  8
0
100
AcDbLine
 62
7
  6
CONTINUOUS
 10
365.660154434
 20
327.5663235943
 11
365.6572092565
 21
327.5538717243
  0
LINE
  5
39F
100
AcDbEntity
  8
0
100
AcDbLine
 62
7
  6
CONTINUOUS
 10
371.6587793327
 20
335.7508929498
 11
371.6444606441
 21
335.7021253123
  0
LINE
  5
3A0
100
AcDbEntity
  8
0
100
AcDbLine
 62
7
  6
CONTINUOUS
 10
221.0659127057
 20
239.2607856643
 11
221.0725079768
 21
239.2640839348
  0
LINE
  5
3A1
100
AcDbEntity
  8
0
100
AcDbLine
 62
7
  6
CONTINUOUS
 10
396.8702363919
 20
340.3893758417
 11
396.8559177033
 21
340.4381434792
  0
LINE
  5
3A2
100
AcDbEntity
  8
0
100
AcDbLine
 62
7
  6
CONTINUOUS
 10
396.915024745
 20
341.6114704855
 11
396.9293434336
 21
341.562702848
  0
LINE
  5
3A3
100
AcDbEntity
  8
0
100
AcDbLine
 62
7
  6
CONTINUOUS
 10
397.3223057951
 20
331.1799277443
 11
397.3282367901
 21
331.2976632362
  0
LINE
  5
3A4
100
AcDbEntity
  8
0
100
AcDbLine
 62
7
  6
CONTINUOUS
 10
398.0350542064
 20
345.3286135144
 11
398.0409852015
 21
345.4463490063
  0
LINE
  5
3A5
100
AcDbEntity
  8
0
100
AcDbLine
 62
7
  6
CONTINUOUS
 10
398.1836822232
 20
344.9603410472
 11
398.1777512281
 21
344.8426055553
  0
LINE
  5
3A6
100
AcDbEntity
  8
0
100
AcDbLine
 62
7
  6
CONTINUOUS
 10
397.4709338118
 20
330.8116552771
 11
397.4650028168
 21
330.6939197852
  0
LINE
  5
3A7
100
AcDbEntity
  8
0
100
AcDbLine
 62
7
  6
CONTINUOUS
 10
396.8559177033
 20
335.7021253123
 11
396.8702363919
 21
335.7508929498
  0
LINE
  5
3A8
100
AcDbEntity
  8
0
100
AcDbLine
 62
7
  6
CONTINUOUS
 10
396.9293434336
 20
334.5775659435
 11
396.915024745
 21
334.528798306
  0
LINE
  5
3A9
100
AcDbEntity
  8
0
100
AcDbLine
 62
7
  6
CONTINUOUS
 10
236.0581726053
 20
226.822599371
 11
236.0493789105
 21
226.8181343957
  0
LINE
  5
3AA
100
AcDbEntity
  8
0
100
AcDbLine
 62
7
  6
CONTINUOUS
 10
243.4108917425
 20
226.8182178486
 11
243.4196854371
 21
226.822599371
  0
LINE
  5
3AB
100
AcDbEntity
  8
0
100
AcDbLine
 62
7
  6
CONTINUOUS
 10
255.0672303885
 20
240.2761478107
 11
255.0750819012
 21
240.280018739
  0
LINE
  5
3AC
100
AcDbEntity
  8
0
100
AcDbLine
 62
7
  6
CONTINUOUS
 10
306.5703207582
 20
538.3491343957
 11
65.2703207582
 21
538.3491343957
  0
LINE
  5
3AD
100
AcDbEntity
  8
0
100
AcDbLine
 62
7
  6
CONTINUOUS
 10
65.2703207582
 20
543.6831343957
 11
306.5703207582
 21
543.6831343957
  0
LINE
  5
3AE
100
AcDbEntity
  8
0
100
AcDbLine
 62
7
  6
CONTINUOUS
 10
158.1073207582
 20
543.8101343957
 11
106.1512447186
 21
543.8101343957
  0
LINE
  5
3AF
100
AcDbEntity
  8
0
100
AcDbLine
 62
7
  6
CONTINUOUS
 10
174.1093207582
 20
549.6267343957
 11
158.1073207582
 21
549.6267343957
  0
LINE
  5
3B0
100
AcDbEntity
  8
0
100
AcDbLine
 62
7
  6
CONTINUOUS
 10
107.1246015139
 20
550.1601343957
 11
197.8582495328
 21
550.1601343957
  0
LINE
  5
3B1
100
AcDbEntity
  8
0
100
AcDbLine
 62
7
  6
CONTINUOUS
 10
197.8582524166
 20
553.5637343957
 11
107.1246013536
 21
553.5637343957
  0
LINE
  5
3B2
100
AcDbEntity
  8
0
100
AcDbLine
 62
7
  6
CONTINUOUS
 10
159.200475673
 20
553.5891343957
 11
174.7443207582
 21
553.5891343957
  0
LINE
  5
3B3
100
AcDbEntity
  8
0
100
AcDbLine
 62
7
  6
CONTINUOUS
 10
174.7443207582
 20
554.4781343957
 11
159.200475673
 21
554.4781343957
  0
LINE
  5
3B4
100
AcDbEntity
  8
0
100
AcDbLine
 62
7
  6
CONTINUOUS
 10
161.4347207582
 20
554.5797343957
 11
170.7819207582
 21
554.5797343957
  0
LINE
  5
3B5
100
AcDbEntity
  8
0
100
AcDbLine
 62
7
  6
CONTINUOUS
 10
170.7819207582
 20
557.0435343957
 11
161.4347207582
 21
557.0435343957
  0
LINE
  5
3B6
100
AcDbEntity
  8
0
100
AcDbLine
 62
7
  6
CONTINUOUS
 10
170.2739207582
 20
557.5515343957
 11
161.9427207582
 21
557.5515343957
  0
LINE
  5
3B7
100
AcDbEntity
  8
0
100
AcDbLine
 62
7
  6
CONTINUOUS
 10
387.0873146077
 20
228.7234454406
 11
387.0937528388
 21
228.7264033955
  0
ARC
  5
3B8
100
AcDbEntity
  8
0
100
AcDbCircle
 62
7
  6
CONTINUOUS
 10
124.5525888348
 20
233.9262592211
 40
163.7389610463
100
AcDbArc
 50
359.498861682
 51
0.6429149929
  0
ARC
  5
3B9
100
AcDbEntity
  8
0
100
AcDbCircle
 62
7
  6
CONTINUOUS
 10
147.9491335476
 20
233.6381045424
 40
140.3499242607
100
AcDbArc
 50
359.0107499721
 51
359.4965146472
  0
ARC
  5
3BA
100
AcDbEntity
  8
0
100
AcDbCircle
 62
7
  6
CONTINUOUS
 10
154.1033964802
 20
234.3102476244
 40
134.1950157652
100
AcDbArc
 50
0.6657901524
 51
1.1591506021
  0
ARC
  5
3BB
100
AcDbEntity
  8
0
100
AcDbCircle
 62
7
  6
CONTINUOUS
 10
148.5868618812
 20
232.2746150755
 40
64.9707635964
100
AcDbArc
 50
181.355725069
 51
182.1246261225
  0
ARC
  5
3BC
100
AcDbEntity
  8
0
100
AcDbCircle
 62
7
  6
CONTINUOUS
 10
162.0443207582
 20
247.0111343957
 40
6.35
100
AcDbArc
 50
270.0
 51
37.5971398623
  0
ARC
  5
3BD
100
AcDbEntity
  8
0
100
AcDbCircle
 62
7
  6
CONTINUOUS
 10
162.0443207582
 20
247.0111343957
 40
6.35
100
AcDbArc
 50
68.8976708039
 51
90.0
  0
ARC
  5
3BE
100
AcDbEntity
  8
0
100
AcDbCircle
 62
7
  6
CONTINUOUS
 10
136.6443207582
 20
247.0111343957
 40
6.35
100
AcDbArc
 50
90.0
 51
180.7193943861
  0
ARC
  5
3BF
100
AcDbEntity
  8
0
100
AcDbCircle
 62
7
  6
CONTINUOUS
 10
136.6443207582
 20
247.0111343957
 40
6.35
100
AcDbArc
 50
190.7921998064
 51
194.3717570548
  0
ARC
  5
3C0
100
AcDbEntity
  8
0
100
AcDbCircle
 62
7
  6
CONTINUOUS
 10
100.1953207582
 20
247.0111343957
 40
3.937
100
AcDbArc
 50
309.3852659791
 51
303.1437280619
  0
ARC
  5
3C1
100
AcDbEntity
  8
0
100
AcDbCircle
 62
7
  6
CONTINUOUS
 10
122.4203207582
 20
247.0111343957
 40
3.937
100
AcDbArc
 50
210.0629535152
 51
224.8857411737
  0
ARC
  5
3C2
100
AcDbEntity
  8
0
100
AcDbCircle
 62
7
  6
CONTINUOUS
 10
122.4203207582
 20
247.0111343957
 40
3.937
100
AcDbArc
 50
244.6845434763
 51
190.6219265946
  0
ARC
  5
3C3
100
AcDbEntity
  8
0
100
AcDbCircle
 62
7
  6
CONTINUOUS
 10
163.7715207582
 20
245.9951343957
 40
3.175
100
AcDbArc
 50
270.0
 51
360.0
  0
ARC
  5
3C4
100
AcDbEntity
  8
0
100
AcDbCircle
 62
7
  6
CONTINUOUS
 10
100.0683207582
 20
228.5961343957
 40
2.794
100
AcDbArc
 50
90.0
 51
150.0
  0
ARC
  5
3C5
100
AcDbEntity
  8
0
100
AcDbCircle
 62
7
  6
CONTINUOUS
 10
125.4683207582
 20
228.5961343957
 40
2.794
100
AcDbArc
 50
30.0
 51
90.0
  0
CIRCLE
  5
3C6
100
AcDbEntity
  8
0
100
AcDbCircle
 62
7
  6
CONTINUOUS
 10
100.1953207582
 20
256.5361343957
 40
2.794
  0
ARC
  5
3C7
100
AcDbEntity
  8
0
100
AcDbCircle
 62
7
  6
CONTINUOUS
 10
100.1953207582
 20
237.4861343957
 40
2.794
100
AcDbArc
 50
157.7012355013
 51
188.5242677857
  0
CIRCLE
  5
3C8
100
AcDbEntity
  8
0
100
AcDbCircle
 62
7
  6
CONTINUOUS
 10
85.2093207582
 20
247.0111343957
 40
2.413
  0
ARC
  5
3C9
100
AcDbEntity
  8
0
100
AcDbCircle
 62
7
  6
CONTINUOUS
 10
163.7715207582
 20
245.9951343957
 40
0.508
100
AcDbArc
 50
270.0
 51
360.0
  0
ARC
  5
3CA
100
AcDbEntity
  8
0
100
AcDbCircle
 62
7
  6
CONTINUOUS
 10
146.4995207582
 20
245.9951343957
 40
0.508
100
AcDbArc
 50
264.7733644831
 51
270.0
  0
ARC
  5
3CB
100
AcDbEntity
  8
0
100
AcDbCircle
 62
7
  6
CONTINUOUS
 10
151.8185969055
 20
339.3694169674
 40
22.3873682385
100
AcDbArc
 50
4.8696521175
 51
5.9176580508
  0
CIRCLE
  5
3CC
100
AcDbEntity
  8
0
100
AcDbCircle
 62
7
  6
CONTINUOUS
 10
77.9703207582
 20
371.3441343957
 40
3.9624
  0
ARC
  5
3CD
100
AcDbEntity
  8
0
100
AcDbCircle
 62
7
  6
CONTINUOUS
 10
202.7403241851
 20
232.2510972757
 40
64.852926254
100
AcDbArc
 50
181.3495223542
 51
182.1462899952
  0
ARC
  5
3CE
100
AcDbEntity
  8
0
100
AcDbCircle
 62
7
  6
CONTINUOUS
 10
209.7963207582
 20
247.0111343957
 40
6.35
100
AcDbArc
 50
270.0
 51
90.0
  0
ARC
  5
3CF
100
AcDbEntity
  8
0
100
AcDbCircle
 62
7
  6
CONTINUOUS
 10
184.3963207582
 20
247.0111343957
 40
6.35
100
AcDbArc
 50
90.0
 51
270.0
  0
CIRCLE
  5
3D0
100
AcDbEntity
  8
0
100
AcDbCircle
 62
7
  6
CONTINUOUS
 10
241.5463207582
 20
247.0111343957
 40
3.937
  0
ARC
  5
3D1
100
AcDbEntity
  8
0
100
AcDbCircle
 62
7
  6
CONTINUOUS
 10
243.083572617
 20
227.5691736334
 40
3.683
100
AcDbArc
 50
39.6711181213
 51
64.0960634499
  0
ARC
  5
3D2
100
AcDbEntity
  8
0
100
AcDbCircle
 62
7
  6
CONTINUOUS
 10
232.2721765481
 20
227.5691736334
 40
3.683
100
AcDbArc
 50
115.9039365501
 51
140.3288818787
  0
ARC
  5
3D3
100
AcDbEntity
  8
0
100
AcDbCircle
 62
7
  6
CONTINUOUS
 10
232.2751059426
 20
227.5785609065
 40
3.6712713456
100
AcDbArc
 50
139.6656557751
 51
140.367393386
  0
ARC
  5
3D4
100
AcDbEntity
  8
0
100
AcDbCircle
 62
7
  6
CONTINUOUS
 10
232.2747571784
 20
227.586312292
 40
3.6649094339
100
AcDbArc
 50
115.9348990063
 51
116.5292242733
  0
ARC
  5
3D5
100
AcDbEntity
  8
0
100
AcDbCircle
 62
7
  6
CONTINUOUS
 10
227.8831932717
 20
239.0016385657
 40
0.7704959424
100
AcDbArc
 50
90.0309341918
 51
135.5176342903
  0
CIRCLE
  5
3D6
100
AcDbEntity
  8
0
100
AcDbCircle
 62
7
  6
CONTINUOUS
 10
255.7703207582
 20
371.3441343957
 40
3.9624
  0
CIRCLE
  5
3D7
100
AcDbEntity
  8
0
100
AcDbCircle
 62
7
  6
CONTINUOUS
 10
255.7703207582
 20
526.8683343957
 40
3.9624
  0
CIRCLE
  5
3D8
100
AcDbEntity
  8
0
100
AcDbCircle
 62
7
  6
CONTINUOUS
 10
77.9703207582
 20
526.8683343957
 40
3.9624
  0
CIRCLE
  5
3D9
100
AcDbEntity
  8
0
100
AcDbCircle
 62
7
  6
CONTINUOUS
 10
89.1463207582
 20
426.4621343957
 40
3.175
  0
CIRCLE
  5
3DA
100
AcDbEntity
  8
0
100
AcDbCircle
 62
7
  6
CONTINUOUS
 10
89.1463207582
 20
471.4709343957
 40
3.175
  0
ARC
  5
3DB
100
AcDbEntity
  8
0
100
AcDbCircle
 62
7
  6
CONTINUOUS
 10
447.9694083075
 20
338.4514234473
 40
51.1520867436
100
AcDbArc
 50
176.4581557783
 51
177.7741023171
  0
ARC
  5
3DC
100
AcDbEntity
  8
0
100
AcDbCircle
 62
7
  6
CONTINUOUS
 10
422.7579512442
 20
337.6888453439
 40
51.1520867396
100
AcDbArc
 50
182.2258976829
 51
183.5418442217
  0
ARC
  5
3DD
100
AcDbEntity
  8
0
100
AcDbCircle
 62
7
  6
CONTINUOUS
 10
421.0762543016
 20
338.5361399254
 40
49.4683721353
100
AcDbArc
 50
176.4357598438
 51
177.7964982516
  0
ARC
  5
3DE
100
AcDbEntity
  8
0
100
AcDbCircle
 62
7
  6
CONTINUOUS
 10
446.2877113609
 20
337.6041288661
 40
49.4683721354
100
AcDbArc
 50
182.2035017484
 51
183.5642401562
  0
ARC
  5
3DF
100
AcDbEntity
  8
0
100
AcDbCircle
 62
7
  6
CONTINUOUS
 10
309.2105543683
 20
329.8281015827
 40
39.8335952857
100
AcDbArc
 50
357.9736422134
 51
358.2990518714
  0
ARC
  5
3E0
100
AcDbEntity
  8
0
100
AcDbCircle
 62
7
  6
CONTINUOUS
 10
348.6456661025
 20
340.5957736699
 40
20.7353326029
100
AcDbArc
 50
172.863419065
 51
173.0847897813
  0
ARC
  5
3E1
100
AcDbEntity
  8
0
100
AcDbCircle
 62
7
  6
CONTINUOUS
 10
348.6437141953
 20
335.5442558955
 40
20.7333660989
100
AcDbArc
 50
186.9154111457
 51
187.1369166219
  0
ARC
  5
3E2
100
AcDbEntity
  8
0
100
AcDbCircle
 62
7
  6
CONTINUOUS
 10
332.9233536876
 20
330.4198055959
 40
19.6663349587
100
AcDbArc
 50
349.5438126718
 51
349.7073757773
  0
ARC
  5
3E3
100
AcDbEntity
  8
0
100
AcDbCircle
 62
7
  6
CONTINUOUS
 10
369.9911879248
 20
330.382858984
 40
15.4171074104
100
AcDbArc
 50
176.7717659622
 51
180.4636675077
  0
ARC
  5
3E4
100
AcDbEntity
  8
0
100
AcDbCircle
 62
7
  6
CONTINUOUS
 10
369.991148394
 20
345.7574098935
 40
15.4170679472
100
AcDbArc
 50
179.5363312024
 51
183.2282426301
  0
ARC
  5
3E5
100
AcDbEntity
  8
0
100
AcDbCircle
 62
7
  6
CONTINUOUS
 10
264.1523207582
 20
252.4721343957
 40
6.35
100
AcDbArc
 50
90.0
 51
180.0
  0
ARC
  5
3E6
100
AcDbEntity
  8
0
100
AcDbCircle
 62
7
  6
CONTINUOUS
 10
263.7713207582
 20
247.0111343957
 40
3.937
100
AcDbArc
 50
231.8294230448
 51
292.3417075281
  0
ARC
  5
3E7
100
AcDbEntity
  8
0
100
AcDbCircle
 62
7
  6
CONTINUOUS
 10
278.2361128674
 20
227.5691736334
 40
3.683
100
AcDbArc
 50
39.6711181213
 51
64.0960634499
  0
ARC
  5
3E8
100
AcDbEntity
  8
0
100
AcDbCircle
 62
7
  6
CONTINUOUS
 10
263.7713207582
 20
256.5361343957
 40
2.794
100
AcDbArc
 50
58.837519364
 51
145.461522353
  0
CIRCLE
  5
3E9
100
AcDbEntity
  8
0
100
AcDbCircle
 62
7
  6
CONTINUOUS
 10
278.7573207582
 20
247.0111343957
 40
2.413
  0
CIRCLE
  5
3EA
100
AcDbEntity
  8
0
100
AcDbCircle
 62
7
  6
CONTINUOUS
 10
263.3395207582
 20
244.2171343957
 40
2.0193
  0
CIRCLE
  5
3EB
100
AcDbEntity
  8
0
100
AcDbCircle
 62
7
  6
CONTINUOUS
 10
271.3151207582
 20
236.9781343957
 40
2.0193
  0
ARC
  5
3EC
100
AcDbEntity
  8
0
100
AcDbCircle
 62
7
  6
CONTINUOUS
 10
270.4893536863
 20
233.9710380859
 40
1.6227963348
100
AcDbArc
 50
90.0100510539
 51
105.9445567711
  0
ARC
  5
3ED
100
AcDbEntity
  8
0
100
AcDbCircle
 62
7
  6
CONTINUOUS
 10
276.5811814773
 20
234.0444343957
 40
1.5494
100
AcDbArc
 50
0.0
 51
0.469642796
  0
ARC
  5
3EE
100
AcDbEntity
  8
0
100
AcDbCircle
 62
7
  6
CONTINUOUS
 10
268.9783207582
 20
257.2981343957
 40
1.524
100
AcDbArc
 50
0.0
 51
90.0
  0
ARC
  5
3EF
100
AcDbEntity
  8
0
100
AcDbCircle
 62
7
  6
CONTINUOUS
 10
268.9783207582
 20
255.2661343957
 40
1.524
100
AcDbArc
 50
270.0
 51
360.0
  0
ARC
  5
3F0
100
AcDbEntity
  8
0
100
AcDbCircle
 62
7
  6
CONTINUOUS
 10
268.9783207582
 20
252.2181343957
 40
1.524
100
AcDbArc
 50
90.0
 51
240.0000000002
  0
ARC
  5
3F1
100
AcDbEntity
  8
0
100
AcDbCircle
 62
7
  6
CONTINUOUS
 10
275.3283207582
 20
245.0324329454
 40
1.524
100
AcDbArc
 50
0.0
 51
59.9999999997
  0
ARC
  5
3F2
100
AcDbEntity
  8
0
100
AcDbCircle
 62
7
  6
CONTINUOUS
 10
289.7809207582
 20
426.4621343957
 40
3.175
100
AcDbArc
 50
270.0
 51
90.0
  0
ARC
  5
3F3
100
AcDbEntity
  8
0
100
AcDbCircle
 62
7
  6
CONTINUOUS
 10
288.5109207582
 20
426.4621343957
 40
3.175
100
AcDbArc
 50
90.0
 51
270.0
  0
ARC
  5
3F4
100
AcDbEntity
  8
0
100
AcDbCircle
 62
7
  6
CONTINUOUS
 10
289.7809207582
 20
471.4709343957
 40
3.175
100
AcDbArc
 50
270.0
 51
90.0
  0
ARC
  5
3F5
100
AcDbEntity
  8
0
100
AcDbCircle
 62
7
  6
CONTINUOUS
 10
288.5109207582
 20
471.4709343957
 40
3.175
100
AcDbArc
 50
90.0
 51
270.0
  0
SPLINE
  5
3F6
100
AcDbEntity
  8
0
100
AcDbSpline
 62
7
  6
CONTINUOUS
 70
0
 71
3
 72
9
 73
5
 74
0
 42
0.0000001
 43
0.0000001
 44
0.0000000001
 40
0.0
 40
0.0
 40
0.0
 40
0.0
 40
0.2244485114
 40
1.0
 40
1.0
 40
1.0
 40
1.0
 10
87.8840941974
 20
229.8367511287
 30
0.0
 10
87.8883240966
 20
229.9479999867
 30
0.0
 10
87.9054906851
 20
230.4437179735
 30
0.0
 10
87.9171050353
 20
230.9396162047
 30
0.0
 10
87.9242330187
 20
231.3242333109
 30
0.0
  0
SPLINE
  5
3F7
100
AcDbEntity
  8
0
100
AcDbSpline
 62
7
  6
CONTINUOUS
 70
0
 71
3
 72
11
 73
7
 74
0
 42
0.0000001
 43
0.0000001
 44
0.0000000001
 40
0.0
 40
0.0
 40
0.0
 40
0.0
 40
0.244729445
 40
0.504743132
 40
0.7623439829
 40
1.0
 40
1.0
 40
1.0
 40
1.0
 10
87.9242330187
 20
231.3242333109
 30
0.0
 10
87.9326268877
 20
231.7771560221
 30
0.0
 10
87.9443297488
 20
232.7113952581
 30
0.0
 10
87.9489005617
 20
234.1225237897
 30
0.0
 10
87.9409713266
 20
235.5205440038
 30
0.0
 10
87.9269653088
 20
236.4371924742
 30
0.0
 10
87.9173629446
 20
236.876995049
 30
0.0
  0
SPLINE
  5
3F8
100
AcDbEntity
  8
0
100
AcDbSpline
 62
7
  6
CONTINUOUS
 70
0
 71
3
 72
18
 73
14
 74
0
 42
0.0000001
 43
0.0000001
 44
0.0000000001
 40
0.0
 40
0.0
 40
0.0
 40
0.0
 40
0.2063927733
 40
0.3939531279
 40
0.5600202209
 40
0.7022814981
 40
0.818746237
 40
0.8667932187
 40
0.9078230871
 40
0.9417134311
 40
0.968369126
 40
0.9877632413
 40
1.0
 40
1.0
 40
1.0
 40
1.0
 10
87.9173629446
 20
236.876995049
 30
0.0
 10
87.9134476084
 20
237.056323277
 30
0.0
 10
87.9050366139
 20
237.3985977243
 30
0.0
 10
87.8898077573
 20
237.8850632391
 30
0.0
 10
87.8727623527
 20
238.3156985577
 30
0.0
 10
87.8541614581
 20
238.6844126282
 30
0.0
 10
87.8367854029
 20
238.9504779655
 30
0.0
 10
87.821758485
 20
239.1284767594
 30
0.0
 10
87.8110363832
 20
239.2348228563
 30
0.0
 10
87.8001652592
 20
239.3224077215
 30
0.0
 10
87.7893515038
 20
239.3911340541
 30
0.0
 10
87.7784869341
 20
239.4404794529
 30
0.0
 10
87.7700104498
 20
239.4669900744
 30
0.0
 10
87.7647007028
 20
239.4762043467
 30
0.0
  0
SPLINE
  5
3F9
100
AcDbEntity
  8
0
100
AcDbSpline
 62
7
  6
CONTINUOUS
 70
0
 71
3
 72
35
 73
31
 74
0
 42
0.0000001
 43
0.0000001
 44
0.0000000001
 40
0.0
 40
0.0
 40
0.0
 40
0.0
 40
0.0021470963
 40
0.0053441595
 40
0.0096133842
 40
0.014957573
 40
0.0288363353
 40
0.0468838629
 40
0.0689463396
 40
0.0948343254
 40
0.1243206113
 40
0.1571440308
 40
0.2316134489
 40
0.3156045894
 40
0.4061384681
 40
0.5000029125
 40
0.5938670479
 40
0.6843997455
 40
0.7683889488
 40
0.842856696
 40
0.8756803056
 40
0.905166302
 40
0.931053955
 40
0.9531172694
 40
0.9711633665
 40
0.9850435517
 40
0.9903867498
 40
0.9946565825
 40
0.9978539092
 40
1.0
 40
1.0
 40
1.0
 40
1.0
 10
83.8004922099
 20
230.3806482704
 30
0.0
 10
83.8030297494
 20
230.3850586413
 30
0.0
 10
83.8073873765
 20
230.3970739895
 30
0.0
 10
83.8129509712
 20
230.4191399004
 30
0.0
 10
83.8185342305
 20
230.4490121355
 30
0.0
 10
83.8267217066
 20
230.5040773903
 30
0.0
 10
83.8362359667
 20
230.5919213935
 30
0.0
 10
83.8467512257
 20
230.7194340145
 30
0.0
 10
83.856871536
 20
230.8755191584
 30
0.0
 10
83.8665024692
 20
231.0587810462
 30
0.0
 10
83.8755228222
 20
231.2676032206
 30
0.0
 10
83.8871057652
 20
231.5915426187
 30
0.0
 10
83.8990444279
 20
232.0447069841
 30
0.0
 10
83.9093339995
 20
232.6346991097
 30
0.0
 10
83.9156692645
 20
233.2707123771
 30
0.0
 10
83.9178106651
 20
233.9301502956
 30
0.0
 10
83.9156693294
 20
234.5895854164
 30
0.0
 10
83.9093338162
 20
235.2255905583
 30
0.0
 10
83.8990441841
 20
235.8155713339
 30
0.0
 10
83.8871050685
 20
236.2687275807
 30
0.0
 10
83.8755232387
 20
236.5926628163
 30
0.0
 10
83.8665027478
 20
236.8014839729
 30
0.0
 10
83.856870775
 20
236.9847462877
 30
0.0
 10
83.846753514
 20
237.1408294777
 30
0.0
 10
83.8362341126
 20
237.2683436805
 30
0.0
 10
83.8267232649
 20
237.356185704
 30
0.0
 10
83.8185338558
 20
237.4112531846
 30
0.0
 10
83.8129532338
 20
237.4411254977
 30
0.0
 10
83.8073935981
 20
237.4631922071
 30
0.0
 10
83.8030312475
 20
237.4752044111
 30
0.0
 10
83.800492191
 20
237.4796111589
 30
0.0
  0
SPLINE
  5
3FA
100
AcDbEntity
  8
0
100
AcDbSpline
 62
7
  6
CONTINUOUS
 70
0
 71
3
 72
14
 73
10
 74
0
 42
0.0000001
 43
0.0000001
 44
0.0000000001
 40
0.0
 40
0.0
 40
0.0
 40
0.0
 40
0.0433881
 40
0.1113938393
 40
0.2045734551
 40
0.3220211772
 40
0.4621806499
 40
0.6232115208
 40
1.0
 40
1.0
 40
1.0
 40
1.0
 10
83.7861158528
 20
239.4828961338
 30
0.0
 10
83.7924226733
 20
239.4893026884
 30
0.0
 10
83.8134419979
 20
239.5002897774
 30
0.0
 10
83.8533783391
 20
239.5138653762
 30
0.0
 10
83.9096035788
 20
239.5276684354
 30
0.0
 10
83.9809108043
 20
239.5415788485
 30
0.0
 10
84.0665521845
 20
239.555514877
 30
0.0
 10
84.2056561349
 20
239.5751028696
 30
0.0
 10
84.3163556824
 20
239.588046821
 30
0.0
 10
84.3939616701
 20
239.5965493233
 30
0.0
  0
SPLINE
  5
3FB
100
AcDbEntity
  8
0
100
AcDbSpline
 62
7
  6
CONTINUOUS
 70
0
 71
3
 72
18
 73
14
 74
0
 42
0.0000001
 43
0.0000001
 44
0.0000000001
 40
0.0
 40
0.0
 40
0.0
 40
0.0
 40
0.2073483498
 40
0.3950590357
 40
0.5608082949
 40
0.7025265998
 40
0.8184692394
 40
0.8663216807
 40
0.9072356075
 40
0.9410964121
 40
0.9678359508
 40
0.9874303272
 40
1.0
 40
1.0
 40
1.0
 40
1.0
 10
83.6345221997
 20
237.1324921024
 30
0.0
 10
83.6385214165
 20
237.2949815977
 30
0.0
 10
83.6469988498
 20
237.6045516201
 30
0.0
 10
83.6620537746
 20
238.0439104908
 30
0.0
 10
83.6786434087
 20
238.4317293288
 30
0.0
 10
83.6965451872
 20
238.763159604
 30
0.0
 10
83.7131321309
 20
239.0020958726
 30
0.0
 10
83.7273996251
 20
239.1619316675
 30
0.0
 10
83.737555979
 20
239.2575350129
 30
0.0
 10
83.7478360847
 20
239.3364300876
 30
0.0
 10
83.7580658539
 20
239.3985381314
 30
0.0
 10
83.7683202642
 20
239.4434596502
 30
0.0
 10
83.776342067
 20
239.4676685497
 30
0.0
 10
83.7812573557
 20
239.4762082672
 30
0.0
  0
SPLINE
  5
3FC
100
AcDbEntity
  8
0
100
AcDbSpline
 62
7
  6
CONTINUOUS
 70
0
 71
3
 72
13
 73
9
 74
0
 42
0.0000001
 43
0.0000001
 44
0.0000000001
 40
0.0
 40
0.0
 40
0.0
 40
0.0
 40
0.3801671176
 40
0.6809198227
 40
0.7973950424
 40
0.8894427764
 40
0.9564596883
 40
1.0
 40
1.0
 40
1.0
 40
1.0
 10
87.3620240376
 20
239.5965493233
 30
0.0
 10
87.4126121646
 20
239.5894825253
 30
0.0
 10
87.5030710275
 20
239.5758681632
 30
0.0
 10
87.6084744834
 20
239.556051798
 30
0.0
 10
87.6747607865
 20
239.5391755881
 30
0.0
 10
87.7100897897
 20
239.5276168667
 30
0.0
 10
87.7347133889
 20
239.5164053799
 30
0.0
 10
87.7470199527
 20
239.5069152744
 30
0.0
 10
87.7499363306
 20
239.5018439593
 30
0.0
  0
SPLINE
  5
3FD
100
AcDbEntity
  8
0
100
AcDbSpline
 62
7
  6
CONTINUOUS
 70
0
 71
3
 72
10
 73
6
 74
0
 42
0.0000001
 43
0.0000001
 44
0.0000000001
 40
0.0
 40
0.0
 40
0.0
 40
0.0
 40
0.5010309059
 40
0.7505824445
 40
1.0
 40
1.0
 40
1.0
 40
1.0
 10
84.3939616701
 20
239.5965493233
 30
0.0
 10
84.2538009187
 20
239.1564448057
 30
0.0
 10
84.0803027664
 20
238.4833502687
 30
0.0
 10
83.9654452594
 20
237.5675887856
 30
0.0
 10
83.9523577855
 20
237.1068702535
 30
0.0
 10
83.9573767317
 20
236.8769950489
 30
0.0
  0
LINE
  5
3FE
100
AcDbEntity
  8
0
100
AcDbLine
 62
7
  6
CONTINUOUS
 10
83.7861158528
 20
239.4828961338
 11
83.787244682
 21
239.4839482597
  0
SPLINE
  5
3FF
100
AcDbEntity
  8
0
100
AcDbSpline
 62
7
  6
CONTINUOUS
 70
0
 71
3
 72
25
 73
21
 74
0
 42
0.0000001
 43
0.0000001
 44
0.0000000001
 40
0.0
 40
0.0
 40
0.0
 40
0.0
 40
0.0025673258
 40
0.0053063162
 40
0.0095942615
 40
0.0158569543
 40
0.0242201487
 40
0.0347255301
 40
0.0473870083
 40
0.0622071563
 40
0.0982926509
 40
0.1428677143
 40
0.1957713718
 40
0.2567860819
 40
0.3256673797
 40
0.4021251552
 40
0.4858454154
 40
0.5764664541
 40
0.7768836348
 40
1.0
 40
1.0
 40
1.0
 40
1.0
 10
83.787244682
 20
239.4839482597
 30
0.0
 10
83.7889606563
 20
239.4854039587
 30
0.0
 10
83.7938797268
 20
239.4876647745
 30
0.0
 10
83.8014718034
 20
239.4821970417
 30
0.0
 10
83.8071969254
 20
239.4721492261
 30
0.0
 10
83.8133706434
 20
239.4566557056
 30
0.0
 10
83.8194035756
 20
239.4354740868
 30
0.0
 10
83.8255417381
 20
239.4085118244
 30
0.0
 10
83.8316522347
 20
239.3757782428
 30
0.0
 10
83.8403682301
 20
239.3207418568
 30
0.0
 10
83.8507871748
 20
239.2376870044
 30
0.0
 10
83.8625025088
 20
239.1212003942
 30
0.0
 10
83.8739768772
 20
238.9827503578
 30
0.0
 10
83.8851610304
 20
238.8229149901
 30
0.0
 10
83.8959825956
 20
238.6423683054
 30
0.0
 10
83.9063928453
 20
238.4418671148
 30
0.0
 10
83.916338625
 20
238.2222665032
 30
0.0
 10
83.9293626289
 20
237.89404915
 30
0.0
 10
83.9438960183
 20
237.4436230861
 30
0.0
 10
83.9531080062
 20
237.0725090288
 30
0.0
 10
83.9573767317
 20
236.8769950487
 30
0.0
  0
SPLINE
  5
400
100
AcDbEntity
  8
0
100
AcDbSpline
 62
7
  6
CONTINUOUS
 70
0
 71
3
 72
11
 73
7
 74
0
 42
0.0000001
 43
0.0000001
 44
0.0000000001
 40
0.0
 40
0.0
 40
0.0
 40
0.0
 40
0.2376560171
 40
0.495256868
 40
0.755270555
 40
1.0
 40
1.0
 40
1.0
 40
1.0
 10
83.9573767317
 20
236.8769950487
 30
0.0
 10
83.9669790959
 20
236.4371924739
 30
0.0
 10
83.9809851136
 20
235.5205440037
 30
0.0
 10
83.9889143488
 20
234.1225237897
 30
0.0
 10
83.9843435358
 20
232.7113952582
 30
0.0
 10
83.9726406747
 20
231.7771560223
 30
0.0
 10
83.9642468057
 20
231.3242333111
 30
0.0
  0
SPLINE
  5
401
100
AcDbEntity
  8
0
100
AcDbSpline
 62
7
  6
CONTINUOUS
 70
0
 71
3
 72
9
 73
5
 74
0
 42
0.0000001
 43
0.0000001
 44
0.0000000001
 40
0.0
 40
0.0
 40
0.0
 40
0.0
 40
0.2737064196
 40
1.0
 40
1.0
 40
1.0
 40
1.0
 10
83.9642468057
 20
231.3242333111
 30
0.0
 10
83.9617312118
 20
231.1884949971
 30
0.0
 10
83.9515930332
 20
230.692588456
 30
0.0
 10
83.937795512
 20
230.1967412181
 30
0.0
 10
83.9241079844
 20
229.8367511287
 30
0.0
  0
SPLINE
  5
402
100
AcDbEntity
  8
0
100
AcDbSpline
 62
7
  6
CONTINUOUS
 70
0
 71
3
 72
14
 73
10
 74
0
 42
0.0000001
 43
0.0000001
 44
0.0000000001
 40
0.0
 40
0.0
 40
0.0
 40
0.0
 40
0.0365936847
 40
0.0977141334
 40
0.1844199152
 40
0.2969075431
 40
0.4350239601
 40
0.5984949094
 40
1.0
 40
1.0
 40
1.0
 40
1.0
 10
83.7885890794
 20
237.4839019081
 30
0.0
 10
83.7855920664
 20
237.4808575013
 30
0.0
 10
83.7808126105
 20
237.4700735432
 30
0.0
 10
83.7748553726
 20
237.4495669503
 30
0.0
 10
83.7688448989
 20
237.4196605097
 30
0.0
 10
83.7627805039
 20
237.3807836061
 30
0.0
 10
83.7567539444
 20
237.3328009936
 30
0.0
 10
83.7482022138
 20
237.2511693675
 30
0.0
 10
83.7428960231
 20
237.1854137112
 30
0.0
 10
83.7394813621
 20
237.1386653036
 30
0.0
  0
SPLINE
  5
403
100
AcDbEntity
  8
0
100
AcDbSpline
 62
7
  6
CONTINUOUS
 70
0
 71
3
 72
18
 73
14
 74
0
 42
0.0000001
 43
0.0000001
 44
0.0000000001
 40
0.0
 40
0.0
 40
0.0
 40
0.0
 40
0.2405408015
 40
0.4481269487
 40
0.6220702677
 40
0.7618356243
 40
0.8671845463
 40
0.9069729994
 40
0.9382796696
 40
0.9613941272
 40
0.9770900053
 40
0.9879012946
 40
1.0
 40
1.0
 40
1.0
 40
1.0
 10
83.7398872561
 20
230.7160640591
 30
0.0
 10
83.7419780597
 20
230.6877042226
 30
0.0
 10
83.7461470093
 20
230.6348887571
 30
0.0
 10
83.7529959652
 20
230.5616653863
 30
0.0
 10
83.7599316011
 20
230.5004193811
 30
0.0
 10
83.766943166
 20
230.4513781129
 30
0.0
 10
83.77315423
 20
230.4182338175
 30
0.0
 10
83.7784678276
 20
230.3980647213
 30
0.0
 10
83.7820253638
 20
230.3874731957
 30
0.0
 10
83.7856313307
 20
230.3800256647
 30
0.0
 10
83.7891365268
 20
230.375148771
 30
0.0
 10
83.7939300907
 20
230.3735171932
 30
0.0
 10
83.7963793556
 20
230.375347597
 30
0.0
 10
83.7973827742
 20
230.3763668834
 30
0.0
  0
SPLINE
  5
404
100
AcDbEntity
  8
0
100
AcDbSpline
 62
7
  6
CONTINUOUS
 70
0
 71
3
 72
9
 73
5
 74
0
 42
0.0000001
 43
0.0000001
 44
0.0000000001
 40
0.0
 40
0.0
 40
0.0
 40
0.0
 40
0.4999412384
 40
1.0
 40
1.0
 40
1.0
 40
1.0
 10
83.9642468057
 20
231.3242333109
 30
0.0
 10
83.9597243967
 20
231.0802097548
 30
0.0
 10
83.9746843251
 20
230.591371585
 30
0.0
 10
84.0355045727
 20
230.1062760245
 30
0.0
 10
84.0758589025
 20
229.8655116475
 30
0.0
  0
SPLINE
  5
405
100
AcDbEntity
  8
0
100
AcDbSpline
 62
7
  6
CONTINUOUS
 70
0
 71
3
 72
10
 73
6
 74
0
 42
0.0000001
 43
0.0000001
 44
0.0000000001
 40
0.0
 40
0.0
 40
0.0
 40
0.0
 40
0.2480672057
 40
0.4972757465
 40
1.0
 40
1.0
 40
1.0
 40
1.0
 10
87.9173629446
 20
236.876995049
 30
0.0
 10
87.9123331567
 20
237.1073668261
 30
0.0
 10
87.8789666348
 20
237.5689922748
 30
0.0
 10
87.7237511282
 20
238.4858871646
 30
0.0
 10
87.5210282524
 20
239.1574788025
 30
0.0
 10
87.3620240376
 20
239.5965493233
 30
0.0
  0
SPLINE
  5
406
100
AcDbEntity
  8
0
100
AcDbSpline
 62
7
  6
CONTINUOUS
 70
0
 71
3
 72
10
 73
6
 74
0
 42
0.0000001
 43
0.0000001
 44
0.0000000001
 40
0.0
 40
0.0
 40
0.0
 40
0.0
 40
0.2496593013
 40
0.4993673207
 40
1.0
 40
1.0
 40
1.0
 40
1.0
 10
87.9242330187
 20
231.3242333109
 30
0.0
 10
87.9286717215
 20
231.5637401834
 30
0.0
 10
87.9144247344
 20
232.0435554355
 30
0.0
 10
87.7973672303
 20
232.9969185658
 30
0.0
 10
87.6222239123
 20
233.6983811228
 30
0.0
 10
87.4807780062
 20
234.1574407747
 30
0.0
  0
SPLINE
  5
407
100
AcDbEntity
  8
0
100
AcDbSpline
 62
7
  6
CONTINUOUS
 70
0
 71
3
 72
10
 73
6
 74
0
 42
0.0000001
 43
0.0000001
 44
0.0000000001
 40
0.0
 40
0.0
 40
0.0
 40
0.0
 40
0.5010309082
 40
0.7505824479
 40
1.0
 40
1.0
 40
1.0
 40
1.0
 10
87.4807780062
 20
234.1574407747
 30
0.0
 10
87.6209387583
 20
234.5975452944
 30
0.0
 10
87.7944369403
 20
235.2706398295
 30
0.0
 10
87.9092944029
 20
236.1864013183
 30
0.0
 10
87.9223818907
 20
236.6471198473
 30
0.0
 10
87.9173629446
 20
236.876995049
 30
0.0
  0
SPLINE
  5
408
100
AcDbEntity
  8
0
100
AcDbSpline
 62
7
  6
CONTINUOUS
 70
0
 71
3
 72
9
 73
5
 74
0
 42
0.0000001
 43
0.0000001
 44
0.0000000001
 40
0.0
 40
0.0
 40
0.0
 40
0.0
 40
0.5009000884
 40
1.0
 40
1.0
 40
1.0
 40
1.0
 10
87.7585530274
 20
229.8655122974
 30
0.0
 10
87.8077569669
 20
230.1059133077
 30
0.0
 10
87.886484699
 20
230.5901337859
 30
0.0
 10
87.9197025048
 20
231.0797724271
 30
0.0
 10
87.9242330187
 20
231.3242333109
 30
0.0
  0
SPLINE
  5
409
100
AcDbEntity
  8
0
100
AcDbSpline
 62
7
  6
CONTINUOUS
 70
0
 71
3
 72
10
 73
6
 74
0
 42
0.0000001
 43
0.0000001
 44
0.0000000001
 40
0.0
 40
0.0
 40
0.0
 40
0.0
 40
0.2480672027
 40
0.4972757443
 40
1.0
 40
1.0
 40
1.0
 40
1.0
 10
83.9573767317
 20
236.8769950489
 30
0.0
 10
83.9624065196
 20
236.6466232745
 30
0.0
 10
83.995773055
 20
236.1849978294
 30
0.0
 10
84.1509885174
 20
235.2681029318
 30
0.0
 10
84.3537114232
 20
234.5965112975
 30
0.0
 10
84.5127156387
 20
234.1574407747
 30
0.0
  0
SPLINE
  5
40A
100
AcDbEntity
  8
0
100
AcDbSpline
 62
7
  6
CONTINUOUS
 70
0
 71
3
 72
10
 73
6
 74
0
 42
0.0000001
 43
0.0000001
 44
0.0000000001
 40
0.0
 40
0.0
 40
0.0
 40
0.0
 40
0.5020236626
 40
0.7514483587
 40
1.0
 40
1.0
 40
1.0
 40
1.0
 10
84.5127156387
 20
234.1574407747
 30
0.0
 10
84.3545644635
 20
233.6992790048
 30
0.0
 10
84.1535505771
 20
232.9990921155
 30
0.0
 10
84.0008543028
 20
232.0447490699
 30
0.0
 10
83.9686933197
 20
231.5641616645
 30
0.0
 10
83.9642468057
 20
231.3242333109
 30
0.0
  0
SPLINE
  5
40B
100
AcDbEntity
  8
0
100
AcDbSpline
 62
7
  6
CONTINUOUS
 70
0
 71
3
 72
10
 73
6
 74
0
 42
0.0000001
 43
0.0000001
 44
0.0000000001
 40
0.0
 40
0.0
 40
0.0
 40
0.0
 40
0.5575410961
 40
0.7944910059
 40
1.0
 40
1.0
 40
1.0
 40
1.0
 10
174.1251556827
 20
334.8704065704
 30
0.0
 10
174.099345005
 20
334.5691114011
 30
0.0
 10
174.0553648749
 20
334.140219462
 30
0.0
 10
173.976803299
 20
333.6034951846
 30
0.0
 10
173.9335616535
 20
333.3673509603
 30
0.0
 10
173.910586277
 20
333.258280746
 30
0.0
  0
SPLINE
  5
40C
100
AcDbEntity
  8
0
100
AcDbSpline
 62
7
  6
CONTINUOUS
 70
0
 71
3
 72
10
 73
6
 74
0
 42
0.0000001
 43
0.0000001
 44
0.0000000001
 40
0.0
 40
0.0
 40
0.0
 40
0.0
 40
0.5893238047
 40
0.8170584304
 40
1.0
 40
1.0
 40
1.0
 40
1.0
 10
173.910586277
 20
333.258280746
 30
0.0
 10
173.884287546
 20
333.133433685
 30
0.0
 10
173.8431943773
 20
332.9609342048
 30
0.0
 10
173.7723380278
 20
332.7562299452
 30
0.0
 10
173.7354775489
 20
332.6750113523
 30
0.0
 10
173.7161245004
 20
332.6404553155
 30
0.0
  0
SPLINE
  5
40D
100
AcDbEntity
  8
0
100
AcDbSpline
 62
7
  6
CONTINUOUS
 70
0
 71
3
 72
16
 73
12
 74
0
 42
0.0000001
 43
0.0000001
 44
0.0000000001
 40
0.0
 40
0.0
 40
0.0
 40
0.0
 40
0.3374959666
 40
0.4943043783
 40
0.6371748829
 40
0.7621423505
 40
0.8658106059
 40
0.9088108623
 40
0.9455795347
 40
0.9759782706
 40
1.0
 40
1.0
 40
1.0
 40
1.0
 10
173.1402462374
 20
338.0701343957
 30
0.0
 10
173.1402462374
 20
337.6756124188
 30
0.0
 10
173.1515197268
 20
337.0976580992
 30
0.0
 10
173.1916363264
 20
336.3538498984
 30
0.0
 10
173.2314401943
 20
335.8589684557
 30
0.0
 10
173.2804294942
 20
335.4273895804
 30
0.0
 10
173.3299145791
 20
335.1135303765
 30
0.0
 10
173.3747660006
 20
334.9037913108
 30
0.0
 10
173.4075605068
 20
334.7791743527
 30
0.0
 10
173.4413078399
 20
334.6779964119
 30
0.0
 10
173.4672181043
 20
334.6196441339
 30
0.0
 10
173.4809376661
 20
334.5951432046
 30
0.0
  0
SPLINE
  5
40E
100
AcDbEntity
  8
0
100
AcDbSpline
 62
7
  6
CONTINUOUS
 70
0
 71
3
 72
9
 73
5
 74
0
 42
0.0000001
 43
0.0000001
 44
0.0000000001
 40
0.0
 40
0.0
 40
0.0
 40
0.0
 40
0.2425974364
 40
1.0
 40
1.0
 40
1.0
 40
1.0
 10
173.5641876276
 20
332.3691376603
 30
0.0
 10
173.5300589069
 20
332.3081910442
 30
0.0
 10
173.3831234815
 20
332.0604633301
 30
0.0
 10
173.2146598145
 20
331.8259773151
 30
0.0
 10
173.0801373499
 20
331.6543295294
 30
0.0
  0
SPLINE
  5
40F
100
AcDbEntity
  8
0
100
AcDbSpline
 62
7
  6
CONTINUOUS
 70
0
 71
3
 72
16
 73
12
 74
0
 42
0.0000001
 43
0.0000001
 44
0.0000000001
 40
0.0
 40
0.0
 40
0.0
 40
0.0
 40
0.0240218614
 40
0.0544202673
 40
0.0911887155
 40
0.1341884532
 40
0.2378554285
 40
0.362821412
 40
0.5056908482
 40
0.6624991579
 40
1.0
 40
1.0
 40
1.0
 40
1.0
 10
173.4809376514
 20
341.5451261576
 30
0.0
 10
173.4672181787
 20
341.5206249967
 30
0.0
 10
173.4413082307
 20
341.4622728504
 30
0.0
 10
173.4075605192
 20
341.3610955405
 30
0.0
 10
173.3747665883
 20
341.2364796964
 30
0.0
 10
173.3299152612
 20
341.0267430099
 30
0.0
 10
173.2804306718
 20
340.7128875516
 30
0.0
 10
173.231441411
 20
340.2813131257
 30
0.0
 10
173.1916373883
 20
339.7864347301
 30
0.0
 10
173.1515199662
 20
339.0426221254
 30
0.0
 10
173.1402462374
 20
338.464662131
 30
0.0
 10
173.1402462374
 20
338.0701343957
 30
0.0
  0
SPLINE
  5
410
100
AcDbEntity
  8
0
100
AcDbSpline
 62
7
  6
CONTINUOUS
 70
0
 71
3
 72
12
 73
8
 74
0
 42
0.0000001
 43
0.0000001
 44
0.0000000001
 40
0.0
 40
0.0
 40
0.0
 40
0.0
 40
0.2994583045
 40
0.5760875553
 40
0.8140431485
 40
0.9142308606
 40
1.0
 40
1.0
 40
1.0
 40
1.0
 10
168.96595222
 20
337.6475331717
 30
0.0
 10
168.9700329249
 20
337.2076076129
 30
0.0
 10
168.9899961797
 20
336.3613275832
 30
0.0
 10
169.0562703214
 20
335.1670516752
 30
0.0
 10
169.1410110108
 20
334.2674243197
 30
0.0
 10
169.2275252923
 20
333.6505869562
 30
0.0
 10
169.275889145
 20
333.3815812564
 30
0.0
 10
169.3018620989
 20
333.2582807458
 30
0.0
  0
SPLINE
  5
411
100
AcDbEntity
  8
0
100
AcDbSpline
 62
7
  6
CONTINUOUS
 70
0
 71
3
 72
10
 73
6
 74
0
 42
0.0000001
 43
0.0000001
 44
0.0000000001
 40
0.0
 40
0.0
 40
0.0
 40
0.0
 40
0.5893238047
 40
0.8170584303
 40
1.0
 40
1.0
 40
1.0
 40
1.0
 10
169.3018620989
 20
333.2582807458
 30
0.0
 10
169.3281608299
 20
333.1334336848
 30
0.0
 10
169.3692539986
 20
332.9609342047
 30
0.0
 10
169.4401103481
 20
332.7562299452
 30
0.0
 10
169.4769708271
 20
332.6750113523
 30
0.0
 10
169.4963238755
 20
332.6404553155
 30
0.0
  0
SPLINE
  5
412
100
AcDbEntity
  8
0
100
AcDbSpline
 62
7
  6
CONTINUOUS
 70
0
 71
3
 72
9
 73
5
 74
0
 42
0.0000001
 43
0.0000001
 44
0.0000000001
 40
0.0
 40
0.0
 40
0.0
 40
0.0
 40
0.2425974723
 40
1.0
 40
1.0
 40
1.0
 40
1.0
 10
169.6482607561
 20
332.369137661
 30
0.0
 10
169.6823894953
 20
332.3081910442
 30
0.0
 10
169.8293250079
 20
332.0604633868
 30
0.0
 10
169.9977885691
 20
331.8259773054
 30
0.0
 10
170.132311026
 20
331.6543295294
 30
0.0
  0
SPLINE
  5
413
100
AcDbEntity
  8
0
100
AcDbSpline
 62
7
  6
CONTINUOUS
 70
0
 71
3
 72
9
 73
5
 74
0
 42
0.0000001
 43
0.0000001
 44
0.0000000001
 40
0.0
 40
0.0
 40
0.0
 40
0.0
 40
0.5000095166
 40
1.0
 40
1.0
 40
1.0
 40
1.0
 10
168.9731108716
 20
337.6494806317
 30
0.0
 10
168.9935139787
 20
337.1776024461
 30
0.0
 10
169.1040175469
 20
336.2360253275
 30
0.0
 10
169.3264797177
 20
335.316262539
 30
0.0
 10
169.4565741491
 20
334.8622319626
 30
0.0
  0
SPLINE
  5
414
100
AcDbEntity
  8
0
100
AcDbSpline
 62
7
  6
CONTINUOUS
 70
0
 71
3
 72
11
 73
7
 74
0
 42
0.0000001
 43
0.0000001
 44
0.0000000001
 40
0.0
 40
0.0
 40
0.0
 40
0.0
 40
0.2524525968
 40
0.5011190463
 40
0.7488022346
 40
1.0
 40
1.0
 40
1.0
 40
1.0
 10
169.4565741491
 20
334.8622319626
 30
0.0
 10
169.4097809903
 20
334.7331178413
 30
0.0
 10
169.3285077838
 20
334.4723169154
 30
0.0
 10
169.2541265555
 20
334.070617852
 30
0.0
 10
169.2390390296
 20
333.662629709
 30
0.0
 10
169.2736953842
 20
333.3919956217
 30
0.0
 10
169.3018620989
 20
333.2582807459
 30
0.0
  0
SPLINE
  5
415
100
AcDbEntity
  8
0
100
AcDbSpline
 62
7
  6
CONTINUOUS
 70
0
 71
3
 72
13
 73
9
 74
0
 42
0.0000001
 43
0.0000001
 44
0.0000000001
 40
0.0
 40
0.0
 40
0.0
 40
0.0
 40
0.0849718839
 40
0.1851352439
 40
0.2989085978
 40
0.4244348179
 40
0.7022292328
 40
1.0
 40
1.0
 40
1.0
 40
1.0
 10
173.2348494001
 20
333.258280746
 30
0.0
 10
173.2066503652
 20
333.3921490544
 30
0.0
 10
173.1545894727
 20
333.6857921444
 30
0.0
 10
173.0896495195
 20
334.1627129675
 30
0.0
 10
173.0325002977
 20
334.7063326617
 30
0.0
 10
172.9659130516
 20
335.5362588348
 30
0.0
 10
172.9113759313
 20
336.6639936428
 30
0.0
 10
172.8969809617
 20
337.5907186632
 30
0.0
 10
172.8969809617
 20
338.0701343957
 30
0.0
  0
SPLINE
  5
416
100
AcDbEntity
  8
0
100
AcDbSpline
 62
7
  6
CONTINUOUS
 70
0
 71
3
 72
17
 73
13
 74
0
 42
0.0000001
 43
0.0000001
 44
0.0000000001
 40
0.0
 40
0.0
 40
0.0
 40
0.0
 40
0.222439951
 40
0.4055296625
 40
0.5495534508
 40
0.6567486612
 40
0.7342872967
 40
0.7677314223
 40
0.8019625524
 40
0.8403388011
 40
0.8852717725
 40
1.0
 40
1.0
 40
1.0
 40
1.0
 10
173.7578476857
 20
341.2838420903
 30
0.0
 10
173.7480235452
 20
341.3221015018
 30
0.0
 10
173.7285125349
 20
341.3914733429
 30
0.0
 10
173.6956858506
 20
341.4834712659
 30
0.0
 10
173.6620204302
 20
341.5531653284
 30
0.0
 10
173.6281515641
 20
341.6010354822
 30
0.0
 10
173.5948924689
 20
341.6243489456
 30
0.0
 10
173.5686887214
 20
341.627056854
 30
0.0
 10
173.5501176208
 20
341.622310129
 30
0.0
 10
173.5320646848
 20
341.611396029
 30
0.0
 10
173.5064345061
 20
341.5870600276
 30
0.0
 10
173.4908914562
 20
341.5629023343
 30
0.0
 10
173.4809376514
 20
341.5451261576
 30
0.0
  0
SPLINE
  5
417
100
AcDbEntity
  8
0
100
AcDbSpline
 62
7
  6
CONTINUOUS
 70
0
 71
3
 72
17
 73
13
 74
0
 42
0.0000001
 43
0.0000001
 44
0.0000000001
 40
0.0
 40
0.0
 40
0.0
 40
0.0
 40
0.1146317404
 40
0.1595166559
 40
0.1978487979
 40
0.2320456492
 40
0.2654697189
 40
0.3430155846
 40
0.4502532922
 40
0.594338958
 40
0.7774934143
 40
1.0
 40
1.0
 40
1.0
 40
1.0
 10
173.4809376661
 20
334.5951432046
 30
0.0
 10
173.490898433
 20
334.5773548782
 30
0.0
 10
173.5064513831
 20
334.5531812828
 30
0.0
 10
173.5321049704
 20
334.5288394957
 30
0.0
 10
173.550174546
 20
334.5179330462
 30
0.0
 10
173.568763132
 20
334.5132047939
 30
0.0
 10
173.5949948765
 20
334.5159556869
 30
0.0
 10
173.628271593
 20
334.5393583561
 30
0.0
 10
173.6621629376
 20
334.5873424515
 30
0.0
 10
173.6958495075
 20
334.6571918307
 30
0.0
 10
173.728698227
 20
334.7493761445
 30
0.0
 10
173.7482205114
 20
334.8188836694
 30
0.0
 10
173.7580502681
 20
334.8572162515
 30
0.0
  0
SPLINE
  5
418
100
AcDbEntity
  8
0
100
AcDbSpline
 62
7
  6
CONTINUOUS
 70
0
 71
3
 72
10
 73
6
 74
0
 42
0.0000001
 43
0.0000001
 44
0.0000000001
 40
0.0
 40
0.0
 40
0.0
 40
0.0
 40
0.2500986154
 40
0.5001758243
 40
1.0
 40
1.0
 40
1.0
 40
1.0
 10
172.8969809617
 20
338.0701343958
 30
0.0
 10
172.8969809617
 20
338.3414845751
 30
0.0
 10
172.8739978943
 20
338.8844451109
 30
0.0
 10
172.7404704664
 20
339.9620592625
 30
0.0
 10
172.5537747574
 20
340.7567194157
 30
0.0
 10
172.404400473
 20
341.2780368289
 30
0.0
  0
SPLINE
  5
419
100
AcDbEntity
  8
0
100
AcDbSpline
 62
7
  6
CONTINUOUS
 70
0
 71
3
 72
18
 73
14
 74
0
 42
0.0000001
 43
0.0000001
 44
0.0000000001
 40
0.0
 40
0.0
 40
0.0
 40
0.0
 40
0.1004520317
 40
0.1385782682
 40
0.170913743
 40
0.2006755426
 40
0.2319137877
 40
0.2681726034
 40
0.3117628165
 40
0.4253604281
 40
0.5775779636
 40
0.7693498964
 40
1.0
 40
1.0
 40
1.0
 40
1.0
 10
173.7161245004
 20
332.6404553155
 30
0.0
 10
173.6989805938
 20
332.609843835
 30
0.0
 10
173.6722074439
 20
332.5684505334
 30
0.0
 10
173.6264272778
 20
332.5294301155
 30
0.0
 10
173.5940569225
 20
332.5145266981
 30
0.0
 10
173.5606634662
 20
332.51261754
 30
0.0
 10
173.5279206256
 20
332.5240588301
 30
0.0
 10
173.4964386844
 20
332.5474064542
 30
0.0
 10
173.4514441123
 20
332.5982355029
 30
0.0
 10
173.3987540164
 20
332.6936595022
 30
0.0
 10
173.3409515667
 20
332.8427615308
 30
0.0
 10
173.2846486824
 20
333.0356471086
 30
0.0
 10
173.2514547697
 20
333.1794506461
 30
0.0
 10
173.2348494001
 20
333.258280746
 30
0.0
  0
SPLINE
  5
41A
100
AcDbEntity
  8
0
100
AcDbSpline
 62
7
  6
CONTINUOUS
 70
0
 71
3
 72
9
 73
5
 74
0
 42
0.0000001
 43
0.0000001
 44
0.0000000001
 40
0.0
 40
0.0
 40
0.0
 40
0.0
 40
0.2535488689
 40
1.0
 40
1.0
 40
1.0
 40
1.0
 10
172.404400473
 20
341.2780368289
 30
0.0
 10
172.42840475
 20
341.3086657726
 30
0.0
 10
172.5221541992
 20
341.4301836915
 30
0.0
 10
172.6119747987
 20
341.554765049
 30
0.0
 10
172.676094289
 20
341.6497059502
 30
0.0
  0
SPLINE
  5
41B
100
AcDbEntity
  8
0
100
AcDbSpline
 62
7
  6
CONTINUOUS
 70
0
 71
3
 72
11
 73
7
 74
0
 42
0.0000001
 43
0.0000001
 44
0.0000000001
 40
0.0
 40
0.0
 40
0.0
 40
0.0
 40
0.2327767778
 40
0.4765325857
 40
0.7324725552
 40
1.0
 40
1.0
 40
1.0
 40
1.0
 10
173.2348494001
 20
333.258280746
 30
0.0
 10
173.2057244898
 20
333.3965444312
 30
0.0
 10
173.122527724
 20
333.6750062378
 30
0.0
 10
172.9354088338
 20
334.0795880691
 30
0.0
 10
172.6928129833
 20
334.478020254
 30
0.0
 10
172.504571425
 20
334.7344159717
 30
0.0
 10
172.404400473
 20
334.8622319626
 30
0.0
  0
SPLINE
  5
41C
100
AcDbEntity
  8
0
100
AcDbSpline
 62
7
  6
CONTINUOUS
 70
0
 71
3
 72
10
 73
6
 74
0
 42
0.0000001
 43
0.0000001
 44
0.0000000001
 40
0.0
 40
0.0
 40
0.0
 40
0.0
 40
0.4998242396
 40
0.7499014568
 40
1.0
 40
1.0
 40
1.0
 40
1.0
 10
172.404400473
 20
334.8622319626
 30
0.0
 10
172.5537747765
 20
335.3835494423
 30
0.0
 10
172.7404711641
 20
336.1782095737
 30
0.0
 10
172.8739973604
 20
337.2558238662
 30
0.0
 10
172.8969809617
 20
337.7987842949
 30
0.0
 10
172.8969809617
 20
338.0701343958
 30
0.0
  0
SPLINE
  5
41D
100
AcDbEntity
  8
0
100
AcDbSpline
 62
7
  6
CONTINUOUS
 70
0
 71
3
 72
11
 73
7
 74
0
 42
0.0000001
 43
0.0000001
 44
0.0000000001
 40
0.0
 40
0.0
 40
0.0
 40
0.0
 40
0.252452583
 40
0.501119045
 40
0.7488022367
 40
1.0
 40
1.0
 40
1.0
 40
1.0
 10
173.0801373499
 20
331.6543295294
 30
0.0
 10
173.1269305058
 20
331.7834436427
 30
0.0
 10
173.2082035287
 20
332.044244616
 30
0.0
 10
173.2825850146
 20
332.445943626
 30
0.0
 10
173.2976724398
 20
332.8539317886
 30
0.0
 10
173.2630161144
 20
333.1245658722
 30
0.0
 10
173.2348494001
 20
333.258280746
 30
0.0
  0
SPLINE
  5
41E
100
AcDbEntity
  8
0
100
AcDbSpline
 62
7
  6
CONTINUOUS
 70
0
 71
3
 72
9
 73
5
 74
0
 42
0.0000001
 43
0.0000001
 44
0.0000000001
 40
0.0
 40
0.0
 40
0.0
 40
0.0
 40
0.4871962478
 40
1.0
 40
1.0
 40
1.0
 40
1.0
 10
169.3018620989
 20
333.2582807459
 30
0.0
 10
169.3338972209
 20
333.1062015129
 30
0.0
 10
169.4282981328
 20
332.7996547139
 30
0.0
 10
169.5683347544
 20
332.5118683778
 30
0.0
 10
169.6482607561
 20
332.369137661
 30
0.0
  0
SPLINE
  5
41F
100
AcDbEntity
  8
0
100
AcDbSpline
 62
7
  6
CONTINUOUS
 70
0
 71
3
 72
10
 73
6
 74
0
 42
0.0000001
 43
0.0000001
 44
0.0000000001
 40
0.0
 40
0.0
 40
0.0
 40
0.0
 40
0.5323160147
 40
0.7780479356
 40
1.0
 40
1.0
 40
1.0
 40
1.0
 10
172.8969809617
 20
338.0701343957
 30
0.0
 10
172.8969809617
 20
338.7110960692
 30
0.0
 10
172.915918755
 20
339.6481780858
 30
0.0
 10
172.9837063718
 20
340.8504543601
 30
0.0
 10
173.0311731372
 20
341.411710554
 30
0.0
 10
173.0587708007
 20
341.6775342711
 30
0.0
  0
SPLINE
  5
420
100
AcDbEntity
  8
0
100
AcDbSpline
 62
7
  6
CONTINUOUS
 70
0
 71
3
 72
11
 73
7
 74
0
 42
0.0000001
 43
0.0000001
 44
0.0000000001
 40
0.0
 40
0.0
 40
0.0
 40
0.0
 40
0.2500349636
 40
0.5000485693
 40
0.750031527
 40
1.0
 40
1.0
 40
1.0
 40
1.0
 10
276.8570727771
 20
235.5543202135
 30
0.0
 10
277.0257833056
 20
235.5162794788
 30
0.0
 10
277.35334469
 20
235.3840725675
 30
0.0
 10
277.7516598051
 20
235.0370822445
 30
0.0
 10
278.0135823394
 20
234.578170576
 30
0.0
 10
278.0761663566
 20
234.2300285225
 30
0.0
 10
278.0775999384
 20
234.0571343957
 30
0.0
  0
SPLINE
  5
421
100
AcDbEntity
  8
0
100
AcDbSpline
 62
7
  6
CONTINUOUS
 70
0
 71
3
 72
9
 73
5
 74
0
 42
0.0000001
 43
0.0000001
 44
0.0000000001
 40
0.0
 40
0.0
 40
0.0
 40
0.0
 40
0.2606713595
 40
1.0
 40
1.0
 40
1.0
 40
1.0
 10
279.6196014248
 20
233.9301343957
 30
0.0
 10
279.6196014248
 20
234.2021433749
 30
0.0
 10
279.6172210549
 20
235.2456333913
 30
0.0
 10
279.6060557616
 20
236.2891229125
 30
0.0
 10
279.5908025337
 20
237.0604570527
 30
0.0
  0
SPLINE
  5
422
100
AcDbEntity
  8
0
100
AcDbSpline
 62
7
  6
CONTINUOUS
 70
0
 71
3
 72
10
 73
6
 74
0
 42
0.0000001
 43
0.0000001
 44
0.0000000001
 40
0.0
 40
0.0
 40
0.0
 40
0.0
 40
0.6018897988
 40
0.8299983387
 40
1.0
 40
1.0
 40
1.0
 40
1.0
 10
279.5908025337
 20
237.0604570527
 30
0.0
 10
279.5796493271
 20
237.6244589236
 30
0.0
 10
279.5598026343
 20
238.4022074626
 30
0.0
 10
279.5160024796
 20
239.3384227183
 30
0.0
 10
279.491029303
 20
239.7107929284
 30
0.0
 10
279.4763920001
 20
239.869450655
 30
0.0
  0
SPLINE
  5
423
100
AcDbEntity
  8
0
100
AcDbSpline
 62
7
  6
CONTINUOUS
 70
0
 71
3
 72
12
 73
8
 74
0
 42
0.0000001
 43
0.0000001
 44
0.0000000001
 40
0.0
 40
0.0
 40
0.0
 40
0.0
 40
0.4240070248
 40
0.7311354247
 40
0.9202031316
 40
0.9718318794
 40
1.0
 40
1.0
 40
1.0
 40
1.0
 10
279.4763920001
 20
239.869450655
 30
0.0
 10
279.4708929609
 20
239.9290562439
 30
0.0
 10
279.4602659958
 20
240.0319421955
 30
0.0
 10
279.4423732897
 20
240.1600341685
 30
0.0
 10
279.4252780955
 20
240.2367235986
 30
0.0
 10
279.4114615367
 20
240.2711565378
 30
0.0
 10
279.4019662234
 20
240.2801343957
 30
0.0
 10
279.3979896207
 20
240.2801343957
 30
0.0
  0
SPLINE
  5
424
100
AcDbEntity
  8
0
100
AcDbSpline
 62
7
  6
CONTINUOUS
 70
0
 71
3
 72
18
 73
14
 74
0
 42
0.0000001
 43
0.0000001
 44
0.0000000001
 40
0.0
 40
0.0
 40
0.0
 40
0.0
 40
0.0058998384
 40
0.0206567335
 40
0.0446738683
 40
0.0778268843
 40
0.1197949288
 40
0.1702180144
 40
0.2944042606
 40
0.4456672725
 40
0.6181476452
 40
0.8054142331
 40
1.0
 40
1.0
 40
1.0
 40
1.0
 10
279.6461948413
 20
232.4061343957
 30
0.0
 10
279.6446928599
 20
232.4061343957
 30
0.0
 10
279.6426064211
 20
232.4129077137
 30
0.0
 10
279.6404956321
 20
232.4224864715
 30
0.0
 10
279.6380600745
 20
232.4415167245
 30
0.0
 10
279.6357366745
 20
232.466273488
 30
0.0
 10
279.6334288814
 20
232.4982956267
 30
0.0
 10
279.6302913536
 20
232.5532782404
 30
0.0
 10
279.6269297548
 20
232.6362166068
 30
0.0
 10
279.6237609509
 20
232.7501912971
 30
0.0
 10
279.621392509
 20
232.8802700377
 30
0.0
 10
279.6199300985
 20
233.0213839626
 30
0.0
 10
279.6196014248
 20
233.1185967331
 30
0.0
 10
279.6196014248
 20
233.1681343957
 30
0.0
  0
SPLINE
  5
425
100
AcDbEntity
  8
0
100
AcDbSpline
 62
7
  6
CONTINUOUS
 70
0
 71
3
 72
17
 73
13
 74
0
 42
0.0000001
 43
0.0000001
 44
0.0000000001
 40
0.0
 40
0.0
 40
0.0
 40
0.0
 40
0.2091744047
 40
0.3941932674
 40
0.5543865047
 40
0.6893725763
 40
0.7992486057
 40
0.884929816
 40
0.9195319619
 40
0.9494355846
 40
0.9757237186
 40
1.0
 40
1.0
 40
1.0
 40
1.0
 10
352.2631089197
 20
326.8506882999
 30
0.0
 10
352.231749627
 20
326.6807708152
 30
0.0
 10
352.1684344782
 20
326.3613061313
 30
0.0
 10
352.0637895206
 20
325.915349623
 30
0.0
 10
351.9558186649
 20
325.5335075752
 30
0.0
 10
351.8451755747
 20
325.217355498
 30
0.0
 10
351.7325605599
 20
324.9682924965
 30
0.0
 10
351.6311209451
 20
324.8059228156
 30
0.0
 10
351.5464854833
 20
324.714665643
 30
0.0
 10
351.4867677174
 20
324.6685391611
 30
0.0
 10
351.4259485327
 20
324.6401107225
 30
0.0
 10
351.3839662699
 20
324.6335528938
 30
0.0
 10
351.3639130205
 20
324.6335529347
 30
0.0
  0
SPLINE
  5
426
100
AcDbEntity
  8
0
100
AcDbSpline
 62
7
  6
CONTINUOUS
 70
0
 71
3
 72
11
 73
7
 74
0
 42
0.0000001
 43
0.0000001
 44
0.0000000001
 40
0.0
 40
0.0
 40
0.0
 40
0.0
 40
0.2747576433
 40
0.5393621599
 40
0.784093829
 40
1.0
 40
1.0
 40
1.0
 40
1.0
 10
348.5700611595
 20
338.0701343957
 30
0.0
 10
348.5700611595
 20
337.2071021739
 30
0.0
 10
348.5897371348
 20
335.5128618683
 30
0.0
 10
348.6775729994
 20
333.0512719961
 30
0.0
 10
348.8199520548
 20
330.7774189258
 30
0.0
 10
348.9570515362
 20
329.3365977794
 30
0.0
 10
349.0373472216
 20
328.6631922491
 30
0.0
  0
SPLINE
  5
427
100
AcDbEntity
  8
0
100
AcDbSpline
 62
7
  6
CONTINUOUS
 70
0
 71
3
 72
17
 73
13
 74
0
 42
0.0000001
 43
0.0000001
 44
0.0000000001
 40
0.0
 40
0.0
 40
0.0
 40
0.0
 40
0.2091744047
 40
0.3941932674
 40
0.5543865047
 40
0.6893725763
 40
0.7992486057
 40
0.884929816
 40
0.9195319619
 40
0.9494355846
 40
0.9757237186
 40
1.0
 40
1.0
 40
1.0
 40
1.0
 10
349.3049900959
 20
326.8506882999
 30
0.0
 10
349.3363493886
 20
326.6807708152
 30
0.0
 10
349.3996645374
 20
326.3613061313
 30
0.0
 10
349.504309495
 20
325.915349623
 30
0.0
 10
349.6122803507
 20
325.5335075752
 30
0.0
 10
349.7229234409
 20
325.217355498
 30
0.0
 10
349.8355384557
 20
324.9682924965
 30
0.0
 10
349.9369780705
 20
324.8059228156
 30
0.0
 10
350.0216135323
 20
324.714665643
 30
0.0
 10
350.0813312982
 20
324.6685391611
 30
0.0
 10
350.1421504829
 20
324.6401107225
 30
0.0
 10
350.1841327457
 20
324.6335528938
 30
0.0
 10
350.2041859951
 20
324.6335529347
 30
0.0
  0
SPLINE
  5
428
100
AcDbEntity
  8
0
100
AcDbSpline
 62
7
  6
CONTINUOUS
 70
0
 71
3
 72
11
 73
7
 74
0
 42
0.0000001
 43
0.0000001
 44
0.0000000001
 40
0.0
 40
0.0
 40
0.0
 40
0.0
 40
0.2159000974
 40
0.4606307688
 40
0.7252378988
 40
1.0
 40
1.0
 40
1.0
 40
1.0
 10
349.037412978
 20
347.4776275618
 30
0.0
 10
348.9571056634
 20
346.8042024189
 30
0.0
 10
348.819987037
 20
345.3633196747
 30
0.0
 10
348.6775885989
 20
343.0893473998
 30
0.0
 10
348.5897399793
 20
340.6275937204
 30
0.0
 10
348.5700611595
 20
338.9332314354
 30
0.0
 10
348.5700611595
 20
338.0701343957
 30
0.0
  0
SPLINE
  5
429
100
AcDbEntity
  8
0
100
AcDbSpline
 62
7
  6
CONTINUOUS
 70
0
 71
3
 72
17
 73
13
 74
0
 42
0.0000001
 43
0.0000001
 44
0.0000000001
 40
0.0
 40
0.0
 40
0.0
 40
0.0
 40
0.0242732849
 40
0.0505587542
 40
0.0804602964
 40
0.1150610534
 40
0.2007409988
 40
0.3106174504
 40
0.4456051723
 40
0.6058008312
 40
0.7908226808
 40
1.0
 40
1.0
 40
1.0
 40
1.0
 10
351.3639130205
 20
324.6335529347
 30
0.0
 10
351.3438562413
 20
324.6335529756
 30
0.0
 10
351.3018661202
 20
324.6401134575
 30
0.0
 10
351.2410362951
 20
324.6685516396
 30
0.0
 10
351.1813085391
 20
324.7146939284
 30
0.0
 10
351.096658655
 20
324.8059831818
 30
0.0
 10
350.9952027297
 20
324.9684078742
 30
0.0
 10
350.8825705836
 20
325.2175536044
 30
0.0
 10
350.7719112954
 20
325.5338101508
 30
0.0
 10
350.6639254416
 20
325.9157774819
 30
0.0
 10
350.5592673857
 20
326.3618788685
 30
0.0
 10
350.4959449669
 20
326.6814465037
 30
0.0
 10
350.4645823699
 20
326.85141845
 30
0.0
  0
SPLINE
  5
42A
100
AcDbEntity
  8
0
100
AcDbSpline
 62
7
  6
CONTINUOUS
 70
0
 71
3
 72
9
 73
5
 74
0
 42
0.0000001
 43
0.0000001
 44
0.0000000001
 40
0.0
 40
0.0
 40
0.0
 40
0.0
 40
0.2550153244
 40
1.0
 40
1.0
 40
1.0
 40
1.0
 10
352.7551630313
 20
338.0701343957
 30
0.0
 10
352.7551630313
 20
337.6683129986
 30
0.0
 10
352.7638143885
 20
336.0926587155
 30
0.0
 10
352.8059877843
 20
334.5171152798
 30
0.0
 10
352.8595647702
 20
333.3444844997
 30
0.0
  0
SPLINE
  5
42B
100
AcDbEntity
  8
0
100
AcDbSpline
 62
7
  6
CONTINUOUS
 70
0
 71
3
 72
17
 73
13
 74
0
 42
0.0000001
 43
0.0000001
 44
0.0000000001
 40
0.0
 40
0.0
 40
0.0
 40
0.0
 40
0.2091744047
 40
0.3941932674
 40
0.5543865047
 40
0.6893725763
 40
0.7992486057
 40
0.884929816
 40
0.9195319619
 40
0.9494355846
 40
0.9757237186
 40
1.0
 40
1.0
 40
1.0
 40
1.0
 10
353.4900919678
 20
326.8506882999
 30
0.0
 10
353.5214512604
 20
326.6807708152
 30
0.0
 10
353.5847664093
 20
326.3613061313
 30
0.0
 10
353.6894113668
 20
325.915349623
 30
0.0
 10
353.7973822225
 20
325.5335075752
 30
0.0
 10
353.9080253127
 20
325.217355498
 30
0.0
 10
354.0206403276
 20
324.9682924965
 30
0.0
 10
354.1220799424
 20
324.8059228156
 30
0.0
 10
354.2067154041
 20
324.714665643
 30
0.0
 10
354.26643317
 20
324.6685391611
 30
0.0
 10
354.3272523547
 20
324.6401107225
 30
0.0
 10
354.3692346175
 20
324.6335528938
 30
0.0
 10
354.3892878669
 20
324.6335529347
 30
0.0
  0
SPLINE
  5
42C
100
AcDbEntity
  8
0
100
AcDbSpline
 62
7
  6
CONTINUOUS
 70
0
 71
3
 72
11
 73
7
 74
0
 42
0.0000001
 43
0.0000001
 44
0.0000000001
 40
0.0
 40
0.0
 40
0.0
 40
0.0
 40
0.2028094356
 40
0.4272728428
 40
0.6896397517
 40
1.0
 40
1.0
 40
1.0
 40
1.0
 10
355.5490148916
 20
351.5067158568
 30
0.0
 10
355.5720611344
 20
351.5067158098
 30
0.0
 10
355.6209043536
 20
351.4978571852
 30
0.0
 10
355.6906470105
 20
351.4601254487
 30
0.0
 10
355.758726467
 20
351.3995254278
 30
0.0
 10
355.7997612044
 20
351.3487085441
 30
0.0
 10
355.8204096846
 20
351.3201173523
 30
0.0
  0
SPLINE
  5
42D
100
AcDbEntity
  8
0
100
AcDbSpline
 62
7
  6
CONTINUOUS
 70
0
 71
3
 72
23
 73
19
 74
0
 42
0.0000001
 43
0.0000001
 44
0.0000000001
 40
0.0
 40
0.0
 40
0.0
 40
0.0
 40
0.0059561188
 40
0.0127682374
 40
0.021023987
 40
0.0310489696
 40
0.0430149794
 40
0.0570052737
 40
0.0911688101
 40
0.1335548077
 40
0.183921728
 40
0.2418812819
 40
0.3069377001
 40
0.37850984
 40
0.4559425373
 40
0.6254487553
 40
0.8091076102
 40
1.0
 40
1.0
 40
1.0
 40
1.0
 10
354.3892878676
 20
351.5067158568
 30
0.0
 10
354.3620218415
 20
351.5067158012
 30
0.0
 10
354.3031877844
 20
351.4938896112
 30
0.0
 10
354.2212422087
 20
351.4409186373
 30
0.0
 10
354.1417428823
 20
351.3570479658
 30
0.0
 10
354.0634709039
 20
351.2423570936
 30
0.0
 10
353.9860442826
 20
351.0967104244
 30
0.0
 10
353.876598985
 20
350.8439610786
 30
0.0
 10
353.7474958218
 20
350.4493456783
 30
0.0
 10
353.6057775636
 20
349.8856692917
 30
0.0
 10
353.470778075
 20
349.2088315665
 30
0.0
 10
353.3438960558
 20
348.425201247
 30
0.0
 10
353.2266000489
 20
347.5420679254
 30
0.0
 10
353.1201060818
 20
346.5678649898
 30
0.0
 10
352.9901133956
 20
345.1155107795
 30
0.0
 10
352.8653442668
 20
343.1479166353
 30
0.0
 10
352.77530653
 20
340.6587123046
 30
0.0
 10
352.7551630313
 20
338.9440049608
 30
0.0
 10
352.7551630313
 20
338.0701343957
 30
0.0
  0
SPLINE
  5
42E
100
AcDbEntity
  8
0
100
AcDbSpline
 62
7
  6
CONTINUOUS
 70
0
 71
3
 72
11
 73
7
 74
0
 42
0.0000001
 43
0.0000001
 44
0.0000000001
 40
0.0
 40
0.0
 40
0.0
 40
0.0
 40
0.3103165751
 40
0.5726718986
 40
0.7971535016
 40
1.0
 40
1.0
 40
1.0
 40
1.0
 10
355.8202517297
 20
324.8199327609
 30
0.0
 10
355.7996142894
 20
324.7913740001
 30
0.0
 10
355.7586006522
 20
324.7406142404
 30
0.0
 10
355.6905595245
 20
324.6800856726
 30
0.0
 10
355.6208581425
 20
324.6423996529
 30
0.0
 10
355.5720471805
 20
324.6335528877
 30
0.0
 10
355.5490148924
 20
324.6335529347
 30
0.0
  0
SPLINE
  5
42F
100
AcDbEntity
  8
0
100
AcDbSpline
 62
7
  6
CONTINUOUS
 70
0
 71
3
 72
17
 73
13
 74
0
 42
0.0000001
 43
0.0000001
 44
0.0000000001
 40
0.0
 40
0.0
 40
0.0
 40
0.0
 40
0.0198561197
 40
0.0424120159
 40
0.0695552084
 40
0.1023554363
 40
0.1868742731
 40
0.2979730531
 40
0.4357408073
 40
0.5994957521
 40
0.7880800228
 40
1.0
 40
1.0
 40
1.0
 40
1.0
 10
355.5490148924
 20
324.6335529347
 30
0.0
 10
355.522603822
 20
324.6335529886
 30
0.0
 10
355.4658219407
 20
324.6455033391
 30
0.0
 10
355.3863120209
 20
324.6951968899
 30
0.0
 10
355.3090659004
 20
324.7740818071
 30
0.0
 10
355.1982398344
 20
324.931732094
 30
0.0
 10
355.0683673727
 20
325.2082631783
 30
0.0
 10
354.9255917526
 20
325.6283458871
 30
0.0
 10
354.7873779681
 20
326.1599513071
 30
0.0
 10
354.6550878161
 20
326.798443808
 30
0.0
 10
354.5302718707
 20
327.5386715921
 30
0.0
 10
354.4569510089
 20
328.0663876766
 30
0.0
 10
354.4212904072
 20
328.3460023813
 30
0.0
  0
SPLINE
  5
430
100
AcDbEntity
  8
0
100
AcDbSpline
 62
7
  6
CONTINUOUS
 70
0
 71
3
 72
9
 73
5
 74
0
 42
0.0000001
 43
0.0000001
 44
0.0000000001
 40
0.0
 40
0.0
 40
0.0
 40
0.0
 40
0.2357837655
 40
1.0
 40
1.0
 40
1.0
 40
1.0
 10
354.4212904072
 20
328.3460023813
 30
0.0
 10
354.4037729652
 20
328.4833566077
 30
0.0
 10
354.3327396687
 20
329.0663148611
 30
0.0
 10
354.2736916513
 20
329.6507012063
 30
0.0
 10
354.2336212737
 20
330.0977036819
 30
0.0
  0
SPLINE
  5
431
100
AcDbEntity
  8
0
100
AcDbSpline
 62
7
  6
CONTINUOUS
 70
0
 71
3
 72
9
 73
5
 74
0
 42
0.0000001
 43
0.0000001
 44
0.0000000001
 40
0.0
 40
0.0
 40
0.0
 40
0.0
 40
0.2356372364
 40
1.0
 40
1.0
 40
1.0
 40
1.0
 10
354.2336212737
 20
330.0977036819
 30
0.0
 10
354.210787972
 20
330.3524190855
 30
0.0
 10
354.1210067852
 20
331.4340186501
 30
0.0
 10
354.0570507413
 20
332.5176842798
 30
0.0
 10
354.019205162
 20
333.3463824175
 30
0.0
  0
SPLINE
  5
432
100
AcDbEntity
  8
0
100
AcDbSpline
 62
7
  6
CONTINUOUS
 70
0
 71
3
 72
9
 73
5
 74
0
 42
0.0000001
 43
0.0000001
 44
0.0000000001
 40
0.0
 40
0.0
 40
0.0
 40
0.0
 40
0.2429759681
 40
1.0
 40
1.0
 40
1.0
 40
1.0
 10
354.019205162
 20
333.3463824175
 30
0.0
 10
354.001746032
 20
333.7286819833
 30
0.0
 10
353.9398382707
 20
335.3025309091
 30
0.0
 10
353.914890056
 20
336.8777876584
 30
0.0
 10
353.914890056
 20
338.0701343957
 30
0.0
  0
SPLINE
  5
433
100
AcDbEntity
  8
0
100
AcDbSpline
 62
7
  6
CONTINUOUS
 70
0
 71
3
 72
9
 73
5
 74
0
 42
0.0000001
 43
0.0000001
 44
0.0000000001
 40
0.0
 40
0.0
 40
0.0
 40
0.0
 40
0.5133454349
 40
1.0
 40
1.0
 40
1.0
 40
1.0
 10
353.914890056
 20
338.0701343957
 30
0.0
 10
353.914890056
 20
339.0924068803
 30
0.0
 10
353.9422052818
 20
341.0838910704
 30
0.0
 10
354.026750099
 20
343.0738691407
 30
0.0
 10
354.0851129173
 20
344.0412306425
 30
0.0
  0
SPLINE
  5
434
100
AcDbEntity
  8
0
100
AcDbSpline
 62
7
  6
CONTINUOUS
 70
0
 71
3
 72
20
 73
16
 74
0
 42
0.0000001
 43
0.0000001
 44
0.0000000001
 40
0.0
 40
0.0
 40
0.0
 40
0.0
 40
0.2077543158
 40
0.3970673273
 40
0.564437882
 40
0.7068545265
 40
0.767936108
 40
0.8219388158
 40
0.8687038351
 40
0.9081494607
 40
0.940341439
 40
0.9655861108
 40
0.9758627798
 40
0.9848130528
 40
1.0
 40
1.0
 40
1.0
 40
1.0
 10
354.0851129173
 20
344.0412306425
 30
0.0
 10
354.117469854
 20
344.5775456421
 30
0.0
 10
354.1895449931
 20
345.6019959412
 30
0.0
 10
354.3270997324
 20
347.0554198103
 30
0.0
 10
354.4869481669
 20
348.3364454571
 30
0.0
 10
354.6423844305
 20
349.2833331039
 30
0.0
 10
354.779348127
 20
349.9351499896
 30
0.0
 10
354.8802305584
 20
350.341508757
 30
0.0
 10
354.9839632596
 20
350.6891281268
 30
0.0
 10
355.0900086818
 20
350.9767539244
 30
0.0
 10
355.197827599
 20
351.2032822221
 30
0.0
 10
355.2946236688
 20
351.3506604523
 30
0.0
 10
355.3753621012
 20
351.4332668607
 30
0.0
 10
355.4469527857
 20
351.4863124013
 30
0.0
 10
355.5097387025
 20
351.506715937
 30
0.0
 10
355.5490148916
 20
351.5067158568
 30
0.0
  0
SPLINE
  5
435
100
AcDbEntity
  8
0
100
AcDbSpline
 62
7
  6
CONTINUOUS
 70
0
 71
3
 72
16
 73
12
 74
0
 42
0.0000001
 43
0.0000001
 44
0.0000000001
 40
0.0
 40
0.0
 40
0.0
 40
0.0
 40
0.1298561095
 40
0.2742673198
 40
0.4252620233
 40
0.5745031296
 40
0.7137506992
 40
0.8353210051
 40
0.932512899
 40
0.9702392567
 40
1.0
 40
1.0
 40
1.0
 40
1.0
 10
149.6723016457
 20
229.8545697232
 30
0.0
 10
149.6843818467
 20
230.3027604287
 30
0.0
 10
149.7034491455
 20
231.2495536215
 30
0.0
 10
149.7190748951
 20
232.7177861711
 30
0.0
 10
149.7226514022
 20
234.2530304554
 30
0.0
 10
149.7139471402
 20
235.7704225871
 30
0.0
 10
149.693592307
 20
237.1861110134
 30
0.0
 10
149.66272969
 20
238.4218375504
 30
0.0
 10
149.6283171218
 20
239.3068221994
 30
0.0
 10
149.5946593581
 20
239.8744241539
 30
0.0
 10
149.5764126427
 20
240.1067559208
 30
0.0
 10
149.5664208195
 20
240.2090237218
 30
0.0
  0
SPLINE
  5
436
100
AcDbEntity
  8
0
100
AcDbSpline
 62
7
  6
CONTINUOUS
 70
0
 71
3
 72
37
 73
33
 74
0
 42
0.0000001
 43
0.0000001
 44
0.0000000001
 40
0.0
 40
0.0
 40
0.0
 40
0.0
 40
0.001673306
 40
0.0044216945
 40
0.0082939468
 40
0.0133008988
 40
0.0266947407
 40
0.0445095562
 40
0.066588667
 40
0.0927320964
 40
0.1226950612
 40
0.1562007531
 40
0.1929334397
 40
0.2325489236
 40
0.3189166804
 40
0.4120655111
 40
0.508500529
 40
0.6046035157
 40
0.6967689894
 40
0.7815398615
 40
0.8201443511
 40
0.855738209
 40
0.8879855733
 40
0.9165859673
 40
0.9412727212
 40
0.9618168755
 40
0.9780353225
 40
0.9897877582
 40
0.9939675598
 40
0.9970170098
 40
0.9989700023
 40
1.0
 40
1.0
 40
1.0
 40
1.0
 10
138.0690304229
 20
230.7571276883
 30
0.0
 10
138.0715196369
 20
230.7596562659
 30
0.0
 10
138.0755778937
 20
230.7684382688
 30
0.0
 10
138.0806163473
 20
230.7851584116
 30
0.0
 10
138.0857163508
 20
230.8093680267
 30
0.0
 10
138.0933183826
 20
230.8559538986
 30
0.0
 10
138.102070681
 20
230.9323058758
 30
0.0
 10
138.1117584143
 20
231.0448763913
 30
0.0
 10
138.1210889355
 20
231.1846092959
 30
0.0
 10
138.1299792783
 20
231.3501629728
 30
0.0
 10
138.1383030057
 20
231.5400050373
 30
0.0
 10
138.1459714568
 20
231.75234368
 30
0.0
 10
138.1529045605
 20
231.9851855796
 30
0.0
 10
138.1613138498
 20
232.3301214005
 30
0.0
 10
138.1693064957
 20
232.7947256677
 30
0.0
 10
138.174924983
 20
233.3798551211
 30
0.0
 10
138.17657395
 20
233.985652735
 30
0.0
 10
138.1741915269
 20
234.589362766
 30
0.0
 10
138.1678697305
 20
235.1683093261
 30
0.0
 10
138.1593118622
 20
235.6252874693
 30
0.0
 10
138.1504653658
 20
235.962264902
 30
0.0
 10
138.1432556575
 20
236.1878681385
 30
0.0
 10
138.1353377624
 20
236.3922192062
 30
0.0
 10
138.1267960893
 20
236.5733975766
 30
0.0
 10
138.1177322867
 20
236.7296909517
 30
0.0
 10
138.1082508053
 20
236.8596728938
 30
0.0
 10
138.0985400901
 20
236.9620534212
 30
0.0
 10
138.0896236242
 20
237.0297692258
 30
0.0
 10
138.0820854743
 20
237.0692046795
 30
0.0
 10
138.0767216115
 20
237.0881798866
 30
0.0
 10
138.072431562
 20
237.0997706312
 30
0.0
 10
138.0672887568
 20
237.1051235521
 30
0.0
 10
138.0651046657
 20
237.1051284884
 30
0.0
  0
SPLINE
  5
437
100
AcDbEntity
  8
0
100
AcDbSpline
 62
7
  6
CONTINUOUS
 70
0
 71
3
 72
9
 73
5
 74
0
 42
0.0000001
 43
0.0000001
 44
0.0000000001
 40
0.0
 40
0.0
 40
0.0
 40
0.0
 40
0.2775548513
 40
1.0
 40
1.0
 40
1.0
 40
1.0
 10
137.9049318708
 20
237.1178860789
 30
0.0
 10
137.9077713548
 20
237.2350329986
 30
0.0
 10
137.9188689807
 20
237.6570765426
 30
0.0
 10
137.9332855118
 20
238.0790517182
 30
0.0
 10
137.9473163087
 20
238.3837391061
 30
0.0
  0
SPLINE
  5
438
100
AcDbEntity
  8
0
100
AcDbSpline
 62
7
  6
CONTINUOUS
 70
0
 71
3
 72
11
 73
7
 74
0
 42
0.0000001
 43
0.0000001
 44
0.0000000001
 40
0.0
 40
0.0
 40
0.0
 40
0.0
 40
0.2291598478
 40
0.4932869702
 40
0.7608744588
 40
1.0
 40
1.0
 40
1.0
 40
1.0
 10
142.2997376299
 20
238.3856824714
 30
0.0
 10
142.3201572452
 20
237.7342876449
 30
0.0
 10
142.3482349375
 20
236.33161282
 30
0.0
 10
142.3635829861
 20
234.1677520194
 30
0.0
 10
142.3535628574
 20
231.9755144032
 30
0.0
 10
142.3291162866
 20
230.5345953939
 30
0.0
 10
142.3107947412
 20
229.8547856965
 30
0.0
  0
SPLINE
  5
439
100
AcDbEntity
  8
0
100
AcDbSpline
 62
7
  6
CONTINUOUS
 70
0
 71
3
 72
13
 73
9
 74
0
 42
0.0000001
 43
0.0000001
 44
0.0000000001
 40
0.0
 40
0.0
 40
0.0
 40
0.0
 40
0.0971642589
 40
0.2146922551
 40
0.4876056771
 40
0.7670269913
 40
0.8923950062
 40
1.0
 40
1.0
 40
1.0
 40
1.0
 10
138.181511766
 20
238.4134489775
 30
0.0
 10
138.1945507631
 20
238.1354875022
 30
0.0
 10
138.2164472776
 20
237.5209890407
 30
0.0
 10
138.2487561628
 20
236.1248992363
 30
0.0
 10
138.2653596411
 20
234.2064668826
 30
0.0
 10
138.2552827132
 20
232.2655514537
 30
0.0
 10
138.2284171836
 20
230.7983428113
 30
0.0
 10
138.209005655
 20
230.1313928471
 30
0.0
 10
138.1973584251
 20
229.8234448468
 30
0.0
  0
SPLINE
  5
43A
100
AcDbEntity
  8
0
100
AcDbSpline
 62
7
  6
CONTINUOUS
 70
0
 71
3
 72
18
 73
14
 74
0
 42
0.0000001
 43
0.0000001
 44
0.0000000001
 40
0.0
 40
0.0
 40
0.0
 40
0.0
 40
0.2117519181
 40
0.4011451786
 40
0.566193146
 40
0.7052817302
 40
0.8172888056
 40
0.8630093479
 40
0.9019317147
 40
0.9342885922
 40
0.9605718138
 40
0.9818135149
 40
1.0
 40
1.0
 40
1.0
 40
1.0
 10
235.5002084618
 20
333.7076673287
 30
0.0
 10
235.4821420006
 20
333.5359666165
 30
0.0
 10
235.4444708537
 20
333.2110362378
 30
0.0
 10
235.3789084564
 20
332.7540174823
 30
0.0
 10
235.3081270494
 20
332.3577759234
 30
0.0
 10
235.2330042289
 20
332.0267862949
 30
0.0
 10
235.1640068736
 20
331.794438275
 30
0.0
 10
235.1051372871
 20
331.6451826149
 30
0.0
 10
235.0634466308
 20
331.5592479801
 30
0.0
 10
235.0212908666
 20
331.4915420075
 30
0.0
 10
234.9784396713
 20
331.441999842
 30
0.0
 10
234.934157461
 20
331.4104648405
 30
0.0
 10
234.9018094696
 20
331.4026381026
 30
0.0
 10
234.8869814066
 20
331.4026381064
 30
0.0
  0
SPLINE
  5
43B
100
AcDbEntity
  8
0
100
AcDbSpline
 62
7
  6
CONTINUOUS
 70
0
 71
3
 72
18
 73
14
 74
0
 42
0.0000001
 43
0.0000001
 44
0.0000000001
 40
0.0
 40
0.0
 40
0.0
 40
0.0
 40
0.1791367603
 40
0.3524978738
 40
0.5145379468
 40
0.6600739474
 40
0.784521685
 40
0.8376200334
 40
0.8841039499
 40
0.9236733661
 40
0.9561355014
 40
0.9814722195
 40
1.0
 40
1.0
 40
1.0
 40
1.0
 10
234.2691648334
 20
338.0701343957
 30
0.0
 10
234.2691648334
 20
337.7652924118
 30
0.0
 10
234.2756776514
 20
337.1654143679
 30
0.0
 10
234.3048130804
 20
336.290222731
 30
0.0
 10
234.3521726528
 20
335.4730650968
 30
0.0
 10
234.4161139465
 20
334.7405609419
 30
0.0
 10
234.4840855444
 20
334.1947522615
 30
0.0
 10
234.5472882603
 20
333.8187354634
 30
0.0
 10
234.5947539971
 20
333.5866664873
 30
0.0
 10
234.6443059876
 20
333.3911054286
 30
0.0
 10
234.6955268773
 20
333.2332407508
 30
0.0
 10
234.7476923629
 20
333.1142318548
 30
0.0
 10
234.7891578292
 20
333.0508827893
 30
0.0
 10
234.8112823535
 20
333.0284195257
 30
0.0
  0
SPLINE
  5
43C
100
AcDbEntity
  8
0
100
AcDbSpline
 62
7
  6
CONTINUOUS
 70
0
 71
3
 72
20
 73
16
 74
0
 42
0.0000001
 43
0.0000001
 44
0.0000000001
 40
0.0
 40
0.0
 40
0.0
 40
0.0
 40
0.187744452
 40
0.3686610268
 40
0.5362209758
 40
0.6843882286
 40
0.7495285614
 40
0.8079325932
 40
0.8591183025
 40
0.9026927363
 40
0.9383911306
 40
0.9661357252
 40
0.9771054397
 40
0.9862602849
 40
1.0
 40
1.0
 40
1.0
 40
1.0
 10
222.8622274995
 20
338.0701343957
 30
0.0
 10
222.8622274995
 20
337.714146536
 30
0.0
 10
222.8702814097
 20
337.0150897102
 30
0.0
 10
222.9062348087
 20
335.9988747565
 30
0.0
 10
222.9645659388
 20
335.0588678526
 30
0.0
 10
223.0322151204
 20
334.3396704425
 30
0.0
 10
223.0977897929
 20
333.8286128592
 30
0.0
 10
223.1487710957
 20
333.5011960351
 30
0.0
 10
223.2031432568
 20
333.2158459612
 30
0.0
 10
223.2602552335
 20
332.9750335617
 30
0.0
 10
223.3196273788
 20
332.7808302979
 30
0.0
 10
223.3734317726
 20
332.6499850754
 30
0.0
 10
223.4194874935
 20
332.5713284476
 30
0.0
 10
223.4582396166
 20
332.5206013798
 30
0.0
 10
223.4945403309
 20
332.4918367865
 30
0.0
 10
223.5197074089
 20
332.4851033119
 30
0.0
  0
SPLINE
  5
43D
100
AcDbEntity
  8
0
100
AcDbSpline
 62
7
  6
CONTINUOUS
 70
0
 71
3
 72
18
 73
14
 74
0
 42
0.0000001
 43
0.0000001
 44
0.0000000001
 40
0.0
 40
0.0
 40
0.0
 40
0.0
 40
0.0185277253
 40
0.0438644206
 40
0.0763265374
 40
0.1158958643
 40
0.1623797128
 40
0.2154778485
 40
0.3399249708
 40
0.4854605439
 40
0.6475009262
 40
0.8208627198
 40
1.0
 40
1.0
 40
1.0
 40
1.0
 10
234.8112823554
 20
343.1118491337
 30
0.0
 10
234.7891578481
 20
343.0893859864
 30
0.0
 10
234.7476923868
 20
343.0260370644
 30
0.0
 10
234.695527007
 20
342.9070283037
 30
0.0
 10
234.6443062229
 20
342.7491638334
 30
0.0
 10
234.5947541304
 20
342.5536031137
 30
0.0
 10
234.5472886083
 20
342.3215347399
 30
0.0
 10
234.4840859525
 20
341.9455194896
 30
0.0
 10
234.4161145989
 20
341.3997129409
 30
0.0
 10
234.3521731392
 20
340.6672100737
 30
0.0
 10
234.3048133233
 20
339.8500515115
 30
0.0
 10
234.2756776907
 20
338.9748573307
 30
0.0
 10
234.2691648334
 20
338.3749772577
 30
0.0
 10
234.2691648334
 20
338.0701343957
 30
0.0
  0
SPLINE
  5
43E
100
AcDbEntity
  8
0
100
AcDbSpline
 62
7
  6
CONTINUOUS
 70
0
 71
3
 72
18
 73
14
 74
0
 42
0.0000001
 43
0.0000001
 44
0.0000000001
 40
0.0
 40
0.0
 40
0.0
 40
0.0
 40
0.0181861633
 40
0.0394276189
 40
0.0657107095
 40
0.0980675076
 40
0.1369898754
 40
0.1827105094
 40
0.294717834
 40
0.4338067762
 40
0.5988550951
 40
0.7882484298
 40
1.0
 40
1.0
 40
1.0
 40
1.0
 10
234.8869814066
 20
344.7376306851
 30
0.0
 10
234.9018098938
 20
344.7376306814
 30
0.0
 10
234.9341589127
 20
344.7298034682
 30
0.0
 10
234.9784422824
 20
344.6982667158
 30
0.0
 10
235.0212944727
 20
344.6487219079
 30
0.0
 10
235.0634513075
 20
344.5810124638
 30
0.0
 10
235.1051429513
 20
344.4950733808
 30
0.0
 10
235.1640138679
 20
344.3458099663
 30
0.0
 10
235.2330127673
 20
344.1134501218
 30
0.0
 10
235.308137037
 20
343.7824439089
 30
0.0
 10
235.3789195041
 20
343.3861829637
 30
0.0
 10
235.4444824852
 20
342.9291426369
 30
0.0
 10
235.4821538874
 20
342.6041972672
 30
0.0
 10
235.5002202884
 20
342.4324887965
 30
0.0
  0
SPLINE
  5
43F
100
AcDbEntity
  8
0
100
AcDbSpline
 62
7
  6
CONTINUOUS
 70
0
 71
3
 72
20
 73
16
 74
0
 42
0.0000001
 43
0.0000001
 44
0.0000000001
 40
0.0
 40
0.0
 40
0.0
 40
0.0
 40
0.0137397168
 40
0.0228945236
 40
0.0338642363
 40
0.06160878
 40
0.0973071651
 40
0.1408815185
 40
0.1920671167
 40
0.2504709429
 40
0.3156109074
 40
0.4637776023
 40
0.6313377177
 40
0.8122549193
 40
1.0
 40
1.0
 40
1.0
 40
1.0
 10
223.5197074085
 20
343.6551655839
 30
0.0
 10
223.4945403123
 20
343.6484321641
 30
0.0
 10
223.458239839
 20
343.6196673384
 30
0.0
 10
223.4194875012
 20
343.5689405668
 30
0.0
 10
223.3734320455
 20
343.4902839512
 30
0.0
 10
223.3196274503
 20
343.3594389815
 30
0.0
 10
223.2602555416
 20
343.165235894
 30
0.0
 10
223.2031434615
 20
342.924423925
 30
0.0
 10
223.1487714291
 20
342.6390745834
 30
0.0
 10
223.0977903077
 20
342.3116590475
 30
0.0
 10
223.0322156641
 20
341.8006036207
 30
0.0
 10
222.9645665478
 20
341.0814076461
 30
0.0
 10
222.9062351213
 20
340.1414003101
 30
0.0
 10
222.8702814584
 20
339.1251826601
 30
0.0
 10
222.8622274995
 20
338.4261234496
 30
0.0
 10
222.8622274995
 20
338.0701343957
 30
0.0
  0
SPLINE
  5
440
100
AcDbEntity
  8
0
100
AcDbSpline
 62
7
  6
CONTINUOUS
 70
0
 71
3
 72
20
 73
16
 74
0
 42
0.0000001
 43
0.0000001
 44
0.0000000001
 40
0.0
 40
0.0
 40
0.0
 40
0.0
 40
0.1877432689
 40
0.3686606166
 40
0.5362203656
 40
0.6843869623
 40
0.7495279531
 40
0.8079321746
 40
0.8591167235
 40
0.9026927037
 40
0.9383910576
 40
0.9661343785
 40
0.9771053284
 40
0.9862605745
 40
1.0
 40
1.0
 40
1.0
 40
1.0
 10
226.7647746072
 20
338.0701343957
 30
0.0
 10
226.7647746072
 20
337.6453783881
 30
0.0
 10
226.7743847339
 20
336.8112765609
 30
0.0
 10
226.8172823014
 20
335.5987474381
 30
0.0
 10
226.8868818609
 20
334.4771472493
 30
0.0
 10
226.9676020994
 20
333.619013796
 30
0.0
 10
227.0458420729
 20
333.009227812
 30
0.0
 10
227.1066705107
 20
332.6185600053
 30
0.0
 10
227.1715515831
 20
332.2780847707
 30
0.0
 10
227.239692287
 20
331.9907499534
 30
0.0
 10
227.3105310003
 20
331.7590278138
 30
0.0
 10
227.3747406749
 20
331.6029103005
 30
0.0
 10
227.4296856987
 20
331.5090547546
 30
0.0
 10
227.4759218915
 20
331.4485183527
 30
0.0
 10
227.5192423186
 20
331.4142153766
 30
0.0
 10
227.5492676561
 20
331.4061702203
 30
0.0
  0
SPLINE
  5
441
100
AcDbEntity
  8
0
100
AcDbSpline
 62
7
  6
CONTINUOUS
 70
0
 71
3
 72
16
 73
12
 74
0
 42
0.0000001
 43
0.0000001
 44
0.0000000001
 40
0.0
 40
0.0
 40
0.0
 40
0.0
 40
0.4218777918
 40
0.5826512096
 40
0.7098477879
 40
0.8050647912
 40
0.842270107
 40
0.8741626602
 40
0.9029975244
 40
0.9317719583
 40
1.0
 40
1.0
 40
1.0
 40
1.0
 10
235.2027581856
 20
342.4364460521
 30
0.0
 10
235.1775075037
 20
342.5599169543
 30
0.0
 10
235.138100161
 20
342.7298485308
 30
0.0
 10
235.0689564174
 20
342.9306213649
 30
0.0
 10
235.0210066217
 20
343.0346850769
 30
0.0
 10
234.9772669197
 20
343.0998180747
 30
0.0
 10
234.9403489735
 20
343.1326200176
 30
0.0
 10
234.9142900959
 20
343.14668005
 30
0.0
 10
234.8874941299
 20
343.1516747625
 30
0.0
 10
234.8497463498
 20
343.1451360856
 30
0.0
 10
234.8255844393
 20
343.1263701268
 30
0.0
 10
234.8112823554
 20
343.1118491337
 30
0.0
  0
SPLINE
  5
442
100
AcDbEntity
  8
0
100
AcDbSpline
 62
7
  6
CONTINUOUS
 70
0
 71
3
 72
22
 73
18
 74
0
 42
0.0000001
 43
0.0000001
 44
0.0000000001
 40
0.0
 40
0.0
 40
0.0
 40
0.0
 40
0.1908967274
 40
0.3745578457
 40
0.5440683945
 40
0.6215024491
 40
0.6930763024
 40
0.7581351324
 40
0.8160959441
 40
0.8664631985
 40
0.9088510973
 40
0.9430159272
 40
0.9689496623
 40
0.9789762361
 40
0.9872313155
 40
0.9940434623
 40
1.0
 40
1.0
 40
1.0
 40
1.0
 10
234.0760971543
 20
338.0701343957
 30
0.0
 10
234.0760971543
 20
338.5037661416
 30
0.0
 10
234.0860921561
 20
339.3546333341
 30
0.0
 10
234.1307724198
 20
340.5898219719
 30
0.0
 10
234.1926819929
 20
341.5661772126
 30
0.0
 10
234.2571888915
 20
342.2868635645
 30
0.0
 10
234.3100329553
 20
342.7702850912
 30
0.0
 10
234.3682385751
 20
343.2085105886
 30
0.0
 10
234.4311909302
 20
343.5973793821
 30
0.0
 10
234.4982110101
 20
343.9331911908
 30
0.0
 10
234.5684530003
 20
344.21303837
 30
0.0
 10
234.641179179
 20
344.4343147736
 30
0.0
 10
234.7074562668
 20
344.5801016078
 30
0.0
 10
234.7641283621
 20
344.6633672806
 30
0.0
 10
234.8035979833
 20
344.7049728519
 30
0.0
 10
234.8442584288
 20
344.7312507537
 30
0.0
 10
234.8734508245
 20
344.7376306885
 30
0.0
 10
234.8869814066
 20
344.7376306851
 30
0.0
  0
SPLINE
  5
443
100
AcDbEntity
  8
0
100
AcDbSpline
 62
7
  6
CONTINUOUS
 70
0
 71
3
 72
22
 73
18
 74
0
 42
0.0000001
 43
0.0000001
 44
0.0000000001
 40
0.0
 40
0.0
 40
0.0
 40
0.0
 40
0.0059565347
 40
0.0127686718
 40
0.0210237386
 40
0.0310502841
 40
0.0569839431
 40
0.0911486503
 40
0.1335364399
 40
0.1839035592
 40
0.2418641577
 40
0.3069227344
 40
0.3784963251
 40
0.4559301392
 40
0.6254408442
 40
0.8091025514
 40
1.0
 40
1.0
 40
1.0
 40
1.0
 10
234.8869814066
 20
331.4026381064
 30
0.0
 10
234.8734508313
 20
331.4026381098
 30
0.0
 10
234.844258466
 20
331.4090180168
 30
0.0
 10
234.8035980412
 20
331.4352958529
 30
0.0
 10
234.7641285201
 20
331.4769013603
 30
0.0
 10
234.7074564867
 20
331.5601667477
 30
0.0
 10
234.6411795966
 20
331.705953112
 30
0.0
 10
234.5684534337
 20
331.9272287762
 30
0.0
 10
234.4982115986
 20
332.2070751413
 30
0.0
 10
234.4311916112
 20
332.5428859049
 30
0.0
 10
234.3682392818
 20
332.931753319
 30
0.0
 10
234.3100337586
 20
333.3699771591
 30
0.0
 10
234.2571897933
 20
333.8533969674
 30
0.0
 10
234.1926826034
 20
334.5740825024
 30
0.0
 10
234.1307728833
 20
335.5504388858
 30
0.0
 10
234.0860922033
 20
336.7856308408
 30
0.0
 10
234.0760971543
 20
337.6365010114
 30
0.0
 10
234.0760971543
 20
338.0701343957
 30
0.0
  0
SPLINE
  5
444
100
AcDbEntity
  8
0
100
AcDbSpline
 62
7
  6
CONTINUOUS
 70
0
 71
3
 72
20
 73
16
 74
0
 42
0.0000001
 43
0.0000001
 44
0.0000000001
 40
0.0
 40
0.0
 40
0.0
 40
0.0
 40
0.0137394255
 40
0.0228946716
 40
0.0338656215
 40
0.0616089424
 40
0.0973072963
 40
0.1408832765
 40
0.1920678254
 40
0.2504720469
 40
0.3156130377
 40
0.4637796344
 40
0.6313393834
 40
0.8122567311
 40
1.0
 40
1.0
 40
1.0
 40
1.0
 10
227.5492676561
 20
344.7340985712
 30
0.0
 10
227.5192423186
 20
344.7260534149
 30
0.0
 10
227.4759218915
 20
344.6917504388
 30
0.0
 10
227.4296856987
 20
344.6312140369
 30
0.0
 10
227.3747406749
 20
344.537358491
 30
0.0
 10
227.3105310003
 20
344.3812409777
 30
0.0
 10
227.239692287
 20
344.1495188381
 30
0.0
 10
227.1715515831
 20
343.8621840208
 30
0.0
 10
227.1066705107
 20
343.5217087862
 30
0.0
 10
227.0458420729
 20
343.1310409795
 30
0.0
 10
226.9676020994
 20
342.5212549955
 30
0.0
 10
226.8868818609
 20
341.6631215422
 30
0.0
 10
226.8172823014
 20
340.5415213534
 30
0.0
 10
226.7743847339
 20
339.3289922305
 30
0.0
 10
226.7647746072
 20
338.4948904034
 30
0.0
 10
226.7647746072
 20
338.0701343957
 30
0.0
  0
SPLINE
  5
445
100
AcDbEntity
  8
0
100
AcDbSpline
 62
7
  6
CONTINUOUS
 70
0
 71
3
 72
16
 73
12
 74
0
 42
0.0000001
 43
0.0000001
 44
0.0000000001
 40
0.0
 40
0.0
 40
0.0
 40
0.0
 40
0.0682243754
 40
0.0969973827
 40
0.1258312108
 40
0.1577233579
 40
0.1949286212
 40
0.2901461299
 40
0.4173441969
 40
0.5781191407
 40
1.0
 40
1.0
 40
1.0
 40
1.0
 10
234.8112823535
 20
333.0284195257
 30
0.0
 10
234.8255849333
 20
333.0138979651
 30
0.0
 10
234.8497482381
 20
332.9951316199
 30
0.0
 10
234.8874978517
 20
332.9885939028
 30
0.0
 10
234.9142952122
 20
332.9935902382
 30
0.0
 10
234.9403550668
 20
333.007653169
 30
0.0
 10
234.9772746984
 20
333.0404598625
 30
0.0
 10
235.0210163395
 20
333.1056007555
 30
0.0
 10
235.0689678973
 20
333.2096762222
 30
0.0
 10
235.1381144128
 20
333.4104703397
 30
0.0
 10
235.1775230562
 20
333.5804192263
 30
0.0
 10
235.2027744685
 20
333.7039025747
 30
0.0
  0
SPLINE
  5
446
100
AcDbEntity
  8
0
100
AcDbSpline
 62
7
  6
CONTINUOUS
 70
0
 71
3
 72
11
 73
7
 74
0
 42
0.0000001
 43
0.0000001
 44
0.0000000001
 40
0.0
 40
0.0
 40
0.0
 40
0.0
 40
0.080491617
 40
0.3020551067
 40
0.6236874357
 40
1.0
 40
1.0
 40
1.0
 40
1.0
 10
142.3490495632
 20
336.7112343957
 30
0.0
 10
142.3267772181
 20
336.7674984738
 30
0.0
 10
142.2455218468
 20
336.979592859
 30
0.0
 10
142.0971626264
 20
337.4248187793
 30
0.0
 10
141.9401860523
 20
338.0996830303
 30
0.0
 10
141.8956328212
 20
338.6254038067
 30
0.0
 10
141.8956328212
 20
338.9083343957
 30
0.0
  0
SPLINE
  5
447
100
AcDbEntity
  8
0
100
AcDbSpline
 62
7
  6
CONTINUOUS
 70
0
 71
3
 72
11
 73
7
 74
0
 42
0.0000001
 43
0.0000001
 44
0.0000000001
 40
0.0
 40
0.0
 40
0.0
 40
0.0
 40
0.080491617
 40
0.3020551067
 40
0.6236874357
 40
1.0
 40
1.0
 40
1.0
 40
1.0
 10
131.2492495632
 20
341.1054343957
 30
0.0
 10
131.2715219083
 20
341.0491703177
 30
0.0
 10
131.3527772795
 20
340.8370759325
 30
0.0
 10
131.5011365
 20
340.3918500122
 30
0.0
 10
131.658113074
 20
339.7169857612
 30
0.0
 10
131.7026663051
 20
339.1912649848
 30
0.0
 10
131.7026663051
 20
338.9083343957
 30
0.0
  0
SPLINE
  5
448
100
AcDbEntity
  8
0
100
AcDbSpline
 62
7
  6
CONTINUOUS
 70
0
 71
3
 72
11
 73
7
 74
0
 42
0.0000001
 43
0.0000001
 44
0.0000000001
 40
0.0
 40
0.0
 40
0.0
 40
0.0
 40
0.3763076067
 40
0.6979392901
 40
0.9195057814
 40
1.0
 40
1.0
 40
1.0
 40
1.0
 10
131.7026663051
 20
338.9083343957
 30
0.0
 10
131.7026663051
 20
338.6254074633
 30
0.0
 10
131.6581138478
 20
338.0996910922
 30
0.0
 10
131.5011443848
 20
337.4248268245
 30
0.0
 10
131.3527808074
 20
336.9795981884
 30
0.0
 10
131.2715228288
 20
336.7675002169
 30
0.0
 10
131.2492495632
 20
336.7112343957
 30
0.0
  0
SPLINE
  5
449
100
AcDbEntity
  8
0
100
AcDbSpline
 62
7
  6
CONTINUOUS
 70
0
 71
3
 72
11
 73
7
 74
0
 42
0.0000001
 43
0.0000001
 44
0.0000000001
 40
0.0
 40
0.0
 40
0.0
 40
0.0
 40
0.3763076067
 40
0.6979392901
 40
0.9195057814
 40
1.0
 40
1.0
 40
1.0
 40
1.0
 10
141.8956328212
 20
338.9083343957
 30
0.0
 10
141.8956328212
 20
339.1912613282
 30
0.0
 10
141.9401852785
 20
339.7169776992
 30
0.0
 10
142.0971547415
 20
340.391841967
 30
0.0
 10
142.2455183189
 20
340.8370706031
 30
0.0
 10
142.3267762975
 20
341.0491685746
 30
0.0
 10
142.3490495632
 20
341.1054343957
 30
0.0
  0
SPLINE
  5
44A
100
AcDbEntity
  8
0
100
AcDbSpline
 62
7
  6
CONTINUOUS
 70
0
 71
3
 72
12
 73
8
 74
0
 42
0.0000001
 43
0.0000001
 44
0.0000000001
 40
0.0
 40
0.0
 40
0.0
 40
0.0
 40
0.2287034687
 40
0.3750308944
 40
0.5672607848
 40
0.7625832357
 40
1.0
 40
1.0
 40
1.0
 40
1.0
 10
235.4985018364
 20
240.8107198266
 30
0.0
 10
235.4399397387
 20
240.7512316473
 30
0.0
 10
235.3591568359
 20
240.6371727738
 30
0.0
 10
235.2843777851
 20
240.44320016
 30
0.0
 10
235.2465028204
 20
240.2513231934
 30
0.0
 10
235.2192146434
 20
240.024892535
 30
0.0
 10
235.2055315358
 20
239.8674886745
 30
0.0
 10
235.1988222582
 20
239.7810917211
 30
0.0
  0
SPLINE
  5
44B
100
AcDbEntity
  8
0
100
AcDbSpline
 62
7
  6
CONTINUOUS
 70
0
 71
3
 72
11
 73
7
 74
0
 42
0.0000001
 43
0.0000001
 44
0.0000000001
 40
0.0
 40
0.0
 40
0.0
 40
0.0
 40
0.2182109107
 40
0.468984957
 40
0.7323793841
 40
1.0
 40
1.0
 40
1.0
 40
1.0
 10
235.3787682719
 20
227.2060876162
 30
0.0
 10
235.4085488775
 20
227.1553579313
 30
0.0
 10
235.4845075641
 20
227.0528269345
 30
0.0
 10
235.6385602663
 20
226.9257651816
 30
0.0
 10
235.8332598704
 20
226.8385189868
 30
0.0
 10
235.9772340598
 20
226.8181343957
 30
0.0
 10
236.0493789105
 20
226.8181343957
 30
0.0
  0
SPLINE
  5
44C
100
AcDbEntity
  8
0
100
AcDbSpline
 62
7
  6
CONTINUOUS
 70
0
 71
3
 72
28
 73
24
 74
0
 42
0.0000001
 43
0.0000001
 44
0.0000000001
 40
0.0
 40
0.0
 40
0.0
 40
0.0
 40
0.0351141054
 40
0.0843125118
 40
0.1460820165
 40
0.2185025593
 40
0.3860004182
 40
0.4758509968
 40
0.5660617568
 40
0.6538163033
 40
0.7363753676
 40
0.8111628712
 40
0.8449028411
 40
0.8758474502
 40
0.9037584308
 40
0.9284159867
 40
0.9496328982
 40
0.9672450948
 40
0.9811243365
 40
0.9911762185
 40
0.9973687887
 40
0.9990644058
 40
1.0
 40
1.0
 40
1.0
 40
1.0
 10
221.1183254918
 20
229.8165511577
 30
0.0
 10
221.129070212
 20
229.9148075019
 30
0.0
 10
221.1468038425
 20
230.1515644577
 30
0.0
 10
221.1680456975
 20
230.5622103928
 30
0.0
 10
221.1866545315
 20
231.0781180162
 30
0.0
 10
221.2082844997
 20
231.9270636377
 30
0.0
 10
221.2201477646
 20
232.8552910804
 30
0.0
 10
221.2239476194
 20
233.8336237238
 30
0.0
 10
221.2222264231
 20
234.5874977495
 30
0.0
 10
221.2159897803
 20
235.3208217528
 30
0.0
 10
221.2054287956
 20
236.0106773967
 30
0.0
 10
221.1929644529
 20
236.54842725
 30
0.0
 10
221.1808043765
 20
236.9408385685
 30
0.0
 10
221.1711725088
 20
237.2013073135
 30
0.0
 10
221.16080297
 20
237.4361629605
 30
0.0
 10
221.149788617
 20
237.6435644282
 30
0.0
 10
221.138223834
 20
237.8219241008
 30
0.0
 10
221.126287784
 20
237.9697589555
 30
0.0
 10
221.1140115157
 20
238.0862298957
 30
0.0
 10
221.1020499791
 20
238.1698334221
 30
0.0
 10
221.0907037701
 20
238.2198258629
 30
0.0
 10
221.0814426836
 20
238.2423315766
 30
0.0
 10
221.0751415573
 20
238.2481204091
 30
0.0
 10
221.072507976
 20
238.2481263614
 30
0.0
  0
SPLINE
  5
44D
100
AcDbEntity
  8
0
100
AcDbSpline
 62
7
  6
CONTINUOUS
 70
0
 71
3
 72
9
 73
5
 74
0
 42
0.0000001
 43
0.0000001
 44
0.0000000001
 40
0.0
 40
0.0
 40
0.0
 40
0.0
 40
0.5104261386
 40
1.0
 40
1.0
 40
1.0
 40
1.0
 10
236.0493789105
 20
241.0421343957
 30
0.0
 10
235.9456817798
 20
241.0421343957
 30
0.0
 10
235.7402820029
 20
241.0000946538
 30
0.0
 10
235.5682773922
 20
240.88159879
 30
0.0
 10
235.4985018364
 20
240.8107198266
 30
0.0
  0
SPLINE
  5
44E
100
AcDbEntity
  8
0
100
AcDbSpline
 62
7
  6
CONTINUOUS
 70
0
 71
3
 72
12
 73
8
 74
0
 42
0.0000001
 43
0.0000001
 44
0.0000000001
 40
0.0
 40
0.0
 40
0.0
 40
0.0
 40
0.0436904854
 40
0.1094220982
 40
0.3111672381
 40
0.6082557313
 40
1.0
 40
1.0
 40
1.0
 40
1.0
 10
243.4196854371
 20
226.822599371
 30
0.0
 10
243.4235154703
 20
226.826489971
 30
0.0
 10
243.4303481222
 20
226.8386750247
 30
0.0
 10
243.443613713
 20
226.8751390017
 30
0.0
 10
243.458367037
 20
226.944471523
 30
0.0
 10
243.4751831406
 20
227.0543713805
 30
0.0
 10
243.4849033652
 20
227.1399558493
 30
0.0
 10
243.4899595463
 20
227.1886456441
 30
0.0
  0
SPLINE
  5
44F
100
AcDbEntity
  8
0
100
AcDbSpline
 62
7
  6
CONTINUOUS
 70
0
 71
3
 72
10
 73
6
 74
0
 42
0.0000001
 43
0.0000001
 44
0.0000000001
 40
0.0
 40
0.0
 40
0.0
 40
0.0
 40
0.5146295772
 40
0.7706915825
 40
1.0
 40
1.0
 40
1.0
 40
1.0
 10
243.6346159867
 20
230.8502769014
 30
0.0
 10
243.6559229172
 20
232.1211250397
 30
0.0
 10
243.6658067136
 20
234.0247200467
 30
0.0
 10
243.6456079108
 20
236.4944389156
 30
0.0
 10
243.6229760441
 20
237.6930308531
 30
0.0
 10
243.6078183776
 20
238.2591715045
 30
0.0
  0
SPLINE
  5
450
100
AcDbEntity
  8
0
100
AcDbSpline
 62
7
  6
CONTINUOUS
 70
0
 71
3
 72
19
 73
15
 74
0
 42
0.0000001
 43
0.0000001
 44
0.0000000001
 40
0.0
 40
0.0
 40
0.0
 40
0.0
 40
0.2203260453
 40
0.4175264298
 40
0.5890363474
 40
0.732634248
 40
0.8464873943
 40
0.8918070952
 40
0.9292003059
 40
0.958583622
 40
0.9799407337
 40
0.9876434106
 40
0.9934290769
 40
1.0
 40
1.0
 40
1.0
 40
1.0
 10
243.6076357013
 20
238.2659859642
 30
0.0
 10
243.602131568
 20
238.4710528444
 30
0.0
 10
243.5905413318
 20
238.8596333088
 30
0.0
 10
243.5700268771
 20
239.4076943733
 30
0.0
 10
243.5476106402
 20
239.8841764217
 30
0.0
 10
243.5235925068
 20
240.2828642858
 30
0.0
 10
243.5014249194
 20
240.5639199376
 30
0.0
 10
243.4822218322
 20
240.7459600749
 30
0.0
 10
243.468871769
 20
240.8494422106
 30
0.0
 10
243.4553121308
 20
240.9305220441
 30
0.0
 10
243.4435808316
 20
240.98343243
 30
0.0
 10
243.4330083494
 20
241.0146230656
 30
0.0
 10
243.4257221487
 20
241.0308329869
 30
0.0
 10
243.4170097758
 20
241.0421140332
 30
0.0
 10
243.4108917423
 20
241.0421241996
 30
0.0
  0
SPLINE
  5
451
100
AcDbEntity
  8
0
100
AcDbSpline
 62
7
  6
CONTINUOUS
 70
0
 71
3
 72
9
 73
5
 74
0
 42
0.0000001
 43
0.0000001
 44
0.0000000001
 40
0.0
 40
0.0
 40
0.0
 40
0.0
 40
0.5633119161
 40
1.0
 40
1.0
 40
1.0
 40
1.0
 10
227.3334705074
 20
239.5415171437
 30
0.0
 10
227.2894122122
 20
239.4967621251
 30
0.0
 10
227.2205613877
 20
239.4074131572
 30
0.0
 10
227.1721594417
 20
239.3063579733
 30
0.0
 10
227.1547762362
 20
239.260881678
 30
0.0
  0
SPLINE
  5
452
100
AcDbEntity
  8
0
100
AcDbSpline
 62
7
  6
CONTINUOUS
 70
0
 71
3
 72
16
 73
12
 74
0
 42
0.0000001
 43
0.0000001
 44
0.0000000001
 40
0.0
 40
0.0
 40
0.0
 40
0.0
 40
0.21544772
 40
0.4065934489
 40
0.5724419985
 40
0.712149364
 40
0.8250152846
 40
0.9105754712
 40
0.9686177791
 40
0.9874929296
 40
1.0
 40
1.0
 40
1.0
 40
1.0
 10
220.964475857
 20
238.2740088486
 30
0.0
 10
220.9679718061
 20
238.3453896792
 30
0.0
 10
220.9750422796
 20
238.4800780714
 30
0.0
 10
220.9867494403
 20
238.669603355
 30
0.0
 10
220.9988538066
 20
238.8339307783
 30
0.0
 10
221.0112908406
 20
238.9721582283
 30
0.0
 10
221.0238536505
 20
239.0836758021
 30
0.0
 10
221.0365903539
 20
239.1677098058
 30
0.0
 10
221.0477660748
 20
239.2206988864
 30
0.0
 10
221.0578231236
 20
239.2485357874
 30
0.0
 10
221.0630022113
 20
239.2578291443
 30
0.0
 10
221.0659127057
 20
239.2607856643
 30
0.0
  0
SPLINE
  5
453
100
AcDbEntity
  8
0
100
AcDbSpline
 62
7
  6
CONTINUOUS
 70
0
 71
3
 72
26
 73
22
 74
0
 42
0.0000001
 43
0.0000001
 44
0.0000000001
 40
0.0
 40
0.0
 40
0.0
 40
0.0
 40
0.0008588453
 40
0.0023050025
 40
0.0074589208
 40
0.0157798896
 40
0.0272680667
 40
0.0418753786
 40
0.0595231499
 40
0.0801152332
 40
0.1035328317
 40
0.1582946101
 40
0.2225442477
 40
0.2947926203
 40
0.3733628765
 40
0.4564301546
 40
0.5420645732
 40
0.6282763488
 40
0.713062244
 40
0.8705553278
 40
1.0
 40
1.0
 40
1.0
 40
1.0
 10
221.0725079769
 20
239.2641258524
 30
0.0
 10
221.0752082664
 20
239.2641207325
 30
0.0
 10
221.0817460976
 20
239.259185929
 30
0.0
 10
221.0919687631
 20
239.2382719309
 30
0.0
 10
221.1039124734
 20
239.1923431802
 30
0.0
 10
221.11689839
 20
239.1151426615
 30
0.0
 10
221.130109058
 20
239.0076175039
 30
0.0
 10
221.1431340655
 20
238.8707321655
 30
0.0
 10
221.1558737621
 20
238.7050439784
 30
0.0
 10
221.1681888227
 20
238.5115790332
 30
0.0
 10
221.1848057485
 20
238.2014708208
 30
0.0
 10
221.2032845409
 20
237.7540274536
 30
0.0
 10
221.2217296635
 20
237.1529633813
 30
0.0
 10
221.2368786266
 20
236.476930706
 30
0.0
 10
221.2483544152
 20
235.7416551654
 30
0.0
 10
221.2558566383
 20
234.9642397697
 30
0.0
 10
221.2591984437
 20
234.1627698361
 30
0.0
 10
221.2582985995
 20
233.3558900572
 30
0.0
 10
221.251623727
 20
232.3230989174
 30
0.0
 10
221.2345141662
 20
231.1544710093
 30
0.0
 10
221.2091368897
 20
230.252600382
 30
0.0
 10
221.1922444827
 20
229.8459643004
 30
0.0
  0
SPLINE
  5
454
100
AcDbEntity
  8
0
100
AcDbSpline
 62
7
  6
CONTINUOUS
 70
0
 71
3
 72
26
 73
22
 74
0
 42
0.0000001
 43
0.0000001
 44
0.0000000001
 40
0.0
 40
0.0
 40
0.0
 40
0.0
 40
0.1294505615
 40
0.2869475279
 40
0.3717344472
 40
0.4579465409
 40
0.5435805507
 40
0.6266467158
 40
0.7052152597
 40
0.7774615558
 40
0.8417090257
 40
0.8964690204
 40
0.9198861698
 40
0.9404781037
 40
0.9581256024
 40
0.9727325345
 40
0.9842203954
 40
0.9925411972
 40
0.9976950095
 40
0.9991411526
 40
1.0
 40
1.0
 40
1.0
 40
1.0
 10
227.2845390961
 20
229.846157877
 30
0.0
 10
227.3014300294
 20
230.2528041829
 30
0.0
 10
227.3268051793
 20
231.1546870477
 30
0.0
 10
227.3439127638
 20
232.323324918
 30
0.0
 10
227.3505860147
 20
233.3561112747
 30
0.0
 10
227.3514847123
 20
234.1629774114
 30
0.0
 10
227.3481419305
 20
234.9644270891
 30
0.0
 10
227.3406389634
 20
235.7418163347
 30
0.0
 10
227.3291627109
 20
236.477061344
 30
0.0
 10
227.3140136309
 20
237.153061388
 30
0.0
 10
227.2955686407
 20
237.7540941416
 30
0.0
 10
227.2770903234
 20
238.2015144734
 30
0.0
 10
227.2604735521
 20
238.5116088036
 30
0.0
 10
227.2481586774
 20
238.7050670252
 30
0.0
 10
227.2354191493
 20
238.8707492724
 30
0.0
 10
227.2223943872
 20
239.0076287406
 30
0.0
 10
227.2091839397
 20
239.1151489433
 30
0.0
 10
227.1961983983
 20
239.1923460234
 30
0.0
 10
227.1842548455
 20
239.2382728727
 30
0.0
 10
227.1740323139
 20
239.2591860059
 30
0.0
 10
227.1674946713
 20
239.2641206483
 30
0.0
 10
227.164794431
 20
239.264125802
 30
0.0
  0
SPLINE
  5
455
100
AcDbEntity
  8
0
100
AcDbSpline
 62
7
  6
CONTINUOUS
 70
0
 71
3
 72
28
 73
24
 74
0
 42
0.0000001
 43
0.0000001
 44
0.0000000001
 40
0.0
 40
0.0
 40
0.0
 40
0.0
 40
0.0008791393
 40
0.0017134243
 40
0.0030116655
 40
0.0049448557
 40
0.0075616314
 40
0.0108789291
 40
0.0149013437
 40
0.019629057
 40
0.0311916154
 40
0.0455334418
 40
0.0625958473
 40
0.0823121892
 40
0.1045968411
 40
0.1293562828
 40
0.1564842254
 40
0.185861624
 40
0.3231983929
 40
0.4848368014
 40
0.659592868
 40
0.8353699896
 40
1.0
 40
1.0
 40
1.0
 40
1.0
 10
235.2799915871
 20
240.276147813
 30
0.0
 10
235.2819350491
 20
240.2781220083
 30
0.0
 10
235.2871105159
 20
240.2816953351
 30
0.0
 10
235.2965631475
 20
240.2767407946
 30
0.0
 10
235.3031534528
 20
240.2656540787
 30
0.0
 10
235.3103321828
 20
240.2486450427
 30
0.0
 10
235.3172994333
 20
240.2248129978
 30
0.0
 10
235.3244149003
 20
240.1942524807
 30
0.0
 10
235.3314929788
 20
240.1568803388
 30
0.0
 10
235.3416135242
 20
240.0936727778
 30
0.0
 10
235.3536943692
 20
239.9978828071
 30
0.0
 10
235.3672649525
 20
239.863164368
 30
0.0
 10
235.3805626258
 20
239.7026190109
 30
0.0
 10
235.3935121627
 20
239.5169497575
 30
0.0
 10
235.406040067
 20
239.3069489909
 30
0.0
 10
235.4180785508
 20
239.0735310737
 30
0.0
 10
235.429574231
 20
238.8177112695
 30
0.0
 10
235.4535314419
 20
238.2073557015
 30
0.0
 10
235.4811446778
 20
237.1729908142
 30
0.0
 10
235.5034480448
 20
235.680346538
 30
0.0
 10
235.5118754447
 20
234.0664203731
 30
0.0
 10
235.5058214491
 20
232.4430634741
 30
0.0
 10
235.4917057623
 20
231.3704628546
 30
0.0
 10
235.4816725277
 20
230.8517883746
 30
0.0
  0
SPLINE
  5
456
100
AcDbEntity
  8
0
100
AcDbSpline
 62
7
  6
CONTINUOUS
 70
0
 71
3
 72
13
 73
9
 74
0
 42
0.0000001
 43
0.0000001
 44
0.0000000001
 40
0.0
 40
0.0
 40
0.0
 40
0.0
 40
0.39792412
 40
0.6977120813
 40
0.8102480449
 40
0.8977952215
 40
0.9606577837
 40
1.0
 40
1.0
 40
1.0
 40
1.0
 10
235.2036203196
 20
239.8036630659
 30
0.0
 10
235.2090192735
 20
239.8672331091
 30
0.0
 10
235.2195151004
 20
239.9785931522
 30
0.0
 10
235.2356174642
 20
240.1075946419
 30
0.0
 10
235.2495270236
 20
240.1864886851
 30
0.0
 10
235.2588878752
 20
240.2277231249
 30
0.0
 10
235.2681135293
 20
240.2565392266
 30
0.0
 10
235.2755664883
 20
240.2716527372
 30
0.0
 10
235.2799915871
 20
240.276147813
 30
0.0
  0
SPLINE
  5
457
100
AcDbEntity
  8
0
100
AcDbSpline
 62
7
  6
CONTINUOUS
 70
0
 71
3
 72
25
 73
21
 74
0
 42
0.0000001
 43
0.0000001
 44
0.0000000001
 40
0.0
 40
0.0
 40
0.0
 40
0.0
 40
0.1582666697
 40
0.3294887825
 40
0.4162295603
 40
0.5016942821
 40
0.5843825779
 40
0.6628429021
 40
0.7356982159
 40
0.8016709506
 40
0.8596059362
 40
0.9084906224
 40
0.9292675653
 40
0.947477162
 40
0.9630434546
 40
0.9759038575
 40
0.9860086756
 40
0.9933365762
 40
0.9979082501
 40
1.0
 40
1.0
 40
1.0
 40
1.0
 10
235.4614177604
 20
230.8654025473
 30
0.0
 10
235.4715358153
 20
231.3359284791
 30
0.0
 10
235.4861538595
 20
232.3156379849
 30
0.0
 10
235.4926565252
 20
233.5533721269
 30
0.0
 10
235.4910778202
 20
234.574618484
 30
0.0
 10
235.4863726865
 20
235.33257986
 30
0.0
 10
235.4782472273
 20
236.0658874906
 30
0.0
 10
235.4668515455
 20
236.7616511943
 30
0.0
 10
235.4523998595
 20
237.4076400023
 30
0.0
 10
235.4351785977
 20
237.9925046944
 30
0.0
 10
235.4155168305
 20
238.5059616651
 30
0.0
 10
235.3966022538
 20
238.8849452847
 30
0.0
 10
235.3800264082
 20
239.1457107407
 30
0.0
 10
235.3678831226
 20
239.3075151301
 30
0.0
 10
235.3555330448
 20
239.4455554511
 30
0.0
 10
235.3427529453
 20
239.5597080501
 30
0.0
 10
235.3305290289
 20
239.6482483431
 30
0.0
 10
235.3169657595
 20
239.714066014
 30
0.0
 10
235.3069635216
 20
239.7511155225
 30
0.0
 10
235.2940632859
 20
239.7721127673
 30
0.0
 10
235.2878430992
 20
239.7721248451
 30
0.0
  0
SPLINE
  5
458
100
AcDbEntity
  8
0
100
AcDbSpline
 62
7
  6
CONTINUOUS
 70
0
 71
3
 72
15
 73
11
 74
0
 42
0.0000001
 43
0.0000001
 44
0.0000000001
 40
0.0
 40
0.0
 40
0.0
 40
0.0
 40
0.0250219664
 40
0.0467546158
 40
0.0756052095
 40
0.1554655762
 40
0.2652628692
 40
0.4049694425
 40
0.574322396
 40
1.0
 40
1.0
 40
1.0
 40
1.0
 10
236.0493789105
 20
241.0421243309
 30
0.0
 10
236.0552174523
 20
241.0421147817
 30
0.0
 10
236.0636711552
 20
241.0316918814
 30
0.0
 10
236.0707617098
 20
241.0164139854
 30
0.0
 10
236.0809824013
 20
240.9872834213
 30
0.0
 10
236.0923459877
 20
240.9377644646
 30
0.0
 10
236.1054753926
 20
240.8619119456
 30
0.0
 10
236.1184172114
 20
240.765061474
 30
0.0
 10
236.1370580102
 20
240.5946083405
 30
0.0
 10
236.1483633971
 20
240.4562092667
 30
0.0
 10
236.1556589724
 20
240.3571512417
 30
0.0
  0
SPLINE
  5
459
100
AcDbEntity
  8
0
100
AcDbSpline
 62
7
  6
CONTINUOUS
 70
0
 71
3
 72
12
 73
8
 74
0
 42
0.0000001
 43
0.0000001
 44
0.0000000001
 40
0.0
 40
0.0
 40
0.0
 40
0.0
 40
0.0755035628
 40
0.1720174933
 40
0.4160924514
 40
0.7034128334
 40
1.0
 40
1.0
 40
1.0
 40
1.0
 10
236.1556589724
 20
240.3571512417
 30
0.0
 10
236.1708625849
 20
240.1507192908
 30
0.0
 10
236.1974053322
 20
239.6798294898
 30
0.0
 10
236.2428434269
 20
238.5400116632
 30
0.0
 10
236.2809866593
 20
236.8189162271
 30
0.0
 10
236.3013216457
 20
234.5490841073
 30
0.0
 10
236.2969500426
 20
232.9482710168
 30
0.0
 10
236.2895490491
 20
232.1352186606
 30
0.0
  0
SPLINE
  5
45A
100
AcDbEntity
  8
0
100
AcDbSpline
 62
7
  6
CONTINUOUS
 70
0
 71
3
 72
12
 73
8
 74
0
 42
0.0000001
 43
0.0000001
 44
0.0000000001
 40
0.0
 40
0.0
 40
0.0
 40
0.0
 40
0.3861557116
 40
0.6814530527
 40
0.8852462546
 40
0.953341554
 40
1.0
 40
1.0
 40
1.0
 40
1.0
 10
236.1275950055
 20
227.1804924491
 30
0.0
 10
236.1226921052
 20
227.1338449064
 30
0.0
 10
236.1132421352
 20
227.0515681352
 30
0.0
 10
236.096972553
 20
226.9453469725
 30
0.0
 10
236.0826579113
 20
226.8776956584
 30
0.0
 10
236.0698979742
 20
226.8412058288
 30
0.0
 10
236.0633600018
 20
226.8286603931
 30
0.0
 10
236.0597233172
 20
226.8243137033
 30
0.0
  0
LINE
  5
45B
100
AcDbEntity
  8
0
100
AcDbLine
 62
7
  6
CONTINUOUS
 10
236.0597233172
 20
226.8243137033
 11
236.0581726053
 21
226.822599371
  0
SPLINE
  5
45C
100
AcDbEntity
  8
0
100
AcDbSpline
 62
7
  6
CONTINUOUS
 70
0
 71
3
 72
26
 73
22
 74
0
 42
0.0000001
 43
0.0000001
 44
0.0000000001
 40
0.0
 40
0.0
 40
0.0
 40
0.0
 40
0.0008494872
 40
0.0022531709
 40
0.0072199444
 40
0.0152249513
 40
0.0262741844
 40
0.0403285502
 40
0.0573177514
 40
0.0771581029
 40
0.0997422096
 40
0.1526532904
 40
0.2149205987
 40
0.2852073698
 40
0.3620020041
 40
0.443651575
 40
0.528397923
 40
0.6144158311
 40
0.6998525615
 40
0.8616736136
 40
1.0
 40
1.0
 40
1.0
 40
1.0
 10
227.8827783545
 20
239.7721249835
 30
0.0
 10
227.8856014519
 20
239.7721195953
 30
0.0
 10
227.8924397838
 20
239.7672081019
 30
0.0
 10
227.9033099958
 20
239.7459417176
 30
0.0
 10
227.9158725127
 20
239.6993029927
 30
0.0
 10
227.9296218975
 20
239.6208541279
 30
0.0
 10
227.9435815392
 20
239.5115907926
 30
0.0
 10
227.9573842595
 20
239.3724131557
 30
0.0
 10
227.9709121301
 20
239.2038319624
 30
0.0
 10
227.9840279168
 20
239.006818563
 30
0.0
 10
228.00180299
 20
238.6904826284
 30
0.0
 10
228.0217192296
 20
238.2330744694
 30
0.0
 10
228.0418572883
 20
237.6170389891
 30
0.0
 10
228.058742569
 20
236.9215079408
 30
0.0
 10
228.0719857153
 20
236.1614762491
 30
0.0
 10
228.0812650564
 20
235.3533295219
 30
0.0
 10
228.086366493
 20
234.5144938234
 30
0.0
 10
228.0871749534
 20
233.6630571798
 30
0.0
 10
228.082572277
 20
232.5554862848
 30
0.0
 10
228.0674040752
 20
231.2741432101
 30
0.0
 10
228.0434734352
 20
230.2768986689
 30
0.0
 10
228.0275794531
 20
229.8174731433
 30
0.0
  0
SPLINE
  5
45D
100
AcDbEntity
  8
0
100
AcDbSpline
 62
7
  6
CONTINUOUS
 70
0
 71
3
 72
11
 73
7
 74
0
 42
0.0000001
 43
0.0000001
 44
0.0000000001
 40
0.0
 40
0.0
 40
0.0
 40
0.0
 40
0.3023521523
 40
0.5731510781
 40
0.8071556126
 40
1.0
 40
1.0
 40
1.0
 40
1.0
 10
339.5059103283
 20
332.1646343979
 30
0.0
 10
339.5386627419
 20
331.6981811784
 30
0.0
 10
339.6103766382
 20
330.8145843104
 30
0.0
 10
339.7452683583
 20
329.5733726145
 30
0.0
 10
339.8992308474
 20
328.5052663233
 30
0.0
 10
340.0243978011
 20
327.8565679838
 30
0.0
 10
340.0930470717
 20
327.5663334969
 30
0.0
  0
SPLINE
  5
45E
100
AcDbEntity
  8
0
100
AcDbSpline
 62
7
  6
CONTINUOUS
 70
0
 71
3
 72
11
 73
7
 74
0
 42
0.0000001
 43
0.0000001
 44
0.0000000001
 40
0.0
 40
0.0
 40
0.0
 40
0.0
 40
0.1928443874
 40
0.4268489219
 40
0.6976478477
 40
1.0
 40
1.0
 40
1.0
 40
1.0
 10
340.0930470717
 20
348.5739352946
 30
0.0
 10
340.0243978011
 20
348.2837008077
 30
0.0
 10
339.8992308474
 20
347.6350024682
 30
0.0
 10
339.7452683583
 20
346.566896177
 30
0.0
 10
339.6103766382
 20
345.3256844811
 30
0.0
 10
339.5386627419
 20
344.4420876131
 30
0.0
 10
339.5059103283
 20
343.9756343936
 30
0.0
  0
SPLINE
  5
45F
100
AcDbEntity
  8
0
100
AcDbSpline
 62
7
  6
CONTINUOUS
 70
0
 71
3
 72
11
 73
7
 74
0
 42
0.0000001
 43
0.0000001
 44
0.0000000001
 40
0.0
 40
0.0
 40
0.0
 40
0.0
 40
0.2413231836
 40
0.5
 40
0.7586768164
 40
1.0
 40
1.0
 40
1.0
 40
1.0
 10
339.5059103283
 20
343.9756343936
 30
0.0
 10
339.4393177141
 20
343.0272359132
 30
0.0
 10
339.3440234983
 20
341.059164957
 30
0.0
 10
339.2976578021
 20
338.0701343957
 30
0.0
 10
339.3440234984
 20
335.0811038345
 30
0.0
 10
339.4393177141
 20
333.1130328783
 30
0.0
 10
339.5059103283
 20
332.1646343979
 30
0.0
  0
SPLINE
  5
460
100
AcDbEntity
  8
0
100
AcDbSpline
 62
7
  6
CONTINUOUS
 70
0
 71
3
 72
9
 73
5
 74
0
 42
0.0000001
 43
0.0000001
 44
0.0000000001
 40
0.0
 40
0.0
 40
0.0
 40
0.0
 40
0.4982995334
 40
1.0
 40
1.0
 40
1.0
 40
1.0
 10
339.5059103285
 20
332.1646343942
 30
0.0
 10
339.5754605107
 20
331.1741148317
 30
0.0
 10
339.8054527684
 20
329.1918701423
 30
0.0
 10
340.1882141276
 20
327.2347426716
 30
0.0
 10
340.4065241018
 20
326.2591343957
 30
0.0
  0
SPLINE
  5
461
100
AcDbEntity
  8
0
100
AcDbSpline
 62
7
  6
CONTINUOUS
 70
0
 71
3
 72
9
 73
5
 74
0
 42
0.0000001
 43
0.0000001
 44
0.0000000001
 40
0.0
 40
0.0
 40
0.0
 40
0.0
 40
0.5009555901
 40
1.0
 40
1.0
 40
1.0
 40
1.0
 10
339.5059103283
 20
343.9756343931
 30
0.0
 10
339.4367812463
 20
342.991112053
 30
0.0
 10
339.3876316482
 20
341.0187133408
 30
0.0
 10
339.495552915
 20
339.0499190729
 30
0.0
 10
339.5772045886
 20
338.0701343957
 30
0.0
  0
SPLINE
  5
462
100
AcDbEntity
  8
0
100
AcDbSpline
 62
7
  6
CONTINUOUS
 70
0
 71
3
 72
9
 73
5
 74
0
 42
0.0000001
 43
0.0000001
 44
0.0000000001
 40
0.0
 40
0.0
 40
0.0
 40
0.0
 40
0.4990444117
 40
1.0
 40
1.0
 40
1.0
 40
1.0
 10
339.5772045886
 20
338.0701343957
 30
0.0
 10
339.4955529147
 20
337.0903497148
 30
0.0
 10
339.3876317136
 20
335.1215554443
 30
0.0
 10
339.4367812467
 20
333.1491567311
 30
0.0
 10
339.5059103285
 20
332.1646343942
 30
0.0
  0
SPLINE
  5
463
100
AcDbEntity
  8
0
100
AcDbSpline
 62
7
  6
CONTINUOUS
 70
0
 71
3
 72
9
 73
5
 74
0
 42
0.0000001
 43
0.0000001
 44
0.0000000001
 40
0.0
 40
0.0
 40
0.0
 40
0.0
 40
0.5017004677
 40
1.0
 40
1.0
 40
1.0
 40
1.0
 10
340.4065241018
 20
349.8811343957
 30
0.0
 10
340.188214127
 20
348.9055261176
 30
0.0
 10
339.8054528317
 20
346.9483986353
 30
0.0
 10
339.5754605102
 20
344.9661539538
 30
0.0
 10
339.5059103283
 20
343.9756343931
 30
0.0
  0
SPLINE
  5
464
100
AcDbEntity
  8
0
100
AcDbSpline
 62
7
  6
CONTINUOUS
 70
0
 71
3
 72
9
 73
5
 74
0
 42
0.0000001
 43
0.0000001
 44
0.0000000001
 40
0.0
 40
0.0
 40
0.0
 40
0.0
 40
0.2506121652
 40
1.0
 40
1.0
 40
1.0
 40
1.0
 10
348.0595929522
 20
338.0701343957
 30
0.0
 10
348.1149723407
 20
338.3176200631
 30
0.0
 10
348.32914832
 20
339.3066322292
 30
0.0
 10
348.5132063893
 20
340.3023403243
 30
0.0
 10
348.6290857603
 20
341.0517747234
 30
0.0
  0
SPLINE
  5
465
100
AcDbEntity
  8
0
100
AcDbSpline
 62
7
  6
CONTINUOUS
 70
0
 71
3
 72
9
 73
5
 74
0
 42
0.0000001
 43
0.0000001
 44
0.0000000001
 40
0.0
 40
0.0
 40
0.0
 40
0.0
 40
0.2494024829
 40
1.0
 40
1.0
 40
1.0
 40
1.0
 10
348.6290604498
 20
335.0886574969
 30
0.0
 10
348.5904954163
 20
335.3380647152
 30
0.0
 10
348.4261193611
 20
336.3365743281
 30
0.0
 10
348.2254502847
 20
337.3289324114
 30
0.0
 10
348.0595929522
 20
338.0701343957
 30
0.0
  0
SPLINE
  5
466
100
AcDbEntity
  8
0
100
AcDbSpline
 62
7
  6
CONTINUOUS
 70
0
 71
3
 72
9
 73
5
 74
0
 42
0.0000001
 43
0.0000001
 44
0.0000000001
 40
0.0
 40
0.0
 40
0.0
 40
0.0
 40
0.7498120507
 40
1.0
 40
1.0
 40
1.0
 40
1.0
 10
348.8889124654
 20
326.2591343957
 30
0.0
 10
348.9338414168
 20
326.7982623299
 30
0.0
 10
348.9825104536
 20
327.5183303549
 30
0.0
 10
349.0128594823
 20
328.2392155467
 30
0.0
 10
349.0192403705
 20
328.4196158108
 30
0.0
  0
SPLINE
  5
467
100
AcDbEntity
  8
0
100
AcDbSpline
 62
7
  6
CONTINUOUS
 70
0
 71
3
 72
9
 73
5
 74
0
 42
0.0000001
 43
0.0000001
 44
0.0000000001
 40
0.0
 40
0.0
 40
0.0
 40
0.0
 40
0.2502457488
 40
1.0
 40
1.0
 40
1.0
 40
1.0
 10
349.032679788
 20
347.2674338634
 30
0.0
 10
349.0274712597
 20
347.4857427061
 30
0.0
 10
348.9992565327
 20
348.3579407805
 30
0.0
 10
348.9432473454
 20
349.2291393975
 30
0.0
 10
348.8889124654
 20
349.8811343957
 30
0.0
  0
SPLINE
  5
468
100
AcDbEntity
  8
0
100
AcDbSpline
 62
7
  6
CONTINUOUS
 70
0
 71
3
 72
21
 73
17
 74
0
 42
0.0000001
 43
0.0000001
 44
0.0000000001
 40
0.0
 40
0.0
 40
0.0
 40
0.0
 40
0.1702977014
 40
0.3338192955
 40
0.4842269569
 40
0.6160237647
 40
0.6736441813
 40
0.7253765643
 40
0.7713198575
 40
0.8121719878
 40
0.8499021598
 40
0.889294945
 40
0.9122886736
 40
0.9387643277
 40
0.9684625246
 40
1.0
 40
1.0
 40
1.0
 40
1.0
 10
319.8280084033
 20
338.0701343958
 30
0.0
 10
319.8280084033
 20
338.5063820316
 30
0.0
 10
319.8384712373
 20
339.3615570274
 30
0.0
 10
319.8851728628
 20
340.6012612996
 30
0.0
 10
319.9609697608
 20
341.7407082551
 30
0.0
 10
320.0492817634
 20
342.6070479151
 30
0.0
 10
320.1359340332
 20
343.2187661007
 30
0.0
 10
320.2043417785
 20
343.6107501271
 30
0.0
 10
320.2799482618
 20
343.9575941909
 30
0.0
 10
320.3661627415
 20
344.2650246264
 30
0.0
 10
320.4735567589
 20
344.5480089885
 30
0.0
 10
320.6018169737
 20
344.7726185517
 30
0.0
 10
320.7537016832
 20
344.9435315776
 30
0.0
 10
320.9159413453
 20
345.0678543123
 30
0.0
 10
321.1237029772
 20
345.1595837575
 30
0.0
 10
321.281490307
 20
345.1821343957
 30
0.0
 10
321.3622791197
 20
345.1821343957
 30
0.0
  0
SPLINE
  5
469
100
AcDbEntity
  8
0
100
AcDbSpline
 62
7
  6
CONTINUOUS
 70
0
 71
3
 72
14
 73
10
 74
0
 42
0.0000001
 43
0.0000001
 44
0.0000000001
 40
0.0
 40
0.0
 40
0.0
 40
0.0
 40
0.0597754973
 40
0.1304838375
 40
0.2189922627
 40
0.3287085633
 40
0.4612485382
 40
0.6172548052
 40
1.0
 40
1.0
 40
1.0
 40
1.0
 10
328.6736016669
 20
345.1821203429
 30
0.0
 10
328.6902312347
 20
345.1821203997
 30
0.0
 10
328.7267517539
 20
345.1727978935
 30
0.0
 10
328.7761907795
 20
345.135635699
 30
0.0
 10
328.8239841439
 20
345.077545789
 30
0.0
 10
328.8710144648
 20
344.9981769167
 30
0.0
 10
328.9174671745
 20
344.8974436955
 30
0.0
 10
328.9830646534
 20
344.7224701552
 30
0.0
 10
329.0236724062
 20
344.5779157474
 30
0.0
 10
329.0496806973
 20
344.4746610549
 30
0.0
  0
SPLINE
  5
46A
100
AcDbEntity
  8
0
100
AcDbSpline
 62
7
  6
CONTINUOUS
 70
0
 71
3
 72
20
 73
16
 74
0
 42
0.0000001
 43
0.0000001
 44
0.0000000001
 40
0.0
 40
0.0
 40
0.0
 40
0.0
 40
0.3745391615
 40
0.5440565912
 40
0.6930641278
 40
0.7581248005
 40
0.8160884312
 40
0.8664591826
 40
0.9088474323
 40
0.9430141493
 40
0.968948914
 40
0.9789757632
 40
0.987230751
 40
0.9940432134
 40
1.0
 40
1.0
 40
1.0
 40
1.0
 10
305.838812053
 20
338.0701343957
 30
0.0
 10
305.838812053
 20
337.3895314712
 30
0.0
 10
305.860653609
 20
336.4005565257
 30
0.0
 10
305.9403770216
 20
335.1435427606
 30
0.0
 10
306.0074691089
 20
334.4495201989
 30
0.0
 10
306.0725194363
 20
333.9594412521
 30
0.0
 10
306.122889428
 20
333.6483438162
 30
0.0
 10
306.1764998209
 20
333.3796911769
 30
0.0
 10
306.2326999001
 20
333.1558131726
 30
0.0
 10
306.2908772949
 20
332.9787917285
 30
0.0
 10
306.3439002099
 20
332.8621619084
 30
0.0
 10
306.3892364534
 20
332.795548958
 30
0.0
 10
306.4208142765
 20
332.7622676509
 30
0.0
 10
306.4533411515
 20
332.7412448023
 30
0.0
 10
306.4766949356
 20
332.736139099
 30
0.0
 10
306.4875194548
 20
332.7361387028
 30
0.0
  0
SPLINE
  5
46B
100
AcDbEntity
  8
0
100
AcDbSpline
 62
7
  6
CONTINUOUS
 70
0
 71
3
 72
21
 73
17
 74
0
 42
0.0000001
 43
0.0000001
 44
0.0000000001
 40
0.0
 40
0.0
 40
0.0
 40
0.0
 40
0.0315364735
 40
0.0612364293
 40
0.0877132894
 40
0.1107136788
 40
0.1501078364
 40
0.1878367221
 40
0.2286905876
 40
0.2746366911
 40
0.3263724978
 40
0.3839959444
 40
0.515793239
 40
0.6661950169
 40
0.8297106799
 40
1.0
 40
1.0
 40
1.0
 40
1.0
 10
321.3622791197
 20
330.9581343957
 30
0.0
 10
321.2814928219
 20
330.9581343957
 30
0.0
 10
321.1236963228
 20
330.9806729142
 30
0.0
 10
320.9159602721
 20
331.0724594889
 30
0.0
 10
320.7536523159
 20
331.1967314028
 30
0.0
 10
320.6017771884
 20
331.3676909127
 30
0.0
 10
320.4734980379
 20
331.5923061554
 30
0.0
 10
320.3661492898
 20
331.875315379
 30
0.0
 10
320.2799272846
 20
332.182750635
 30
0.0
 10
320.2043226152
 20
332.5296169952
 30
0.0
 10
320.1359126369
 20
332.9216247184
 30
0.0
 10
320.049267282
 20
333.5333623707
 30
0.0
 10
319.9609581942
 20
334.3996965641
 30
0.0
 10
319.8851672404
 20
335.5391156503
 30
0.0
 10
319.8384706017
 20
336.7787690772
 30
0.0
 10
319.8280084033
 20
337.6339079509
 30
0.0
 10
319.8280084033
 20
338.0701343958
 30
0.0
  0
SPLINE
  5
46C
100
AcDbEntity
  8
0
100
AcDbSpline
 62
7
  6
CONTINUOUS
 70
0
 71
3
 72
13
 73
9
 74
0
 42
0.0000001
 43
0.0000001
 44
0.0000000001
 40
0.0
 40
0.0
 40
0.0
 40
0.0
 40
0.1658437986
 40
0.3242841858
 40
0.4685060401
 40
0.5947983053
 40
0.8060385576
 40
1.0
 40
1.0
 40
1.0
 40
1.0
 10
313.2513568118
 20
332.2281343957
 30
0.0
 10
313.176688293
 20
332.2281343957
 30
0.0
 10
313.0299146417
 20
332.2479022284
 30
0.0
 10
312.8332933147
 20
332.3299822706
 30
0.0
 10
312.6759309081
 20
332.444571029
 30
0.0
 10
312.5278204831
 20
332.6044590946
 30
0.0
 10
312.4055891101
 20
332.8128261326
 30
0.0
 10
312.3407594231
 20
332.983741805
 30
0.0
 10
312.3134540313
 20
333.0666911983
 30
0.0
  0
SPLINE
  5
46D
100
AcDbEntity
  8
0
100
AcDbSpline
 62
7
  6
CONTINUOUS
 70
0
 71
3
 72
14
 73
10
 74
0
 42
0.0000001
 43
0.0000001
 44
0.0000000001
 40
0.0
 40
0.0
 40
0.0
 40
0.0
 40
0.3827589115
 40
0.5387701044
 40
0.6713124697
 40
0.7810284822
 40
0.8695337002
 40
0.9402346636
 40
1.0
 40
1.0
 40
1.0
 40
1.0
 10
329.0497706106
 20
331.6659646102
 30
0.0
 10
329.023757189
 20
331.5626589193
 30
0.0
 10
328.983140827
 20
331.4180329586
 30
0.0
 10
328.9175284662
 20
331.2429709146
 30
0.0
 10
328.8710648212
 20
331.1421868102
 30
0.0
 10
328.8240230869
 20
331.0627779447
 30
0.0
 10
328.7762186628
 20
331.0046582428
 30
0.0
 10
328.7267672353
 20
330.9674767623
 30
0.0
 10
328.6902357297
 20
330.9581485055
 30
0.0
 10
328.6736016668
 20
330.9581484486
 30
0.0
  0
SPLINE
  5
46E
100
AcDbEntity
  8
0
100
AcDbSpline
 62
7
  6
CONTINUOUS
 70
0
 71
3
 72
11
 73
7
 74
0
 42
0.0000001
 43
0.0000001
 44
0.0000000001
 40
0.0
 40
0.0
 40
0.0
 40
0.0
 40
0.2843246443
 40
0.5544527141
 40
0.7969855365
 40
1.0
 40
1.0
 40
1.0
 40
1.0
 10
327.9013309504
 20
338.0701343957
 30
0.0
 10
327.9013309504
 20
337.5967283251
 30
0.0
 10
327.9137430527
 20
336.6735067251
 30
0.0
 10
327.968916768
 20
335.3474426204
 30
0.0
 10
328.0574140095
 20
334.1589324793
 30
0.0
 10
328.1434270394
 20
333.4216338198
 30
0.0
 10
328.1948517264
 20
333.0875453968
 30
0.0
  0
SPLINE
  5
46F
100
AcDbEntity
  8
0
100
AcDbSpline
 62
7
  6
CONTINUOUS
 70
0
 71
3
 72
16
 73
12
 74
0
 42
0.0000001
 43
0.0000001
 44
0.0000000001
 40
0.0
 40
0.0
 40
0.0
 40
0.0
 40
0.2112018327
 40
0.3984403987
 40
0.5606576165
 40
0.6971249084
 40
0.8075477085
 40
0.8924595818
 40
0.9260179473
 40
0.9543743206
 40
1.0
 40
1.0
 40
1.0
 40
1.0
 10
328.1948517264
 20
333.0875453968
 30
0.0
 10
328.2108562351
 20
332.9835696343
 30
0.0
 10
328.2434205351
 20
332.7877655893
 30
0.0
 10
328.2979206631
 20
332.5138063062
 30
0.0
 10
328.3548276039
 20
332.2784770779
 30
0.0
 10
328.4135875544
 20
332.0831625943
 30
0.0
 10
328.4738637279
 20
331.9291165252
 30
0.0
 10
328.5282283222
 20
331.8281525771
 30
0.0
 10
328.5743999878
 20
331.7709878352
 30
0.0
 10
328.6141255012
 20
331.7351385335
 30
0.0
 10
328.6508753716
 20
331.7201396596
 30
0.0
 10
328.673601667
 20
331.7201386408
 30
0.0
  0
SPLINE
  5
470
100
AcDbEntity
  8
0
100
AcDbSpline
 62
7
  6
CONTINUOUS
 70
0
 71
3
 72
16
 73
12
 74
0
 42
0.0000001
 43
0.0000001
 44
0.0000000001
 40
0.0
 40
0.0
 40
0.0
 40
0.0
 40
0.0456112509
 40
0.0739633046
 40
0.1075179937
 40
0.1924288828
 40
0.3028538582
 40
0.4393270315
 40
0.6015499241
 40
0.788794742
 40
1.0
 40
1.0
 40
1.0
 40
1.0
 10
328.6736016668
 20
344.4201301507
 30
0.0
 10
328.6508631385
 20
344.42013117
 30
0.0
 10
328.6140919998
 20
344.4051126836
 30
0.0
 10
328.5743515003
 20
344.3692297516
 30
0.0
 10
328.5281549635
 20
344.312009911
 30
0.0
 10
328.4737686991
 20
344.2109478584
 30
0.0
 10
328.413465054
 20
344.0567573255
 30
0.0
 10
328.3546832185
 20
343.8612601775
 30
0.0
 10
328.2977547605
 20
343.6257142404
 30
0.0
 10
328.2432384741
 20
343.3515069288
 30
0.0
 10
328.2106653434
 20
343.155527501
 30
0.0
 10
328.1946572084
 20
343.0514595877
 30
0.0
  0
SPLINE
  5
471
100
AcDbEntity
  8
0
100
AcDbSpline
 62
7
  6
CONTINUOUS
 70
0
 71
3
 72
11
 73
7
 74
0
 42
0.0000001
 43
0.0000001
 44
0.0000000001
 40
0.0
 40
0.0
 40
0.0
 40
0.0
 40
0.2030476396
 40
0.4455847431
 40
0.7156975507
 40
1.0
 40
1.0
 40
1.0
 40
1.0
 10
328.1946572084
 20
343.0514595877
 30
0.0
 10
328.1432703868
 20
342.7173969808
 30
0.0
 10
328.0573142651
 20
341.9802209745
 30
0.0
 10
327.9688731247
 20
340.7919755024
 30
0.0
 10
327.9137349235
 20
339.466305356
 30
0.0
 10
327.9013309504
 20
338.5433823773
 30
0.0
 10
327.9013309504
 20
338.0701343957
 30
0.0
  0
SPLINE
  5
472
100
AcDbEntity
  8
0
100
AcDbSpline
 62
7
  6
CONTINUOUS
 70
0
 71
3
 72
13
 73
9
 74
0
 42
0.0000001
 43
0.0000001
 44
0.0000000001
 40
0.0
 40
0.0
 40
0.0
 40
0.0
 40
0.1939607056
 40
0.4052019125
 40
0.5314928403
 40
0.6757126861
 40
0.834144266
 40
1.0
 40
1.0
 40
1.0
 40
1.0
 10
312.3134540319
 20
343.0735775932
 30
0.0
 10
312.3407593198
 20
343.156526671
 30
0.0
 10
312.4055897877
 20
343.3274421401
 30
0.0
 10
312.5278205164
 20
343.5358088883
 30
0.0
 10
312.6759301267
 20
343.6956963324
 30
0.0
 10
312.8332877711
 20
343.8102818193
 30
0.0
 10
313.0299071937
 20
343.8923674651
 30
0.0
 10
313.1766829203
 20
343.9121343957
 30
0.0
 10
313.2513568124
 20
343.9121343957
 30
0.0
  0
SPLINE
  5
473
100
AcDbEntity
  8
0
100
AcDbSpline
 62
7
  6
CONTINUOUS
 70
0
 71
3
 72
20
 73
16
 74
0
 42
0.0000001
 43
0.0000001
 44
0.0000000001
 40
0.0
 40
0.0
 40
0.0
 40
0.0
 40
0.0059567897
 40
0.0127693722
 40
0.0210243797
 40
0.031051079
 40
0.0569859918
 40
0.0911523879
 40
0.1335402213
 40
0.1839104656
 40
0.2418732903
 40
0.3069331884
 40
0.4559392806
 40
0.6254563095
 40
1.0
 40
1.0
 40
1.0
 40
1.0
 10
306.4875194547
 20
343.4041300887
 30
0.0
 10
306.4766949294
 20
343.4041304849
 30
0.0
 10
306.4533405841
 20
343.3990247223
 30
0.0
 10
306.4208143836
 20
343.3780004726
 30
0.0
 10
306.3892364045
 20
343.3447195167
 30
0.0
 10
306.343899108
 20
343.2781071432
 30
0.0
 10
306.2908780575
 20
343.1614769972
 30
0.0
 10
306.2326998739
 20
342.9844570858
 30
0.0
 10
306.1765005095
 20
342.7605811369
 30
0.0
 10
306.1228906913
 20
342.4919316139
 30
0.0
 10
306.0725208373
 20
342.1808379761
 30
0.0
 10
306.0074710184
 20
341.6907644885
 30
0.0
 10
305.9403786779
 20
340.9967467101
 30
0.0
 10
305.8606540646
 20
339.7397280772
 30
0.0
 10
305.838812053
 20
338.7507455783
 30
0.0
 10
305.838812053
 20
338.0701343957
 30
0.0
  0
SPLINE
  5
474
100
AcDbEntity
  8
0
100
AcDbSpline
 62
7
  6
CONTINUOUS
 70
0
 71
3
 72
20
 73
16
 74
0
 42
0.0000001
 43
0.0000001
 44
0.0000000001
 40
0.0
 40
0.0
 40
0.0
 40
0.0
 40
0.3745404878
 40
0.5440593446
 40
0.6930658257
 40
0.7581256635
 40
0.8160886725
 40
0.8664591201
 40
0.9088471934
 40
0.9430138411
 40
0.9689488033
 40
0.9789756159
 40
0.9872306409
 40
0.994043193
 40
1.0
 40
1.0
 40
1.0
 40
1.0
 10
312.5408688216
 20
338.0701343957
 30
0.0
 10
312.5408688216
 20
337.3247089125
 30
0.0
 10
312.5647905178
 20
336.2415395214
 30
0.0
 10
312.6521076422
 20
334.8648057322
 30
0.0
 10
312.7255896766
 20
334.1046861263
 30
0.0
 10
312.7968347459
 20
333.567937534
 30
0.0
 10
312.8520015531
 20
333.2272149853
 30
0.0
 10
312.9107171619
 20
332.9329782887
 30
0.0
 10
312.9722691865
 20
332.687779329
 30
0.0
 10
313.035987792
 20
332.4938988878
 30
0.0
 10
313.094059484
 20
332.366160615
 30
0.0
 10
313.1437141872
 20
332.2932034413
 30
0.0
 10
313.1782996626
 20
332.2567525113
 30
0.0
 10
313.2139240337
 20
332.233726515
 30
0.0
 10
313.2395024047
 20
332.2281343837
 30
0.0
 10
313.2513578807
 20
332.2281343958
 30
0.0
  0
SPLINE
  5
475
100
AcDbEntity
  8
0
100
AcDbSpline
 62
7
  6
CONTINUOUS
 70
0
 71
3
 72
21
 73
17
 74
0
 42
0.0000001
 43
0.0000001
 44
0.0000000001
 40
0.0
 40
0.0
 40
0.0
 40
0.0
 40
0.0059682606
 40
0.0127881383
 40
0.0210459939
 40
0.0310668493
 40
0.0569778311
 40
0.0911002071
 40
0.1334345889
 40
0.1837416885
 40
0.2416368699
 40
0.3066332984
 40
0.3781533909
 40
0.4555461245
 40
0.6250451918
 40
1.0
 40
1.0
 40
1.0
 40
1.0
 10
321.3622791197
 20
345.1821251734
 30
0.0
 10
321.3479069525
 20
345.1821255182
 30
0.0
 10
321.316909079
 20
345.1754010972
 30
0.0
 10
321.2737055791
 20
345.1475934915
 30
0.0
 10
321.2317744242
 20
345.1035572196
 30
0.0
 10
321.1715405721
 20
345.0154664918
 30
0.0
 10
321.1011223877
 20
344.8611684733
 30
0.0
 10
321.0237954198
 20
344.6269687426
 30
0.0
 10
320.9491053046
 20
344.3307413179
 30
0.0
 10
320.8778091736
 20
343.9752330506
 30
0.0
 10
320.8107941529
 20
343.5634923456
 30
0.0
 10
320.7487881747
 20
343.0994054957
 30
0.0
 10
320.692442344
 20
342.5873422765
 30
0.0
 10
320.623535343
 20
341.8236336689
 30
0.0
 10
320.5279385508
 20
340.3290076423
 30
0.0
 10
320.4980394153
 20
339.017529217
 30
0.0
 10
320.4973528234
 20
338.1146008821
 30
0.0
  0
SPLINE
  5
476
100
AcDbEntity
  8
0
100
AcDbSpline
 62
7
  6
CONTINUOUS
 70
0
 71
3
 72
14
 73
10
 74
0
 42
0.0000001
 43
0.0000001
 44
0.0000000001
 40
0.0
 40
0.0
 40
0.0
 40
0.0
 40
0.0694442895
 40
0.1594718344
 40
0.2683363536
 40
0.3937074374
 40
0.5328097061
 40
0.68251497
 40
1.0
 40
1.0
 40
1.0
 40
1.0
 10
312.3134542355
 20
333.0666957431
 30
0.0
 10
312.2770247095
 20
333.1773731136
 30
0.0
 10
312.2120820049
 20
333.4375237656
 30
0.0
 10
312.1328097852
 20
333.8808150217
 30
0.0
 10
312.0618697165
 20
334.4204267881
 30
0.0
 10
312.001093268
 20
335.0439583336
 30
0.0
 10
311.9521568222
 20
335.7372491212
 30
0.0
 10
311.9034393555
 20
336.7534178709
 30
0.0
 10
311.88956172
 20
337.5374351566
 30
0.0
 10
311.88956172
 20
338.0701343957
 30
0.0
  0
SPLINE
  5
477
100
AcDbEntity
  8
0
100
AcDbSpline
 62
7
  6
CONTINUOUS
 70
0
 71
3
 72
21
 73
17
 74
0
 42
0.0000001
 43
0.0000001
 44
0.0000000001
 40
0.0
 40
0.0
 40
0.0
 40
0.0
 40
0.3745385084
 40
0.5440555258
 40
0.6214909591
 40
0.6930674937
 40
0.7581282986
 40
0.8160897611
 40
0.8664596948
 40
0.9088490264
 40
0.9430134059
 40
0.9689492167
 40
0.9789747929
 40
0.9872313395
 40
0.9940435974
 40
1.0
 40
1.0
 40
1.0
 40
1.0
 10
320.4973359173
 20
338.0701343957
 30
0.0
 10
320.4973359173
 20
337.1626580007
 30
0.0
 10
320.5265419952
 20
335.8440527232
 30
0.0
 10
320.6216798743
 20
334.3410268225
 30
0.0
 10
320.6905038312
 20
333.5722881379
 30
0.0
 10
320.746866175
 20
333.0566391123
 30
0.0
 10
320.808951918
 20
332.5891990032
 30
0.0
 10
320.8761047872
 20
332.174405283
 30
0.0
 10
320.9475905523
 20
331.8162050982
 30
0.0
 10
321.022510062
 20
331.5176984833
 30
0.0
 10
321.1001005337
 20
331.2816781252
 30
0.0
 10
321.1707732558
 20
331.1261619448
 30
0.0
 10
321.231244222
 20
331.03735629
 30
0.0
 10
321.2733323289
 20
330.9929675317
 30
0.0
 10
321.3167067098
 20
330.9649316508
 30
0.0
 10
321.3478472399
 20
330.9581439643
 30
0.0
 10
321.3622791197
 20
330.9581436181
 30
0.0
  0
LINE
  5
478
100
AcDbEntity
  8
0
100
AcDbLine
 62
7
  6
CONTINUOUS
 10
320.4973528234
 20
338.1146008821
 11
320.4973359173
 21
338.0701343957
  0
SPLINE
  5
479
100
AcDbEntity
  8
0
100
AcDbSpline
 62
7
  6
CONTINUOUS
 70
0
 71
3
 72
10
 73
6
 74
0
 42
0.0000001
 43
0.0000001
 44
0.0000000001
 40
0.0
 40
0.0
 40
0.0
 40
0.0
 40
0.5402665288
 40
0.7848785936
 40
1.0
 40
1.0
 40
1.0
 40
1.0
 10
327.8086584645
 20
338.0701343957
 30
0.0
 10
327.8086584645
 20
338.9761397824
 30
0.0
 10
327.8377112278
 20
340.2927878864
 30
0.0
 10
327.9436250578
 20
341.9665541907
 30
0.0
 10
328.017734659
 20
342.734190552
 30
0.0
 10
328.0611744513
 20
343.0923156009
 30
0.0
  0
SPLINE
  5
47A
100
AcDbEntity
  8
0
100
AcDbSpline
 62
7
  6
CONTINUOUS
 70
0
 71
3
 72
17
 73
13
 74
0
 42
0.0000001
 43
0.0000001
 44
0.0000000001
 40
0.0
 40
0.0
 40
0.0
 40
0.0
 40
0.2119503543
 40
0.4006367623
 40
0.5645291906
 40
0.7024307477
 40
0.81360757
 40
0.8981156353
 40
0.9308609347
 40
0.957908044
 40
0.980320986
 40
1.0
 40
1.0
 40
1.0
 40
1.0
 10
328.0709738263
 20
343.1718279964
 30
0.0
 10
328.0899150166
 20
343.3230910676
 30
0.0
 10
328.1288973735
 20
343.6086336339
 30
0.0
 10
328.19539573
 20
344.0092640356
 30
0.0
 10
328.2659921103
 20
344.3549853884
 30
0.0
 10
328.3398310792
 20
344.6429322285
 30
0.0
 10
328.4161890501
 20
344.8705201135
 30
0.0
 10
328.4856777417
 20
345.0203922591
 30
0.0
 10
328.5450395604
 20
345.1058892347
 30
0.0
 10
328.5863895306
 20
345.1486547094
 30
0.0
 10
328.6289747175
 20
345.1756197784
 30
0.0
 10
328.6594476219
 20
345.1821202945
 30
0.0
 10
328.6736016669
 20
345.1821203429
 30
0.0
  0
SPLINE
  5
47B
100
AcDbEntity
  8
0
100
AcDbSpline
 62
7
  6
CONTINUOUS
 70
0
 71
3
 72
20
 73
16
 74
0
 42
0.0000001
 43
0.0000001
 44
0.0000000001
 40
0.0
 40
0.0
 40
0.0
 40
0.0
 40
0.0059568067
 40
0.0127693548
 40
0.021024378
 40
0.0310511925
 40
0.0569861419
 40
0.0911527829
 40
0.1335408463
 40
0.1839112742
 40
0.2418742714
 40
0.3069340896
 40
0.4559405317
 40
0.625459357
 40
1.0
 40
1.0
 40
1.0
 40
1.0
 10
313.2513578807
 20
343.9121343957
 30
0.0
 10
313.2395024053
 20
343.9121343839
 30
0.0
 10
313.2139240524
 20
343.9065422582
 30
0.0
 10
313.1782996631
 20
343.8835163079
 30
0.0
 10
313.1437141968
 20
343.8470653748
 30
0.0
 10
313.0940595351
 20
343.7741082068
 30
0.0
 10
313.0359878005
 20
343.6463699961
 30
0.0
 10
312.9722692341
 20
343.4524895989
 30
0.0
 10
312.9107172168
 20
343.2072907145
 30
0.0
 10
312.8520015965
 20
342.9130541032
 30
0.0
 10
312.7968348116
 20
342.5723316543
 30
0.0
 10
312.7255897331
 20
342.0355832051
 30
0.0
 10
312.6521077051
 20
341.2754637789
 30
0.0
 10
312.5647905336
 20
339.8987298249
 30
0.0
 10
312.5408688216
 20
338.8155601875
 30
0.0
 10
312.5408688216
 20
338.0701343957
 30
0.0
  0
SPLINE
  5
47C
100
AcDbEntity
  8
0
100
AcDbSpline
 62
7
  6
CONTINUOUS
 70
0
 71
3
 72
17
 73
13
 74
0
 42
0.0000001
 43
0.0000001
 44
0.0000000001
 40
0.0
 40
0.0
 40
0.0
 40
0.0
 40
0.0196794511
 40
0.0420928408
 40
0.0691401685
 40
0.1018855523
 40
0.1863938329
 40
0.2975706241
 40
0.4354719781
 40
0.5993642791
 40
0.7880502573
 40
1.0
 40
1.0
 40
1.0
 40
1.0
 10
328.6736016668
 20
330.9581484486
 30
0.0
 10
328.6594480704
 20
330.9581484003
 30
0.0
 10
328.6289760717
 20
330.9646483093
 30
0.0
 10
328.5863924275
 20
330.991612238
 30
0.0
 10
328.5450434539
 20
331.0343748888
 30
0.0
 10
328.4856832526
 20
331.1198666828
 30
0.0
 10
328.4161966484
 20
331.2697302137
 30
0.0
 10
328.3398405197
 20
331.4973050554
 30
0.0
 10
328.266003151
 20
331.7852355107
 30
0.0
 10
328.1954083669
 20
332.130937224
 30
0.0
 10
328.1289111303
 20
332.5315447712
 30
0.0
 10
328.0899292828
 20
332.8170709749
 30
0.0
 10
328.0709882799
 20
332.9683253453
 30
0.0
  0
SPLINE
  5
47D
100
AcDbEntity
  8
0
100
AcDbSpline
 62
7
  6
CONTINUOUS
 70
0
 71
3
 72
10
 73
6
 74
0
 42
0.0000001
 43
0.0000001
 44
0.0000000001
 40
0.0
 40
0.0
 40
0.0
 40
0.0
 40
0.2151190286
 40
0.4597308534
 40
1.0
 40
1.0
 40
1.0
 40
1.0
 10
328.0611834969
 20
333.0478785527
 30
0.0
 10
328.0177422753
 20
333.4060048399
 30
0.0
 10
327.9436301772
 20
334.1736481404
 30
0.0
 10
327.8377123042
 20
335.847439298
 30
0.0
 10
327.8086584645
 20
337.1641110848
 30
0.0
 10
327.8086584645
 20
338.0701343957
 30
0.0
  0
SPLINE
  5
47E
100
AcDbEntity
  8
0
100
AcDbSpline
 62
7
  6
CONTINUOUS
 70
0
 71
3
 72
14
 73
10
 74
0
 42
0.0000001
 43
0.0000001
 44
0.0000000001
 40
0.0
 40
0.0
 40
0.0
 40
0.0
 40
0.3174852293
 40
0.4671904343
 40
0.6062926702
 40
0.7316637164
 40
0.8405282055
 40
0.9305557264
 40
1.0
 40
1.0
 40
1.0
 40
1.0
 10
311.8895617206
 20
338.0701343957
 30
0.0
 10
311.8895617206
 20
338.6028339672
 30
0.0
 10
311.903439362
 20
339.3868514864
 30
0.0
 10
311.9521568734
 20
340.4030204109
 30
0.0
 10
312.0010933136
 20
341.0963109792
 30
0.0
 10
312.0618697624
 20
341.7198423528
 30
0.0
 10
312.1328098196
 20
342.2594539634
 30
0.0
 10
312.2120820299
 20
342.7027450999
 30
0.0
 10
312.277024716
 20
342.9628956866
 30
0.0
 10
312.3134542369
 20
343.0735730304
 30
0.0
  0
SPLINE
  5
47F
100
AcDbEntity
  8
0
100
AcDbSpline
 62
7
  6
CONTINUOUS
 70
0
 71
3
 72
11
 73
7
 74
0
 42
0.0000001
 43
0.0000001
 44
0.0000000001
 40
0.0
 40
0.0
 40
0.0
 40
0.0
 40
0.1962326695
 40
0.4317939013
 40
0.7016911754
 40
1.0
 40
1.0
 40
1.0
 40
1.0
 10
354.830803126
 20
348.2987604411
 30
0.0
 10
354.76059619
 20
347.9654694688
 30
0.0
 10
354.6333845976
 20
347.2263805627
 30
0.0
 10
354.4792620969
 20
346.0180263098
 30
0.0
 10
354.347984993
 20
344.6288877944
 30
0.0
 10
354.2807527502
 20
343.644832234
 30
0.0
 10
354.2509609313
 20
343.1279091101
 30
0.0
  0
SPLINE
  5
480
100
AcDbEntity
  8
0
100
AcDbSpline
 62
7
  6
CONTINUOUS
 70
0
 71
3
 72
9
 73
5
 74
0
 42
0.0000001
 43
0.0000001
 44
0.0000000001
 40
0.0
 40
0.0
 40
0.0
 40
0.0
 40
0.4876963117
 40
1.0
 40
1.0
 40
1.0
 40
1.0
 10
354.2509609313
 20
343.1279091101
 30
0.0
 10
354.2036300215
 20
342.3066621183
 30
0.0
 10
354.134857572
 20
340.6210477026
 30
0.0
 10
354.1125913594
 20
338.9342500553
 30
0.0
 10
354.1125913594
 20
338.0701343957
 30
0.0
  0
SPLINE
  5
481
100
AcDbEntity
  8
0
100
AcDbSpline
 62
7
  6
CONTINUOUS
 70
0
 71
3
 72
9
 73
5
 74
0
 42
0.0000001
 43
0.0000001
 44
0.0000000001
 40
0.0
 40
0.0
 40
0.0
 40
0.0
 40
0.5123036883
 40
1.0
 40
1.0
 40
1.0
 40
1.0
 10
354.1125913594
 20
338.0701343957
 30
0.0
 10
354.1125913594
 20
337.2060187361
 30
0.0
 10
354.134857572
 20
335.5192210889
 30
0.0
 10
354.2036300215
 20
333.8336066732
 30
0.0
 10
354.2509609313
 20
333.0123596813
 30
0.0
  0
SPLINE
  5
482
100
AcDbEntity
  8
0
100
AcDbSpline
 62
7
  6
CONTINUOUS
 70
0
 71
3
 72
9
 73
5
 74
0
 42
0.0000001
 43
0.0000001
 44
0.0000000001
 40
0.0
 40
0.0
 40
0.0
 40
0.0
 40
0.2675353806
 40
1.0
 40
1.0
 40
1.0
 40
1.0
 10
354.2509609313
 20
333.0123596813
 30
0.0
 10
354.2658358639
 20
332.7542620921
 30
0.0
 10
354.3266980285
 20
331.7898708123
 30
0.0
 10
354.4085621355
 20
330.8266447241
 30
0.0
 10
354.4863776288
 20
330.1231370641
 30
0.0
  0
SPLINE
  5
483
100
AcDbEntity
  8
0
100
AcDbSpline
 62
7
  6
CONTINUOUS
 70
0
 71
3
 72
9
 73
5
 74
0
 42
0.0000001
 43
0.0000001
 44
0.0000000001
 40
0.0
 40
0.0
 40
0.0
 40
0.0
 40
0.5462605014
 40
1.0
 40
1.0
 40
1.0
 40
1.0
 10
354.4863776288
 20
330.1231370641
 30
0.0
 10
354.5325830312
 20
329.7054072124
 30
0.0
 10
354.62888952
 20
328.9419400956
 30
0.0
 10
354.7588463506
 20
328.1831062752
 30
0.0
 10
354.830803126
 20
327.8415083504
 30
0.0
  0
SPLINE
  5
484
100
AcDbEntity
  8
0
100
AcDbSpline
 62
7
  6
CONTINUOUS
 70
0
 71
3
 72
9
 73
5
 74
0
 42
0.0000001
 43
0.0000001
 44
0.0000000001
 40
0.0
 40
0.0
 40
0.0
 40
0.0
 40
0.4914363337
 40
1.0
 40
1.0
 40
1.0
 40
1.0
 10
354.8951212877
 20
327.5538717534
 30
0.0
 10
355.0206167875
 20
327.0233079629
 30
0.0
 10
355.3504900498
 20
325.9605988681
 30
0.0
 10
355.7922250332
 20
324.9412821253
 30
0.0
 10
356.0349689088
 20
324.4319663369
 30
0.0
  0
SPLINE
  5
485
100
AcDbEntity
  8
0
100
AcDbSpline
 62
7
  6
CONTINUOUS
 70
0
 71
3
 72
9
 73
5
 74
0
 42
0.0000001
 43
0.0000001
 44
0.0000000001
 40
0.0
 40
0.0
 40
0.0
 40
0.0
 40
0.2420877137
 40
1.0
 40
1.0
 40
1.0
 40
1.0
 10
364.7849736664
 20
346.0076239838
 30
0.0
 10
364.7801438406
 20
346.0076239838
 30
0.0
 10
364.7601915475
 20
346.0064047455
 30
0.0
 10
364.7407190137
 20
346.0000723876
 30
0.0
 10
364.7271576838
 20
345.9933841907
 30
0.0
  0
SPLINE
  5
486
100
AcDbEntity
  8
0
100
AcDbSpline
 62
7
  6
CONTINUOUS
 70
0
 71
3
 72
9
 73
5
 74
0
 42
0.0000001
 43
0.0000001
 44
0.0000000001
 40
0.0
 40
0.0
 40
0.0
 40
0.0
 40
0.2383119412
 40
1.0
 40
1.0
 40
1.0
 40
1.0
 10
364.7271576838
 20
345.9933841907
 30
0.0
 10
364.7242718991
 20
345.9919609751
 30
0.0
 10
364.7123412535
 20
345.9856276599
 30
0.0
 10
364.7011552125
 20
345.9779380922
 30
0.0
 10
364.6930719063
 20
345.9715800262
 30
0.0
  0
SPLINE
  5
487
100
AcDbEntity
  8
0
100
AcDbSpline
 62
7
  6
CONTINUOUS
 70
0
 71
3
 72
9
 73
5
 74
0
 42
0.0000001
 43
0.0000001
 44
0.0000000001
 40
0.0
 40
0.0
 40
0.0
 40
0.0
 40
0.5085636684
 40
1.0
 40
1.0
 40
1.0
 40
1.0
 10
364.5173572724
 20
351.7083024545
 30
0.0
 10
364.760101149
 20
351.198986664
 30
0.0
 10
365.2018361368
 20
350.1796699229
 30
0.0
 10
365.5317094003
 20
349.1169608275
 30
0.0
 10
365.6572048953
 20
348.5863970381
 30
0.0
  0
SPLINE
  5
488
100
AcDbEntity
  8
0
100
AcDbSpline
 62
7
  6
CONTINUOUS
 70
0
 71
3
 72
9
 73
5
 74
0
 42
0.0000001
 43
0.0000001
 44
0.0000000001
 40
0.0
 40
0.0
 40
0.0
 40
0.0
 40
0.262543624
 40
1.0
 40
1.0
 40
1.0
 40
1.0
 10
364.6934095418
 20
330.1684236846
 30
0.0
 10
364.6961700095
 20
330.1662604425
 30
0.0
 10
364.706863063
 20
330.1582558882
 30
0.0
 10
364.7183226449
 20
330.1512418785
 30
0.0
 10
364.7271576838
 20
330.1468846008
 30
0.0
  0
SPLINE
  5
489
100
AcDbEntity
  8
0
100
AcDbSpline
 62
7
  6
CONTINUOUS
 70
0
 71
3
 72
9
 73
5
 74
0
 42
0.0000001
 43
0.0000001
 44
0.0000000001
 40
0.0
 40
0.0
 40
0.0
 40
0.0
 40
0.2628694285
 40
1.0
 40
1.0
 40
1.0
 40
1.0
 10
364.7271576838
 20
330.1468846008
 30
0.0
 10
364.7318599174
 20
330.1445655462
 30
0.0
 10
364.7501449345
 20
330.1365995496
 30
0.0
 10
364.770271412
 20
330.1326448077
 30
0.0
 10
364.7849736664
 20
330.1326448077
 30
0.0
  0
SPLINE
  5
48A
100
AcDbEntity
  8
0
100
AcDbSpline
 62
7
  6
CONTINUOUS
 70
0
 71
3
 72
9
 73
5
 74
0
 42
0.0000001
 43
0.0000001
 44
0.0000000001
 40
0.0
 40
0.0
 40
0.0
 40
0.0
 40
0.4538867483
 40
1.0
 40
1.0
 40
1.0
 40
1.0
 10
365.7215230552
 20
348.2987604411
 30
0.0
 10
365.7931190069
 20
347.9588754422
 30
0.0
 10
365.9225120414
 20
347.2041177774
 30
0.0
 10
366.0185176739
 20
346.4447525404
 30
0.0
 10
366.064592032
 20
346.0293783896
 30
0.0
  0
SPLINE
  5
48B
100
AcDbEntity
  8
0
100
AcDbSpline
 62
7
  6
CONTINUOUS
 70
0
 71
3
 72
9
 73
5
 74
0
 42
0.0000001
 43
0.0000001
 44
0.0000000001
 40
0.0
 40
0.0
 40
0.0
 40
0.0
 40
0.5461132517
 40
1.0
 40
1.0
 40
1.0
 40
1.0
 10
366.064592032
 20
330.1108904019
 30
0.0
 10
366.0185176739
 20
329.6955162511
 30
0.0
 10
365.9225120413
 20
328.9361510141
 30
0.0
 10
365.793119007
 20
328.1813933493
 30
0.0
 10
365.7215230552
 20
327.8415083504
 30
0.0
  0
SPLINE
  5
48C
100
AcDbEntity
  8
0
100
AcDbSpline
 62
7
  6
CONTINUOUS
 70
0
 71
3
 72
16
 73
12
 74
0
 42
0.0000001
 43
0.0000001
 44
0.0000000001
 40
0.0
 40
0.0
 40
0.0
 40
0.0
 40
0.3374975957
 40
0.4943067483
 40
0.637177685
 40
0.7621434463
 40
0.8658112233
 40
0.9088091177
 40
0.9455798869
 40
0.9759761513
 40
1.0
 40
1.0
 40
1.0
 40
1.0
 10
363.9916366507
 20
338.0701343957
 30
0.0
 10
363.9916366507
 20
337.1472291043
 30
0.0
 10
364.0180089865
 20
335.7952204913
 30
0.0
 10
364.1118552421
 20
334.0552308789
 30
0.0
 10
364.204966278
 20
332.8975612978
 30
0.0
 10
364.3195712871
 20
331.88797979
 30
0.0
 10
364.4353165676
 20
331.1537815058
 30
0.0
 10
364.5402551359
 20
330.6631482024
 30
0.0
 10
364.6169490146
 20
330.3716339422
 30
0.0
 10
364.6959204184
 20
330.1349549339
 30
0.0
 10
364.7565099445
 20
329.9984426036
 30
0.0
 10
364.7886109235
 20
329.9411251107
 30
0.0
  0
SPLINE
  5
48D
100
AcDbEntity
  8
0
100
AcDbSpline
 62
7
  6
CONTINUOUS
 70
0
 71
3
 72
16
 73
12
 74
0
 42
0.0000001
 43
0.0000001
 44
0.0000000001
 40
0.0
 40
0.0
 40
0.0
 40
0.0
 40
0.0240238368
 40
0.0544200749
 40
0.0911907739
 40
0.1341886146
 40
0.2378559591
 40
0.3628210662
 40
0.5056917477
 40
0.6625012773
 40
1.0
 40
1.0
 40
1.0
 40
1.0
 10
364.7886109222
 20
346.1991437361
 30
0.0
 10
364.7565101071
 20
346.1418261887
 30
0.0
 10
364.6959204688
 20
346.0053140461
 30
0.0
 10
364.6169492899
 20
345.7686352562
 30
0.0
 10
364.5402552918
 20
345.4771214614
 30
0.0
 10
364.4353172181
 20
344.9864895979
 30
0.0
 10
364.3195720788
 20
344.252294464
 30
0.0
 10
364.2049672466
 20
343.2427166177
 30
0.0
 10
364.1118559571
 20
342.0850485171
 30
0.0
 10
364.0180091396
 20
340.3450555057
 30
0.0
 10
363.9916366507
 20
338.9930427721
 30
0.0
 10
363.9916366507
 20
338.0701343957
 30
0.0
  0
SPLINE
  5
48E
100
AcDbEntity
  8
0
100
AcDbSpline
 62
7
  6
CONTINUOUS
 70
0
 71
3
 72
9
 73
5
 74
0
 42
0.0000001
 43
0.0000001
 44
0.0000000001
 40
0.0
 40
0.0
 40
0.0
 40
0.0
 40
0.4914363306
 40
1.0
 40
1.0
 40
1.0
 40
1.0
 10
365.6572048879
 20
327.5538717535
 30
0.0
 10
365.5317093743
 20
327.0233079695
 30
0.0
 10
365.2018361893
 20
325.960598851
 30
0.0
 10
364.7601011495
 20
324.9412821285
 30
0.0
 10
364.5173572724
 20
324.4319663369
 30
0.0
  0
SPLINE
  5
48F
100
AcDbEntity
  8
0
100
AcDbSpline
 62
7
  6
CONTINUOUS
 70
0
 71
3
 72
9
 73
5
 74
0
 42
0.0000001
 43
0.0000001
 44
0.0000000001
 40
0.0
 40
0.0
 40
0.0
 40
0.0
 40
0.5085636715
 40
1.0
 40
1.0
 40
1.0
 40
1.0
 10
356.0349689088
 20
351.7083024545
 30
0.0
 10
355.7922250306
 20
351.1989866607
 30
0.0
 10
355.3504899866
 20
350.1796699399
 30
0.0
 10
355.0206168001
 20
349.1169608209
 30
0.0
 10
354.8951212914
 20
348.5863970381
 30
0.0
  0
SPLINE
  5
490
100
AcDbEntity
  8
0
100
AcDbSpline
 62
7
  6
CONTINUOUS
 70
0
 71
3
 72
15
 73
11
 74
0
 42
0.0000001
 43
0.0000001
 44
0.0000000001
 40
0.0
 40
0.0
 40
0.0
 40
0.0
 40
0.1502613022
 40
0.2682721765
 40
0.3616414348
 40
0.4455635059
 40
0.5400216606
 40
0.6597381564
 40
0.811984736
 40
1.0
 40
1.0
 40
1.0
 40
1.0
 10
364.7886109235
 20
329.9411251107
 30
0.0
 10
364.8067862087
 20
329.9086724626
 30
0.0
 10
364.8424625196
 20
329.8523050857
 30
0.0
 10
364.9040232548
 20
329.7863670247
 30
0.0
 10
364.970087259
 20
329.7500590912
 30
0.0
 10
365.0405274325
 20
329.7512172978
 30
0.0
 10
365.1062091424
 20
329.7893921408
 30
0.0
 10
365.167666019
 20
329.8569953427
 30
0.0
 10
365.2279792409
 20
329.9540584285
 30
0.0
 10
365.2637346159
 20
330.0304743212
 30
0.0
 10
365.2819209112
 20
330.0733152563
 30
0.0
  0
SPLINE
  5
491
100
AcDbEntity
  8
0
100
AcDbSpline
 62
7
  6
CONTINUOUS
 70
0
 71
3
 72
9
 73
5
 74
0
 42
0.0000001
 43
0.0000001
 44
0.0000000001
 40
0.0
 40
0.0
 40
0.0
 40
0.0
 40
0.4999989549
 40
1.0
 40
1.0
 40
1.0
 40
1.0
 10
363.5668877566
 20
338.0701343957
 30
0.0
 10
363.5668877566
 20
339.2101661842
 30
0.0
 10
363.4769862984
 20
341.4909633526
 30
0.0
 10
363.2312130011
 20
343.7591301592
 30
0.0
 10
363.0809337398
 20
344.8892184251
 30
0.0
  0
SPLINE
  5
492
100
AcDbEntity
  8
0
100
AcDbSpline
 62
7
  6
CONTINUOUS
 70
0
 71
3
 72
9
 73
5
 74
0
 42
0.0000001
 43
0.0000001
 44
0.0000000001
 40
0.0
 40
0.0
 40
0.0
 40
0.0
 40
0.5093374206
 40
1.0
 40
1.0
 40
1.0
 40
1.0
 10
363.0809337398
 20
344.8892184251
 30
0.0
 10
363.3455351996
 20
345.4443949492
 30
0.0
 10
363.823038265
 20
346.5556572936
 30
0.0
 10
364.1629794851
 20
347.7190241843
 30
0.0
 10
364.2850995232
 20
348.2987604414
 30
0.0
  0
SPLINE
  5
493
100
AcDbEntity
  8
0
100
AcDbSpline
 62
7
  6
CONTINUOUS
 70
0
 71
3
 72
13
 73
9
 74
0
 42
0.0000001
 43
0.0000001
 44
0.0000000001
 40
0.0
 40
0.0
 40
0.0
 40
0.0
 40
0.0849718839
 40
0.1851352439
 40
0.2989085977
 40
0.4244348179
 40
0.7022292328
 40
1.0
 40
1.0
 40
1.0
 40
1.0
 10
364.2850995232
 20
327.8415083504
 30
0.0
 10
364.2251564319
 20
328.1260741261
 30
0.0
 10
364.1144898488
 20
328.7502754374
 30
0.0
 10
363.9764460625
 20
329.7640728441
 30
0.0
 10
363.8549631453
 20
330.9196529943
 30
0.0
 10
363.7134176849
 20
332.6838389167
 30
0.0
 10
363.5974873491
 20
335.081080909
 30
0.0
 10
363.5668877566
 20
337.0510335241
 30
0.0
 10
363.5668877566
 20
338.0701343957
 30
0.0
  0
SPLINE
  5
494
100
AcDbEntity
  8
0
100
AcDbSpline
 62
7
  6
CONTINUOUS
 70
0
 71
3
 72
13
 73
9
 74
0
 42
0.0000001
 43
0.0000001
 44
0.0000000001
 40
0.0
 40
0.0
 40
0.0
 40
0.0
 40
0.2977707672
 40
0.5755651821
 40
0.7010914023
 40
0.8148647561
 40
0.9150281161
 40
1.0
 40
1.0
 40
1.0
 40
1.0
 10
363.5668877566
 20
338.0701343957
 30
0.0
 10
363.5668877566
 20
339.0892352674
 30
0.0
 10
363.5974873491
 20
341.0591878825
 30
0.0
 10
363.7134176849
 20
343.4564298748
 30
0.0
 10
363.8549631453
 20
345.2206157972
 30
0.0
 10
363.9764460625
 20
346.3761959474
 30
0.0
 10
364.1144898488
 20
347.3899933541
 30
0.0
 10
364.2251564318
 20
348.0141946654
 30
0.0
 10
364.2850995232
 20
348.2987604411
 30
0.0
  0
SPLINE
  5
495
100
AcDbEntity
  8
0
100
AcDbSpline
 62
7
  6
CONTINUOUS
 70
0
 71
3
 72
22
 73
18
 74
0
 42
0.0000001
 43
0.0000001
 44
0.0000000001
 40
0.0
 40
0.0
 40
0.0
 40
0.0
 40
0.2033996476
 40
0.2871622213
 40
0.3587853325
 40
0.4183922306
 40
0.4664433026
 40
0.5040576046
 40
0.5338245105
 40
0.5608509246
 40
0.5916792372
 40
0.6309554841
 40
0.6809340199
 40
0.7425818148
 40
0.8162843083
 40
0.90212842
 40
1.0
 40
1.0
 40
1.0
 40
1.0
 10
364.2850995232
 20
348.2987604411
 30
0.0
 10
364.3313562286
 20
348.5183533076
 30
0.0
 10
364.404032279
 20
348.8271445918
 30
0.0
 10
364.5216393055
 20
349.2052853379
 30
0.0
 10
364.605677123
 20
349.427312536
 30
0.0
 10
364.6909525673
 20
349.6061249328
 30
0.0
 10
364.7775235881
 20
349.74176482
 30
0.0
 10
364.8659345237
 20
349.834906872
 30
0.0
 10
364.9612550773
 20
349.8849113943
 30
0.0
 10
365.0624580614
 20
349.8798805482
 30
0.0
 10
365.1561158065
 20
349.8218396571
 30
0.0
 10
365.2440523363
 20
349.7215707695
 30
0.0
 10
365.3303787856
 20
349.5785187166
 30
0.0
 10
365.4154597706
 20
349.3922925881
 30
0.0
 10
365.4992335071
 20
349.1628818536
 30
0.0
 10
365.5813305232
 20
348.8908826987
 30
0.0
 10
365.6314621456
 20
348.6944260865
 30
0.0
 10
365.6564852338
 20
348.5893831961
 30
0.0
  0
LINE
  5
496
100
AcDbEntity
  8
0
100
AcDbLine
 62
7
  6
CONTINUOUS
 10
365.6564852338
 20
348.5893831961
 11
365.6601534797
 21
348.5739299586
  0
SPLINE
  5
497
100
AcDbEntity
  8
0
100
AcDbSpline
 62
7
  6
CONTINUOUS
 70
0
 71
3
 72
15
 73
11
 74
0
 42
0.0000001
 43
0.0000001
 44
0.0000000001
 40
0.0
 40
0.0
 40
0.0
 40
0.0
 40
0.1879426193
 40
0.3401295665
 40
0.4598053556
 40
0.5542509908
 40
0.6381976644
 40
0.7316174077
 40
0.8496849013
 40
1.0
 40
1.0
 40
1.0
 40
1.0
 10
365.2816948398
 20
346.0674861277
 30
0.0
 10
365.263516207
 20
346.1102715603
 30
0.0
 10
365.2277756457
 20
346.1865863503
 30
0.0
 10
365.1674871245
 20
346.2835101966
 30
0.0
 10
365.1060539935
 20
346.3510040581
 30
0.0
 10
365.040392545
 20
346.3890857642
 30
0.0
 10
364.9699926157
 20
346.3901777785
 30
0.0
 10
364.9039717954
 20
346.3538532732
 30
0.0
 10
364.8424404855
 20
346.2879303158
 30
0.0
 10
364.8067785227
 20
346.2315828595
 30
0.0
 10
364.7886109222
 20
346.1991437361
 30
0.0
  0
SPLINE
  5
498
100
AcDbEntity
  8
0
100
AcDbSpline
 62
7
  6
CONTINUOUS
 70
0
 71
3
 72
9
 73
5
 74
0
 42
0.0000001
 43
0.0000001
 44
0.0000000001
 40
0.0
 40
0.0
 40
0.0
 40
0.0
 40
0.2628694285
 40
1.0
 40
1.0
 40
1.0
 40
1.0
 10
364.842789649
 20
345.9933841907
 30
0.0
 10
364.8380874154
 20
345.9957032453
 30
0.0
 10
364.8198023983
 20
346.0036692419
 30
0.0
 10
364.7996759208
 20
346.0076239838
 30
0.0
 10
364.7849736664
 20
346.0076239838
 30
0.0
  0
SPLINE
  5
499
100
AcDbEntity
  8
0
100
AcDbSpline
 62
7
  6
CONTINUOUS
 70
0
 71
3
 72
9
 73
5
 74
0
 42
0.0000001
 43
0.0000001
 44
0.0000000001
 40
0.0
 40
0.0
 40
0.0
 40
0.0
 40
0.4906625783
 40
1.0
 40
1.0
 40
1.0
 40
1.0
 10
364.2850995227
 20
327.8415083525
 30
0.0
 10
364.1629794847
 20
328.4212446085
 30
0.0
 10
363.8230383233
 20
329.5846115181
 30
0.0
 10
363.3455352003
 20
330.6958738408
 30
0.0
 10
363.0809337398
 20
331.2510503663
 30
0.0
  0
SPLINE
  5
49A
100
AcDbEntity
  8
0
100
AcDbSpline
 62
7
  6
CONTINUOUS
 70
0
 71
3
 72
9
 73
5
 74
0
 42
0.0000001
 43
0.0000001
 44
0.0000000001
 40
0.0
 40
0.0
 40
0.0
 40
0.0
 40
0.5000010473
 40
1.0
 40
1.0
 40
1.0
 40
1.0
 10
363.0809337398
 20
331.2510503663
 30
0.0
 10
363.231213002
 20
332.381138639
 30
0.0
 10
363.4769865998
 20
334.6493054225
 30
0.0
 10
363.5668877566
 20
336.9301026105
 30
0.0
 10
363.5668877566
 20
338.0701343957
 30
0.0
  0
LINE
  5
49B
100
AcDbEntity
  8
0
100
AcDbLine
 62
7
  6
CONTINUOUS
 10
365.6601534797
 20
327.566338833
 11
365.6564852105
 21
327.5508854977
  0
SPLINE
  5
49C
100
AcDbEntity
  8
0
100
AcDbSpline
 62
7
  6
CONTINUOUS
 70
0
 71
3
 72
22
 73
18
 74
0
 42
0.0000001
 43
0.0000001
 44
0.0000000001
 40
0.0
 40
0.0
 40
0.0
 40
0.0
 40
0.0978715778
 40
0.1837156873
 40
0.2574181788
 40
0.3190659716
 40
0.3690445057
 40
0.4083207511
 40
0.4391490629
 40
0.4661754773
 40
0.4959423844
 40
0.5335566879
 40
0.5816077616
 40
0.6412146614
 40
0.7128377743
 40
0.7966003496
 40
1.0
 40
1.0
 40
1.0
 40
1.0
 10
365.6564852105
 20
327.5508854977
 30
0.0
 10
365.6314621225
 20
327.4458426131
 30
0.0
 10
365.5813305007
 20
327.2493860119
 30
0.0
 10
365.4992334856
 20
326.9773868732
 30
0.0
 10
365.4154597502
 20
326.7479761535
 30
0.0
 10
365.3303787664
 20
326.5617500384
 30
0.0
 10
365.2440523184
 20
326.4186979973
 30
0.0
 10
365.1561157897
 20
326.3184291197
 30
0.0
 10
365.0624580449
 20
326.260388238
 30
0.0
 10
364.9612550628
 20
326.2553574011
 30
0.0
 10
364.8659345125
 20
326.3053619288
 30
0.0
 10
364.7775235789
 20
326.3985039837
 30
0.0
 10
364.6909525598
 20
326.5341438728
 30
0.0
 10
364.6056771171
 20
326.7129562697
 30
0.0
 10
364.5216393011
 20
326.9349834665
 30
0.0
 10
364.4040322771
 20
327.3131242078
 30
0.0
 10
364.3313562278
 20
327.6219154874
 30
0.0
 10
364.2850995232
 20
327.8415083504
 30
0.0
  0
SPLINE
  5
49D
100
AcDbEntity
  8
0
100
AcDbSpline
 62
7
  6
CONTINUOUS
 70
0
 71
3
 72
9
 73
5
 74
0
 42
0.0000001
 43
0.0000001
 44
0.0000000001
 40
0.0
 40
0.0
 40
0.0
 40
0.0
 40
0.5034567143
 40
1.0
 40
1.0
 40
1.0
 40
1.0
 10
364.2850995232
 20
348.2987604414
 30
0.0
 10
364.4035788512
 20
348.8612132802
 30
0.0
 10
364.5552618531
 20
349.9976784446
 30
0.0
 10
364.5486663184
 20
351.1422646499
 30
0.0
 10
364.5173572724
 20
351.7083024545
 30
0.0
  0
SPLINE
  5
49E
100
AcDbEntity
  8
0
100
AcDbSpline
 62
7
  6
CONTINUOUS
 70
0
 71
3
 72
9
 73
5
 74
0
 42
0.0000001
 43
0.0000001
 44
0.0000000001
 40
0.0
 40
0.0
 40
0.0
 40
0.0
 40
0.4999989533
 40
1.0
 40
1.0
 40
1.0
 40
1.0
 10
354.1125913594
 20
338.0701343957
 30
0.0
 10
354.1125913594
 20
336.9301026092
 30
0.0
 10
354.2024925195
 20
334.6493054213
 30
0.0
 10
354.4482661143
 20
332.3811386376
 30
0.0
 10
354.5985453762
 20
331.2510503663
 30
0.0
  0
SPLINE
  5
49F
100
AcDbEntity
  8
0
100
AcDbSpline
 62
7
  6
CONTINUOUS
 70
0
 71
3
 72
9
 73
5
 74
0
 42
0.0000001
 43
0.0000001
 44
0.0000000001
 40
0.0
 40
0.0
 40
0.0
 40
0.0
 40
0.4966797645
 40
1.0
 40
1.0
 40
1.0
 40
1.0
 10
354.5745853368
 20
330.2580970241
 30
0.0
 10
354.5782899035
 20
329.8552747997
 30
0.0
 10
354.6210227359
 20
329.0439911453
 30
0.0
 10
354.7466580919
 20
328.2409671767
 30
0.0
 10
354.8308031255
 20
327.8415083525
 30
0.0
  0
SPLINE
  5
4A0
100
AcDbEntity
  8
0
100
AcDbSpline
 62
7
  6
CONTINUOUS
 70
0
 71
3
 72
9
 73
5
 74
0
 42
0.0000001
 43
0.0000001
 44
0.0000000001
 40
0.0
 40
0.0
 40
0.0
 40
0.0
 40
0.503320234
 40
1.0
 40
1.0
 40
1.0
 40
1.0
 10
354.830803126
 20
348.2987604414
 30
0.0
 10
354.7466580964
 20
347.8993016366
 30
0.0
 10
354.6210228022
 20
347.0962776957
 30
0.0
 10
354.5782899068
 20
346.2849940879
 30
0.0
 10
354.5745852707
 20
345.8821718812
 30
0.0
  0
SPLINE
  5
4A1
100
AcDbEntity
  8
0
100
AcDbSpline
 62
7
  6
CONTINUOUS
 70
0
 71
3
 72
9
 73
5
 74
0
 42
0.0000001
 43
0.0000001
 44
0.0000000001
 40
0.0
 40
0.0
 40
0.0
 40
0.0
 40
0.5000010464
 40
1.0
 40
1.0
 40
1.0
 40
1.0
 10
354.5985453762
 20
344.8892184251
 30
0.0
 10
354.4482661146
 20
343.7591301562
 30
0.0
 10
354.2024928117
 20
341.4909633499
 30
0.0
 10
354.1125913594
 20
339.2101661812
 30
0.0
 10
354.1125913594
 20
338.0701343957
 30
0.0
  0
SPLINE
  5
4A2
100
AcDbEntity
  8
0
100
AcDbSpline
 62
7
  6
CONTINUOUS
 70
0
 71
3
 72
9
 73
5
 74
0
 42
0.0000001
 43
0.0000001
 44
0.0000000001
 40
0.0
 40
0.0
 40
0.0
 40
0.0
 40
0.4965432882
 40
1.0
 40
1.0
 40
1.0
 40
1.0
 10
364.5173572724
 20
324.4319663369
 30
0.0
 10
364.5486663185
 20
324.9980041441
 30
0.0
 10
364.5552617877
 20
326.1425903467
 30
0.0
 10
364.4035788502
 20
327.2790555168
 30
0.0
 10
364.2850995227
 20
327.8415083525
 30
0.0
  0
SPLINE
  5
4A3
100
AcDbEntity
  8
0
100
AcDbSpline
 62
7
  6
CONTINUOUS
 70
0
 71
3
 72
12
 73
8
 74
0
 42
0.0000001
 43
0.0000001
 44
0.0000000001
 40
0.0
 40
0.0
 40
0.0
 40
0.0
 40
0.2475013822
 40
0.528272482
 40
0.7942703177
 40
0.9071896749
 40
1.0
 40
1.0
 40
1.0
 40
1.0
 10
249.6844077065
 20
229.806908683
 30
0.0
 10
249.7073372206
 20
230.5763521817
 30
0.0
 10
249.7351466027
 20
232.2192881483
 30
0.0
 10
249.7416743233
 20
234.6896805217
 30
0.0
 10
249.7191653278
 20
236.7414507819
 30
0.0
 10
249.6816820037
 20
238.2081681552
 30
0.0
 10
249.6571790853
 20
238.8476030077
 30
0.0
 10
249.6427737313
 20
239.1359043672
 30
0.0
  0
SPLINE
  5
4A4
100
AcDbEntity
  8
0
100
AcDbSpline
 62
7
  6
CONTINUOUS
 70
0
 71
3
 72
15
 73
11
 74
0
 42
0.0000001
 43
0.0000001
 44
0.0000000001
 40
0.0
 40
0.0
 40
0.0
 40
0.0
 40
0.2263558162
 40
0.4253846262
 40
0.5959543449
 40
0.7371413934
 40
0.8481660212
 40
0.9285978557
 40
0.9784071248
 40
1.0
 40
1.0
 40
1.0
 40
1.0
 10
249.6427737313
 20
239.1359043672
 30
0.0
 10
249.6384133378
 20
239.2231710427
 30
0.0
 10
249.6296108296
 20
239.3871239915
 30
0.0
 10
249.6149425494
 20
239.6167670477
 30
0.0
 10
249.5998725259
 20
239.8131845245
 30
0.0
 10
249.5841759273
 20
239.9761516601
 30
0.0
 10
249.5690368276
 20
240.1023329363
 30
0.0
 10
249.5522952663
 20
240.197185934
 30
0.0
 10
249.5397906562
 20
240.2484941573
 30
0.0
 10
249.5242055164
 20
240.2800988932
 30
0.0
 10
249.5158704858
 20
240.2801208895
 30
0.0
  0
SPLINE
  5
4A5
100
AcDbEntity
  8
0
100
AcDbSpline
 62
7
  6
CONTINUOUS
 70
0
 71
3
 72
14
 73
10
 74
0
 42
0.0000001
 43
0.0000001
 44
0.0000000001
 40
0.0
 40
0.0
 40
0.0
 40
0.0
 40
0.4064063339
 40
0.5721045102
 40
0.7116593168
 40
0.824479251
 40
0.9100970435
 40
0.9683595371
 40
1.0
 40
1.0
 40
1.0
 40
1.0
 10
254.9498044565
 20
239.1681411344
 30
0.0
 10
254.9575045572
 20
239.3193575214
 30
0.0
 10
254.9696546769
 20
239.5321933417
 30
0.0
 10
254.9897952756
 20
239.7965340517
 30
0.0
 10
255.0041406885
 20
239.9517259906
 30
0.0
 10
255.0188323926
 20
240.0765764369
 30
0.0
 10
255.033135181
 20
240.1717322035
 30
0.0
 10
255.047921979
 20
240.2343729631
 30
0.0
 10
255.0589605926
 20
240.267747239
 30
0.0
 10
255.0672303885
 20
240.2761478107
 30
0.0
  0
SPLINE
  5
4A6
100
AcDbEntity
  8
0
100
AcDbSpline
 62
7
  6
CONTINUOUS
 70
0
 71
3
 72
9
 73
5
 74
0
 42
0.0000001
 43
0.0000001
 44
0.0000000001
 40
0.0
 40
0.0
 40
0.0
 40
0.0
 40
0.3016170263
 40
1.0
 40
1.0
 40
1.0
 40
1.0
 10
288.1824164657
 20
239.3880830846
 30
0.0
 10
288.1792777028
 20
239.4328237989
 30
0.0
 10
288.1681293805
 20
239.5810908895
 30
0.0
 10
288.1547903806
 20
239.7293000197
 30
0.0
 10
288.1408927227
 20
239.8322159697
 30
0.0
  0
SPLINE
  5
4A7
100
AcDbEntity
  8
0
100
AcDbSpline
 62
7
  6
CONTINUOUS
 70
0
 71
3
 72
9
 73
5
 74
0
 42
0.0000001
 43
0.0000001
 44
0.0000000001
 40
0.0
 40
0.0
 40
0.0
 40
0.0
 40
0.2297456664
 40
1.0
 40
1.0
 40
1.0
 40
1.0
 10
288.2337213869
 20
229.8542479515
 30
0.0
 10
288.2372456514
 20
229.9579375439
 30
0.0
 10
288.2514426571
 20
230.4092997008
 30
0.0
 10
288.2616755214
 20
230.8607808004
 30
0.0
 10
288.268066209
 20
231.2085566229
 30
0.0
  0
SPLINE
  5
4A8
100
AcDbEntity
  8
0
100
AcDbSpline
 62
7
  6
CONTINUOUS
 70
0
 71
3
 72
9
 73
5
 74
0
 42
0.0000001
 43
0.0000001
 44
0.0000000001
 40
0.0
 40
0.0
 40
0.0
 40
0.0
 40
0.5750411946
 40
1.0
 40
1.0
 40
1.0
 40
1.0
 10
288.260384436
 20
237.0340315861
 30
0.0
 10
288.2515066311
 20
237.4396077951
 30
0.0
 10
288.231876507
 20
238.1447967335
 30
0.0
 10
288.2000428446
 20
238.849686087
 30
0.0
 10
288.1792987625
 20
239.1487625274
 30
0.0
  0
SPLINE
  5
4A9
100
AcDbEntity
  8
0
100
AcDbSpline
 62
7
  6
CONTINUOUS
 70
0
 71
3
 72
24
 73
20
 74
0
 42
0.0000001
 43
0.0000001
 44
0.0000000001
 40
0.0
 40
0.0
 40
0.0
 40
0.0
 40
0.002147591
 40
0.0069742662
 40
0.0147428656
 40
0.0254621984
 40
0.0390998374
 40
0.0555943105
 40
0.0748652073
 40
0.0968217775
 40
0.1483330976
 40
0.2090986172
 40
0.2778956408
 40
0.3533363195
 40
0.4338972249
 40
0.5179517028
 40
0.6897154078
 40
0.8548207657
 40
1.0
 40
1.0
 40
1.0
 40
1.0
 10
255.0750819015
 20
240.2801211107
 30
0.0
 10
255.0825899784
 20
240.280101667
 30
0.0
 10
255.0974222919
 20
240.2531695197
 30
0.0
 10
255.109057416
 20
240.2076458856
 30
0.0
 10
255.1248004744
 20
240.1251284544
 30
0.0
 10
255.1389903278
 20
240.0147386228
 30
0.0
 10
255.153779852
 20
239.8722781644
 30
0.0
 10
255.1680212023
 20
239.7002829348
 30
0.0
 10
255.1819653121
 20
239.4989144714
 30
0.0
 10
255.2008705319
 20
239.1752607923
 30
0.0
 10
255.2222047482
 20
238.7064293221
 30
0.0
 10
255.2439762499
 20
238.0737558184
 30
0.0
 10
255.262517563
 20
237.357283647
 30
0.0
 10
255.2774208512
 20
236.5715114755
 30
0.0
 10
255.2883522269
 20
235.7323280185
 30
0.0
 10
255.2973615748
 20
234.5563577511
 30
0.0
 10
255.2976038027
 20
233.0847571531
 30
0.0
 10
255.2813828844
 20
231.3995439507
 30
0.0
 10
255.2587545969
 20
230.3149640747
 30
0.0
 10
255.2436407183
 20
229.8076341706
 30
0.0
  0
SPLINE
  5
4AA
100
AcDbEntity
  8
0
100
AcDbSpline
 62
7
  6
CONTINUOUS
 70
0
 71
3
 72
24
 73
20
 74
0
 42
0.0000001
 43
0.0000001
 44
0.0000000001
 40
0.0
 40
0.0
 40
0.0
 40
0.0
 40
0.123683773
 40
0.2783340604
 40
0.4490061741
 40
0.5352128986
 40
0.619204313
 40
0.6989380983
 40
0.772476219
 40
0.8380328828
 40
0.8940178675
 40
0.9179890722
 40
0.9390791511
 40
0.9571649906
 40
0.9721406918
 40
0.9839201398
 40
0.9924533547
 40
0.9977315639
 40
1.0
 40
1.0
 40
1.0
 40
1.0
 10
255.1829048917
 20
229.8020469622
 30
0.0
 10
255.2007582323
 20
230.1849432128
 30
0.0
 10
255.2273857334
 20
231.0472094419
 30
0.0
 10
255.2502405382
 20
232.4385664498
 30
0.0
 10
255.2565133914
 20
233.7139672862
 30
0.0
 10
255.2533585863
 20
234.7703673464
 30
0.0
 10
255.2467357493
 20
235.5449157062
 30
0.0
 10
255.2360595269
 20
236.280152497
 30
0.0
 10
255.2216155894
 20
236.9581854182
 30
0.0
 10
255.2037855756
 20
237.5625020487
 30
0.0
 10
255.1857625835
 20
238.0131330152
 30
0.0
 10
255.1694927407
 20
238.3258473122
 30
0.0
 10
255.1573689219
 20
238.521230349
 30
0.0
 10
255.1448901977
 20
238.6884341683
 30
0.0
 10
255.1318764413
 20
238.8272571638
 30
0.0
 10
255.1192924021
 20
238.9347164875
 30
0.0
 10
255.1054122661
 20
239.0156612454
 30
0.0
 10
255.0949660054
 20
239.0591413325
 30
0.0
 10
255.0821120477
 20
239.0863000338
 30
0.0
 10
255.0750819
 20
239.086321791
 30
0.0
  0
SPLINE
  5
4AB
100
AcDbEntity
  8
0
100
AcDbSpline
 62
7
  6
CONTINUOUS
 70
0
 71
3
 72
29
 73
25
 74
0
 42
0.0000001
 43
0.0000001
 44
0.0000000001
 40
0.0
 40
0.0
 40
0.0
 40
0.0
 40
0.0043140566
 40
0.0129955672
 40
0.0261094235
 40
0.0435536301
 40
0.0651686705
 40
0.0907806547
 40
0.1529925821
 40
0.2279307501
 40
0.3128411456
 40
0.4046197134
 40
0.4998971612
 40
0.5951757634
 40
0.6869683949
 40
0.7718974069
 40
0.846858123
 40
0.9091126031
 40
0.9347322735
 40
0.9563719442
 40
0.9738379285
 40
0.9869618627
 40
0.9956705918
 40
1.0
 40
1.0
 40
1.0
 40
1.0
 10
73.0777748409
 20
231.5186551704
 30
0.0
 10
73.0728938137
 20
231.5235989589
 30
0.0
 10
73.0679597776
 20
231.5454030468
 30
0.0
 10
73.059954473
 20
231.5856287462
 30
0.0
 10
73.0530271614
 20
231.6490189841
 30
0.0
 10
73.0455898003
 20
231.7324795485
 30
0.0
 10
73.0386102472
 20
231.8364838585
 30
0.0
 10
73.0290194591
 20
232.0124264464
 30
0.0
 10
73.0187948972
 20
232.2743759036
 30
0.0
 10
73.0091353521
 20
232.6318451977
 30
0.0
 10
73.0019452823
 20
233.0370089664
 30
0.0
 10
72.9974995042
 20
233.4749623466
 30
0.0
 10
72.9959994332
 20
233.9296337733
 30
0.0
 10
72.997495224
 20
234.3843278545
 30
0.0
 10
73.0019307449
 20
234.8223358053
 30
0.0
 10
73.0091152439
 20
235.2275886979
 30
0.0
 10
73.0187782156
 20
235.5851926221
 30
0.0
 10
73.0289869833
 20
235.8472601731
 30
0.0
 10
73.0385840257
 20
236.0233229932
 30
0.0
 10
73.0455602009
 20
236.1274152439
 30
0.0
 10
73.0529975832
 20
236.210965912
 30
0.0
 10
73.059935158
 20
236.2744539274
 30
0.0
 10
73.0679567126
 20
236.3147545517
 30
0.0
 10
73.0728407911
 20
236.3366509822
 30
0.0
 10
73.0777319551
 20
236.3416194934
 30
0.0
  0
SPLINE
  5
4AC
100
AcDbEntity
  8
0
100
AcDbSpline
 62
7
  6
CONTINUOUS
 70
0
 71
3
 72
26
 73
22
 74
0
 42
0.0000001
 43
0.0000001
 44
0.0000000001
 40
0.0
 40
0.0
 40
0.0
 40
0.0
 40
0.0070262529
 40
0.0173674335
 40
0.03232352
 40
0.0754730125
 40
0.1349012966
 40
0.2083347186
 40
0.2929638321
 40
0.4825443339
 40
0.5802127097
 40
0.6748159284
 40
0.7627135921
 40
0.8405449056
 40
0.905329651
 40
0.9320240738
 40
0.9545791582
 40
0.9727872574
 40
0.9864635795
 40
0.9955236901
 40
1.0
 40
1.0
 40
1.0
 40
1.0
 10
73.0777319551
 20
236.3416194934
 30
0.0
 10
73.0856737324
 20
236.3496868593
 30
0.0
 10
73.0982878497
 20
236.2960679535
 30
0.0
 10
73.1026535283
 20
236.260127644
 30
0.0
 10
73.1161311395
 20
236.140849638
 30
0.0
 10
73.1267404344
 20
235.958985616
 30
0.0
 10
73.1399132027
 20
235.6722986062
 30
0.0
 10
73.1500454787
 20
235.3232639842
 30
0.0
 10
73.1612277258
 20
234.7627296699
 30
0.0
 10
73.1656921965
 20
234.1638124516
 30
0.0
 10
73.164408783
 20
233.5485368406
 30
0.0
 10
73.1603088685
 20
233.0971591376
 30
0.0
 10
73.1533138672
 20
232.6777659843
 30
0.0
 10
73.1436884515
 20
232.3064992563
 30
0.0
 10
73.1333979746
 20
232.033864788
 30
0.0
 10
73.1236627076
 20
231.8504329511
 30
0.0
 10
73.1165689981
 20
231.7418797006
 30
0.0
 10
73.1089740013
 20
231.6547446491
 30
0.0
 10
73.1019257254
 20
231.588529978
 30
0.0
 10
73.093672217
 20
231.5466022945
 30
0.0
 10
73.0887586805
 20
231.5237888838
 30
0.0
 10
73.0836991052
 20
231.5186492981
 30
0.0
  0
SPLINE
  5
4AD
100
AcDbEntity
  8
0
100
AcDbSpline
 62
7
  6
CONTINUOUS
 70
0
 71
3
 72
29
 73
25
 74
0
 42
0.0000001
 43
0.0000001
 44
0.0000000001
 40
0.0
 40
0.0
 40
0.0
 40
0.0
 40
0.0029004274
 40
0.0101210866
 40
0.021878553
 40
0.0381018211
 40
0.0586461505
 40
0.0833417409
 40
0.1441952448
 40
0.218404986
 40
0.3031885182
 40
0.3953640169
 40
0.4914780877
 40
0.5879243294
 40
0.6810805061
 40
0.7674556835
 40
0.8438129784
 40
0.9072855631
 40
0.9334313908
 40
0.9555087115
 40
0.9733300643
 40
0.986723835
 40
0.9956006225
 40
1.0
 40
1.0
 40
1.0
 40
1.0
 10
73.8422513402
 20
237.1051169281
 30
0.0
 10
73.8484006966
 20
237.1050701592
 30
0.0
 10
73.8570675059
 20
237.0776424762
 30
0.0
 10
73.8657332886
 20
237.0384241518
 30
0.0
 10
73.8757852071
 20
236.9609620842
 30
0.0
 10
73.8853671589
 20
236.8600143418
 30
0.0
 10
73.8948993817
 20
236.7294732928
 30
0.0
 10
73.9078737667
 20
236.5051624415
 30
0.0
 10
73.9218213158
 20
236.1665429636
 30
0.0
 10
73.9350420291
 20
235.7006682286
 30
0.0
 10
73.9450179677
 20
235.1682000576
 30
0.0
 10
73.9513375925
 20
234.5892622711
 30
0.0
 10
73.9537213903
 20
233.9855588923
 30
0.0
 10
73.9520708884
 20
233.3797758247
 30
0.0
 10
73.9464508332
 20
232.7946669985
 30
0.0
 10
73.9371177896
 20
232.2521965523
 30
0.0
 10
73.9244313134
 20
231.772768106
 30
0.0
 10
73.9109318692
 20
231.4210717352
 30
0.0
 10
73.898219628
 20
231.1846436462
 30
0.0
 10
73.8889611101
 20
231.0447955755
 30
0.0
 10
73.879072345
 20
230.9325509302
 30
0.0
 10
73.8698794409
 20
230.847253657
 30
0.0
 10
73.8591779872
 20
230.7931690357
 30
0.0
 10
73.8527207868
 20
230.7637748579
 30
0.0
 10
73.846177097
 20
230.7571276883
 30
0.0
  0
SPLINE
  5
4AE
100
AcDbEntity
  8
0
100
AcDbSpline
 62
7
  6
CONTINUOUS
 70
0
 71
3
 72
14
 73
10
 74
0
 42
0.0000001
 43
0.0000001
 44
0.0000000001
 40
0.0
 40
0.0
 40
0.0
 40
0.0
 40
0.3526239025
 40
0.514680736
 40
0.6602238772
 40
0.7847175743
 40
0.8843082035
 40
0.9563039064
 40
1.0
 40
1.0
 40
1.0
 40
1.0
 10
158.7070327861
 20
338.0701343957
 30
0.0
 10
158.7070327861
 20
337.7851827603
 30
0.0
 10
158.7156186886
 20
337.3691492965
 30
0.0
 10
158.746466476
 20
336.8365166207
 30
0.0
 10
158.7768132264
 20
336.4884971846
 30
0.0
 10
158.8138718215
 20
336.1923354494
 30
0.0
 10
158.8557814734
 20
335.9557838015
 30
0.0
 10
158.9012997609
 20
335.7893962831
 30
0.0
 10
158.939746816
 20
335.7004810482
 30
0.0
 10
158.9645388766
 20
335.675337967
 30
0.0
  0
SPLINE
  5
4AF
100
AcDbEntity
  8
0
100
AcDbSpline
 62
7
  6
CONTINUOUS
 70
0
 71
3
 72
14
 73
10
 74
0
 42
0.0000001
 43
0.0000001
 44
0.0000000001
 40
0.0
 40
0.0
 40
0.0
 40
0.0
 40
0.0436938502
 40
0.1156874082
 40
0.2152734074
 40
0.3397696278
 40
0.4853144756
 40
0.6473773826
 40
1.0
 40
1.0
 40
1.0
 40
1.0
 10
158.9645388603
 20
340.4649320048
 30
0.0
 10
158.9397517758
 20
340.4397865449
 30
0.0
 10
158.9012986882
 20
340.3508815954
 30
0.0
 10
158.855788587
 20
340.1844962193
 30
0.0
 10
158.8138724723
 20
339.9479507712
 30
0.0
 10
158.7768168042
 20
339.6517881512
 30
0.0
 10
158.7464667289
 20
339.3037608044
 30
0.0
 10
158.7156192146
 20
338.7711225078
 30
0.0
 10
158.7070327861
 20
338.3550850994
 30
0.0
 10
158.7070327861
 20
338.0701343957
 30
0.0
  0
SPLINE
  5
4B0
100
AcDbEntity
  8
0
100
AcDbSpline
 62
7
  6
CONTINUOUS
 70
0
 71
3
 72
14
 73
10
 74
0
 42
0.0000001
 43
0.0000001
 44
0.0000000001
 40
0.0
 40
0.0
 40
0.0
 40
0.0
 40
0.3526064853
 40
0.5146581352
 40
0.6602328016
 40
0.7847161626
 40
0.8843153222
 40
0.9563256331
 40
1.0
 40
1.0
 40
1.0
 40
1.0
 10
159.3707040119
 20
338.0701343957
 30
0.0
 10
159.3707040119
 20
337.6952166556
 30
0.0
 10
159.3819974174
 20
337.1478284362
 30
0.0
 10
159.4225933376
 20
336.4469865371
 30
0.0
 10
159.4625035541
 20
335.9890493944
 30
0.0
 10
159.5112809887
 20
335.5993269837
 30
0.0
 10
159.5664502016
 20
335.2880806136
 30
0.0
 10
159.6262601036
 20
335.0690989546
 30
0.0
 10
159.676941894
 20
334.9521810989
 30
0.0
 10
159.7095279627
 20
334.9190959949
 30
0.0
  0
SPLINE
  5
4B1
100
AcDbEntity
  8
0
100
AcDbSpline
 62
7
  6
CONTINUOUS
 70
0
 71
3
 72
14
 73
10
 74
0
 42
0.0000001
 43
0.0000001
 44
0.0000000001
 40
0.0
 40
0.0
 40
0.0
 40
0.0
 40
0.0436743669
 40
0.1156846778
 40
0.2152838374
 40
0.3397671984
 40
0.4853418648
 40
0.6473935147
 40
1.0
 40
1.0
 40
1.0
 40
1.0
 10
159.7095279627
 20
341.2211727966
 30
0.0
 10
159.676941894
 20
341.1880876926
 30
0.0
 10
159.6262601036
 20
341.0711698369
 30
0.0
 10
159.5664502016
 20
340.8521881779
 30
0.0
 10
159.5112809887
 20
340.5409418078
 30
0.0
 10
159.4625035541
 20
340.1512193971
 30
0.0
 10
159.4225933376
 20
339.6932822544
 30
0.0
 10
159.3819974174
 20
338.9924403553
 30
0.0
 10
159.3707040119
 20
338.4450521359
 30
0.0
 10
159.3707040119
 20
338.0701343957
 30
0.0
  0
SPLINE
  5
4B2
100
AcDbEntity
  8
0
100
AcDbSpline
 62
7
  6
CONTINUOUS
 70
0
 71
3
 72
30
 73
26
 74
0
 42
0.0000001
 43
0.0000001
 44
0.0000000001
 40
0.0
 40
0.0
 40
0.0
 40
0.0
 40
0.0043986468
 40
0.013274882
 40
0.0266722497
 40
0.0444885727
 40
0.0665692705
 40
0.0927170101
 40
0.1561897156
 40
0.2325413814
 40
0.3189161735
 40
0.4120748768
 40
0.5085215364
 40
0.6046363327
 40
0.6968128245
 40
0.7815938579
 40
0.855801256
 40
0.8880550594
 40
0.9166591796
 40
0.9413508851
 40
0.961902223
 40
0.9781212904
 40
0.9898803683
 40
0.9971024853
 40
1.0
 40
1.0
 40
1.0
 40
1.0
 10
387.0937528388
 20
228.7264033955
 30
0.0
 10
387.1044827347
 20
228.7373029705
 30
0.0
 10
387.1150942396
 20
228.7854953064
 30
0.0
 10
387.1326332325
 20
228.8742085734
 30
0.0
 10
387.1476943292
 20
229.0140891556
 30
0.0
 10
387.1639214472
 20
229.1981776531
 30
0.0
 10
387.1790981739
 20
229.4275302541
 30
0.0
 10
387.1999553336
 20
229.8152917021
 30
0.0
 10
387.2220857998
 20
230.3920630743
 30
0.0
 10
387.2428959515
 20
231.1783070197
 30
0.0
 10
387.2582035671
 20
232.0679487567
 30
0.0
 10
387.2674185745
 20
233.02753827
 30
0.0
 10
387.2701249131
 20
234.0210389458
 30
0.0
 10
387.2662152368
 20
235.0111180885
 30
0.0
 10
387.2558583369
 20
235.9605908699
 30
0.0
 10
387.2394726409
 20
236.8337779573
 30
0.0
 10
387.220668813
 20
237.4985355848
 30
0.0
 10
387.202507341
 20
237.9677877571
 30
0.0
 10
387.1884859559
 20
238.2650416419
 30
0.0
 10
387.1736461732
 20
238.5210663273
 30
0.0
 10
387.1580245717
 20
238.7351597254
 30
0.0
 10
387.1423078556
 20
238.9007240957
 30
0.0
 10
387.1258080054
 20
239.0277680938
 30
0.0
 10
387.111651743
 20
239.0920728274
 30
0.0
 10
387.0973895861
 20
239.1370613411
 30
0.0
 10
387.08731459
 20
239.1371140507
 30
0.0
  0
SPLINE
  5
4B3
100
AcDbEntity
  8
0
100
AcDbSpline
 62
7
  6
CONTINUOUS
 70
0
 71
3
 72
10
 73
6
 74
0
 42
0.0000001
 43
0.0000001
 44
0.0000000001
 40
0.0
 40
0.0
 40
0.0
 40
0.0
 40
0.187655451
 40
0.5309120712
 40
1.0
 40
1.0
 40
1.0
 40
1.0
 10
397.7529940091
 20
345.6901304129
 30
0.0
 10
397.7694862423
 20
345.6901304129
 30
0.0
 10
397.8164215589
 20
345.6790026002
 30
0.0
 10
397.8852468846
 20
345.6199587826
 30
0.0
 10
397.9246984515
 20
345.5601649823
 30
0.0
 10
397.9452084429
 20
345.524402798
 30
0.0
  0
SPLINE
  5
4B4
100
AcDbEntity
  8
0
100
AcDbSpline
 62
7
  6
CONTINUOUS
 70
0
 71
3
 72
9
 73
5
 74
0
 42
0.0000001
 43
0.0000001
 44
0.0000000001
 40
0.0
 40
0.0
 40
0.0
 40
0.0
 40
0.2374512162
 40
1.0
 40
1.0
 40
1.0
 40
1.0
 10
397.9452084429
 20
345.524402798
 30
0.0
 10
397.9483355363
 20
345.5189502511
 30
0.0
 10
397.9612522014
 20
345.4958426635
 30
0.0
 10
397.9732120583
 20
345.4722065334
 30
0.0
 10
397.9819052132
 20
345.4539887801
 30
0.0
  0
SPLINE
  5
4B5
100
AcDbEntity
  8
0
100
AcDbSpline
 62
7
  6
CONTINUOUS
 70
0
 71
3
 72
9
 73
5
 74
0
 42
0.0000001
 43
0.0000001
 44
0.0000000001
 40
0.0
 40
0.0
 40
0.0
 40
0.0
 40
0.2338542972
 40
1.0
 40
1.0
 40
1.0
 40
1.0
 10
397.9819052132
 20
345.4539887801
 30
0.0
 10
397.986477455
 20
345.4444069914
 30
0.0
 10
398.0055203569
 20
345.4031910542
 30
0.0
 10
398.0226811908
 20
345.3611207508
 30
0.0
 10
398.0350542064
 20
345.3286135144
 30
0.0
  0
SPLINE
  5
4B6
100
AcDbEntity
  8
0
100
AcDbSpline
 62
7
  6
CONTINUOUS
 70
0
 71
3
 72
8
 73
4
 74
0
 42
0.0000001
 43
0.0000001
 44
0.0000000001
 40
0.0
 40
0.0
 40
0.0
 40
0.0
 40
1.0
 40
1.0
 40
1.0
 40
1.0
 10
371.7851932398
 20
346.0075981387
 30
0.0
 10
371.7694535333
 20
346.007598034
 30
0.0
 10
371.7535069145
 20
346.0042415052
 30
0.0
 10
371.7388660909
 20
345.9984635607
 30
0.0
  0
SPLINE
  5
4B7
100
AcDbEntity
  8
0
100
AcDbSpline
 62
7
  6
CONTINUOUS
 70
0
 71
3
 72
9
 73
5
 74
0
 42
0.0000001
 43
0.0000001
 44
0.0000000001
 40
0.0
 40
0.0
 40
0.0
 40
0.0
 40
0.734412121
 40
1.0
 40
1.0
 40
1.0
 40
1.0
 10
371.7388660909
 20
345.9984635607
 30
0.0
 10
371.7274873688
 20
345.993972992
 30
0.0
 10
371.712729532
 20
345.9858761522
 30
0.0
 10
371.6992224426
 20
345.9761357088
 30
0.0
 10
371.6957097141
 20
345.9734467456
 30
0.0
  0
SPLINE
  5
4B8
100
AcDbEntity
  8
0
100
AcDbSpline
 62
7
  6
CONTINUOUS
 70
0
 71
3
 72
17
 73
13
 74
0
 42
0.0000001
 43
0.0000001
 44
0.0000000001
 40
0.0
 40
0.0
 40
0.0
 40
0.0
 40
0.0167916714
 40
0.0403896773
 40
0.0713364678
 40
0.1096732869
 40
0.2077341216
 40
0.3319404668
 40
0.4783696252
 40
0.6422269221
 40
0.8180647797
 40
1.0
 40
1.0
 40
1.0
 40
1.0
 10
371.6957097141
 20
345.9734467456
 30
0.0
 10
371.6600872016
 20
345.9461780216
 30
0.0
 10
371.5925206784
 20
345.8588080022
 30
0.0
 10
371.5092006929
 20
345.6874170258
 30
0.0
 10
371.4269510537
 20
345.4526666058
 30
0.0
 10
371.3110358381
 20
345.0207248978
 30
0.0
 10
371.1842909517
 20
344.3351764413
 30
0.0
 10
371.0581150178
 20
343.3581138382
 30
0.0
 10
370.9547112517
 20
342.2016317485
 30
0.0
 10
370.8777710585
 20
340.9050209461
 30
0.0
 10
370.8304479295
 20
339.5120791486
 30
0.0
 10
370.8198548426
 20
338.5562010612
 30
0.0
 10
370.8198548426
 20
338.0701343957
 30
0.0
  0
SPLINE
  5
4B9
100
AcDbEntity
  8
0
100
AcDbSpline
 62
7
  6
CONTINUOUS
 70
0
 71
3
 72
10
 73
6
 74
0
 42
0.0000001
 43
0.0000001
 44
0.0000000001
 40
0.0
 40
0.0
 40
0.0
 40
0.0
 40
0.195228754
 40
0.5414441623
 40
1.0
 40
1.0
 40
1.0
 40
1.0
 10
372.5415369482
 20
346.0075981387
 30
0.0
 10
372.5569326599
 20
346.0075980363
 30
0.0
 10
372.5999036466
 20
345.998631205
 30
0.0
 10
372.6645826335
 20
345.949586793
 30
0.0
 10
372.7024575622
 20
345.898233053
 30
0.0
 10
372.7219363196
 20
345.8677659759
 30
0.0
  0
SPLINE
  5
4BA
100
AcDbEntity
  8
0
100
AcDbSpline
 62
7
  6
CONTINUOUS
 70
0
 71
3
 72
17
 73
13
 74
0
 42
0.0000001
 43
0.0000001
 44
0.0000000001
 40
0.0
 40
0.0
 40
0.0
 40
0.0
 40
0.1820381216
 40
0.3579661697
 40
0.5218913455
 40
0.66835439
 40
0.7925526749
 40
0.8905575697
 40
0.9288481953
 40
0.959737965
 40
0.9832711554
 40
1.0
 40
1.0
 40
1.0
 40
1.0
 10
370.8198548426
 20
338.0701343957
 30
0.0
 10
370.8198548426
 20
337.5837119252
 30
0.0
 10
370.8304628322
 20
336.6271588338
 30
0.0
 10
370.877853339
 20
335.2332892941
 30
0.0
 10
370.9548996193
 20
333.9359544031
 30
0.0
 10
371.0584398049
 20
332.7790378748
 30
0.0
 10
371.1847717552
 20
331.8019120876
 30
0.0
 10
371.3116669318
 20
331.1165664477
 30
0.0
 10
371.4277307291
 20
330.6850281222
 30
0.0
 10
371.5100645977
 20
330.4507318253
 30
0.0
 10
371.5934475148
 20
330.2798895399
 30
0.0
 10
371.6611296081
 20
330.1929676461
 30
0.0
 10
371.6967835084
 20
330.1660051032
 30
0.0
  0
SPLINE
  5
4BB
100
AcDbEntity
  8
0
100
AcDbSpline
 62
7
  6
CONTINUOUS
 70
0
 71
3
 72
8
 73
4
 74
0
 42
0.0000001
 43
0.0000001
 44
0.0000000001
 40
0.0
 40
0.0
 40
0.0
 40
0.0
 40
1.0
 40
1.0
 40
1.0
 40
1.0
 10
371.6967835084
 20
330.1660051032
 30
0.0
 10
371.7095286788
 20
330.1563668252
 30
0.0
 10
371.7234570433
 20
330.1479595806
 30
0.0
 10
371.7382958541
 20
330.1420312194
 30
0.0
  0
SPLINE
  5
4BC
100
AcDbEntity
  8
0
100
AcDbSpline
 62
7
  6
CONTINUOUS
 70
0
 71
3
 72
8
 73
4
 74
0
 42
0.0000001
 43
0.0000001
 44
0.0000000001
 40
0.0
 40
0.0
 40
0.0
 40
0.0
 40
1.0
 40
1.0
 40
1.0
 40
1.0
 10
371.7382958541
 20
330.1420312194
 30
0.0
 10
371.753098987
 20
330.1361171121
 30
0.0
 10
371.7692524269
 20
330.1326705467
 30
0.0
 10
371.7851932365
 20
330.1326706527
 30
0.0
  0
SPLINE
  5
4BD
100
AcDbEntity
  8
0
100
AcDbSpline
 62
7
  6
CONTINUOUS
 70
0
 71
3
 72
9
 73
5
 74
0
 42
0.0000001
 43
0.0000001
 44
0.0000000001
 40
0.0
 40
0.0
 40
0.0
 40
0.0
 40
0.2617756529
 40
1.0
 40
1.0
 40
1.0
 40
1.0
 10
372.7549307762
 20
330.329028061
 30
0.0
 10
372.7521900573
 20
330.3239211504
 30
0.0
 10
372.7415558299
 20
330.3045018681
 30
0.0
 10
372.7302396639
 20
330.2854505427
 30
0.0
 10
372.7214167506
 20
330.2716916861
 30
0.0
  0
SPLINE
  5
4BE
100
AcDbEntity
  8
0
100
AcDbSpline
 62
7
  6
CONTINUOUS
 70
0
 71
3
 72
9
 73
5
 74
0
 42
0.0000001
 43
0.0000001
 44
0.0000000001
 40
0.0
 40
0.0
 40
0.0
 40
0.0
 40
0.3253391308
 40
1.0
 40
1.0
 40
1.0
 40
1.0
 10
372.7214167506
 20
330.2716916861
 30
0.0
 10
372.7078564628
 20
330.2505451499
 30
0.0
 10
372.6646370254
 20
330.1887937546
 30
0.0
 10
372.5936304652
 20
330.1326703062
 30
0.0
 10
372.5415369516
 20
330.1326706527
 30
0.0
  0
SPLINE
  5
4BF
100
AcDbEntity
  8
0
100
AcDbSpline
 62
7
  6
CONTINUOUS
 70
0
 71
3
 72
9
 73
5
 74
0
 42
0.0000001
 43
0.0000001
 44
0.0000000001
 40
0.0
 40
0.0
 40
0.0
 40
0.0
 40
0.2163133913
 40
1.0
 40
1.0
 40
1.0
 40
1.0
 10
398.0409852015
 20
345.4463490063
 30
0.0
 10
398.0539290869
 20
345.4121810787
 30
0.0
 10
398.1098645503
 20
345.2527463307
 30
0.0
 10
398.153201238
 20
345.089156527
 30
0.0
 10
398.1836822232
 20
344.9603410472
 30
0.0
  0
SPLINE
  5
4C0
100
AcDbEntity
  8
0
100
AcDbSpline
 62
7
  6
CONTINUOUS
 70
0
 71
3
 72
9
 73
5
 74
0
 42
0.0000001
 43
0.0000001
 44
0.0000000001
 40
0.0
 40
0.0
 40
0.0
 40
0.0
 40
0.445972697
 40
1.0
 40
1.0
 40
1.0
 40
1.0
 10
398.1777512281
 20
344.8426055553
 30
0.0
 10
398.231138647
 20
344.6162241012
 30
0.0
 10
398.3259314196
 20
344.1028327082
 30
0.0
 10
398.3942174537
 20
343.5856799879
 30
0.0
 10
398.4271460894
 20
343.2986164521
 30
0.0
  0
SPLINE
  5
4C1
100
AcDbEntity
  8
0
100
AcDbSpline
 62
7
  6
CONTINUOUS
 70
0
 71
3
 72
9
 73
5
 74
0
 42
0.0000001
 43
0.0000001
 44
0.0000000001
 40
0.0
 40
0.0
 40
0.0
 40
0.0
 40
0.554027303
 40
1.0
 40
1.0
 40
1.0
 40
1.0
 10
398.4271460894
 20
332.8416523394
 30
0.0
 10
398.3942174537
 20
332.5545888036
 30
0.0
 10
398.3259314196
 20
332.0374360833
 30
0.0
 10
398.231138647
 20
331.5240446903
 30
0.0
 10
398.1777512281
 20
331.2976632362
 30
0.0
  0
SPLINE
  5
4C2
100
AcDbEntity
  8
0
100
AcDbSpline
 62
7
  6
CONTINUOUS
 70
0
 71
3
 72
9
 73
5
 74
0
 42
0.0000001
 43
0.0000001
 44
0.0000000001
 40
0.0
 40
0.0
 40
0.0
 40
0.0
 40
0.2836385781
 40
1.0
 40
1.0
 40
1.0
 40
1.0
 10
398.1836822232
 20
331.1799277443
 30
0.0
 10
398.1726510308
 20
331.1333088989
 30
0.0
 10
398.1319041444
 20
330.9694388098
 30
0.0
 10
398.083848346
 20
330.8070654729
 30
0.0
 10
398.0409852015
 20
330.6939197852
 30
0.0
  0
SPLINE
  5
4C3
100
AcDbEntity
  8
0
100
AcDbSpline
 62
7
  6
CONTINUOUS
 70
0
 71
3
 72
9
 73
5
 74
0
 42
0.0000001
 43
0.0000001
 44
0.0000000001
 40
0.0
 40
0.0
 40
0.0
 40
0.0
 40
0.2662409713
 40
1.0
 40
1.0
 40
1.0
 40
1.0
 10
398.0350542064
 20
330.8116552771
 30
0.0
 10
398.0307545541
 20
330.800358935
 30
0.0
 10
398.0142469726
 20
330.7580692616
 30
0.0
 10
397.9962512374
 20
330.7163441634
 30
0.0
 10
397.9819052132
 20
330.6862800114
 30
0.0
  0
SPLINE
  5
4C4
100
AcDbEntity
  8
0
100
AcDbSpline
 62
7
  6
CONTINUOUS
 70
0
 71
3
 72
9
 73
5
 74
0
 42
0.0000001
 43
0.0000001
 44
0.0000000001
 40
0.0
 40
0.0
 40
0.0
 40
0.0
 40
0.2626495746
 40
1.0
 40
1.0
 40
1.0
 40
1.0
 10
397.9819052132
 20
330.6862800114
 30
0.0
 10
397.9789110009
 20
330.6800052098
 30
0.0
 10
397.9673170926
 20
330.6562086773
 30
0.0
 10
397.954918829
 20
330.6327974787
 30
0.0
 10
397.9452084429
 20
330.6158659935
 30
0.0
  0
SPLINE
  5
4C5
100
AcDbEntity
  8
0
100
AcDbSpline
 62
7
  6
CONTINUOUS
 70
0
 71
3
 72
9
 73
5
 74
0
 42
0.0000001
 43
0.0000001
 44
0.0000000001
 40
0.0
 40
0.0
 40
0.0
 40
0.0
 40
0.3348190314
 40
1.0
 40
1.0
 40
1.0
 40
1.0
 10
397.9452084429
 20
330.6158659935
 30
0.0
 10
397.9308413196
 20
330.5908148024
 30
0.0
 10
397.8865425405
 20
330.5199545125
 30
0.0
 10
397.8103668773
 20
330.4501383786
 30
0.0
 10
397.7529940091
 20
330.4501383786
 30
0.0
  0
SPLINE
  5
4C6
100
AcDbEntity
  8
0
100
AcDbSpline
 62
7
  6
CONTINUOUS
 70
0
 71
3
 72
17
 73
13
 74
0
 42
0.0000001
 43
0.0000001
 44
0.0000000001
 40
0.0
 40
0.0
 40
0.0
 40
0.0
 40
0.3749924807
 40
0.544704166
 40
0.6938856505
 40
0.7590214594
 40
0.817052522
 40
0.8674843073
 40
0.9099212822
 40
0.9441301361
 40
0.9700923721
 40
1.0
 40
1.0
 40
1.0
 40
1.0
 10
397.1197320216
 20
338.0701343957
 30
0.0
 10
397.1197320216
 20
337.4057195127
 30
0.0
 10
397.141045731
 20
336.4402911706
 30
0.0
 10
397.2188880226
 20
335.2131946089
 30
0.0
 10
397.2843667031
 20
334.5357410207
 30
0.0
 10
397.3478906704
 20
334.0572976373
 30
0.0
 10
397.3969997745
 20
333.753716793
 30
0.0
 10
397.4495296679
 20
333.4911418122
 30
0.0
 10
397.5038128064
 20
333.2735154088
 30
0.0
 10
397.562186631
 20
333.0982176707
 30
0.0
 10
397.6240443636
 20
332.9592805645
 30
0.0
 10
397.7000034169
 20
332.8631735412
 30
0.0
 10
397.7529940077
 20
332.8631730038
 30
0.0
  0
SPLINE
  5
4C7
100
AcDbEntity
  8
0
100
AcDbSpline
 62
7
  6
CONTINUOUS
 70
0
 71
3
 72
17
 73
13
 74
0
 42
0.0000001
 43
0.0000001
 44
0.0000000001
 40
0.0
 40
0.0
 40
0.0
 40
0.0
 40
0.0299073075
 40
0.055868926
 40
0.0900770166
 40
0.1325126157
 40
0.1829434061
 40
0.2409728319
 40
0.3061080141
 40
0.4552892198
 40
0.6250017322
 40
1.0
 40
1.0
 40
1.0
 40
1.0
 10
397.7529940105
 20
343.2770957877
 30
0.0
 10
397.7000039871
 20
343.2770963252
 30
0.0
 10
397.6240459156
 20
343.1809898633
 30
0.0
 10
397.5621883518
 20
343.0420562477
 30
0.0
 10
397.503816124
 20
342.8667630423
 30
0.0
 10
397.4495327135
 20
342.6491424726
 30
0.0
 10
397.3970046559
 20
342.3865743377
 30
0.0
 10
397.3478943601
 20
342.0829995554
 30
0.0
 10
397.2843713468
 20
341.6045605577
 30
0.0
 10
397.2188908551
 20
340.9271073217
 30
0.0
 10
397.1410462637
 20
339.6999996127
 30
0.0
 10
397.1197320216
 20
338.7345595363
 30
0.0
 10
397.1197320216
 20
338.0701343957
 30
0.0
  0
SPLINE
  5
4C8
100
AcDbEntity
  8
0
100
AcDbSpline
 62
7
  6
CONTINUOUS
 70
0
 71
3
 72
10
 73
6
 74
0
 42
0.0000001
 43
0.0000001
 44
0.0000000001
 40
0.0
 40
0.0
 40
0.0
 40
0.0
 40
0.3487778246
 40
0.6318902263
 40
1.0
 40
1.0
 40
1.0
 40
1.0
 10
372.5415369516
 20
330.1326706527
 30
0.0
 10
372.4768745083
 20
330.1326710829
 30
0.0
 10
372.3777672251
 20
330.231784138
 30
0.0
 10
372.294184907
 20
330.390316141
 30
0.0
 10
372.2486672943
 20
330.5042019408
 30
0.0
 10
372.2260292247
 20
330.5685844468
 30
0.0
  0
SPLINE
  5
4C9
100
AcDbEntity
  8
0
100
AcDbSpline
 62
7
  6
CONTINUOUS
 70
0
 71
3
 72
11
 73
7
 74
0
 42
0.0000001
 43
0.0000001
 44
0.0000000001
 40
0.0
 40
0.0
 40
0.0
 40
0.0
 40
0.1656146057
 40
0.3927493138
 40
0.6741390793
 40
1.0
 40
1.0
 40
1.0
 40
1.0
 10
372.2260292247
 20
330.5685844468
 30
0.0
 10
372.153559007
 20
330.7746892222
 30
0.0
 10
372.0316447892
 20
331.2801216368
 30
0.0
 10
371.8888266305
 20
332.1578388029
 30
0.0
 10
371.7672231905
 20
333.2523334832
 30
0.0
 10
371.7070320585
 20
334.0512299303
 30
0.0
 10
371.6805727385
 20
334.4802821482
 30
0.0
  0
SPLINE
  5
4CA
100
AcDbEntity
  8
0
100
AcDbSpline
 62
7
  6
CONTINUOUS
 70
0
 71
3
 72
9
 73
5
 74
0
 42
0.0000001
 43
0.0000001
 44
0.0000000001
 40
0.0
 40
0.0
 40
0.0
 40
0.0
 40
0.2379136879
 40
1.0
 40
1.0
 40
1.0
 40
1.0
 10
371.6805727385
 20
334.4802821482
 30
0.0
 10
371.6630403522
 20
334.7645792967
 30
0.0
 10
371.6003244847
 20
335.9602027268
 30
0.0
 10
371.5761985544
 20
337.1577423277
 30
0.0
 10
371.5761985544
 20
338.0701343957
 30
0.0
  0
SPLINE
  5
4CB
100
AcDbEntity
  8
0
100
AcDbSpline
 62
7
  6
CONTINUOUS
 70
0
 71
3
 72
9
 73
5
 74
0
 42
0.0000001
 43
0.0000001
 44
0.0000000001
 40
0.0
 40
0.0
 40
0.0
 40
0.0
 40
0.2163133913
 40
1.0
 40
1.0
 40
1.0
 40
1.0
 10
372.2535457576
 20
345.4463490063
 30
0.0
 10
372.2406018721
 20
345.4121810787
 30
0.0
 10
372.1846664087
 20
345.2527463307
 30
0.0
 10
372.141329721
 20
345.089156527
 30
0.0
 10
372.1108487359
 20
344.9603410472
 30
0.0
  0
SPLINE
  5
4CC
100
AcDbEntity
  8
0
100
AcDbSpline
 62
7
  6
CONTINUOUS
 70
0
 71
3
 72
10
 73
6
 74
0
 42
0.0000001
 43
0.0000001
 44
0.0000000001
 40
0.0
 40
0.0
 40
0.0
 40
0.0
 40
0.1910482711
 40
0.4249090511
 40
1.0
 40
1.0
 40
1.0
 40
1.0
 10
372.1167797309
 20
344.8426055553
 30
0.0
 10
372.0691912421
 20
344.6408136066
 30
0.0
 10
371.9832097257
 20
344.1873723725
 30
0.0
 10
371.8336797052
 20
343.1123309115
 30
0.0
 10
371.760921859
 20
342.2367292606
 30
0.0
 10
371.7211277085
 20
341.613905057
 30
0.0
  0
SPLINE
  5
4CD
100
AcDbEntity
  8
0
100
AcDbSpline
 62
7
  6
CONTINUOUS
 70
0
 71
3
 72
9
 73
5
 74
0
 42
0.0000001
 43
0.0000001
 44
0.0000000001
 40
0.0
 40
0.0
 40
0.0
 40
0.0
 40
0.2448007133
 40
1.0
 40
1.0
 40
1.0
 40
1.0
 10
371.6587793327
 20
340.3893758417
 30
0.0
 10
371.6514291305
 20
340.2002272499
 30
0.0
 10
371.6254564158
 20
339.427410062
 30
0.0
 10
371.6148120902
 20
338.6540897719
 30
0.0
 10
371.6148120902
 20
338.0701343957
 30
0.0
  0
SPLINE
  5
4CE
100
AcDbEntity
  8
0
100
AcDbSpline
 62
7
  6
CONTINUOUS
 70
0
 71
3
 72
9
 73
5
 74
0
 42
0.0000001
 43
0.0000001
 44
0.0000000001
 40
0.0
 40
0.0
 40
0.0
 40
0.0
 40
0.2537143385
 40
1.0
 40
1.0
 40
1.0
 40
1.0
 10
371.6148120902
 20
338.0701343957
 30
0.0
 10
371.6148120902
 20
337.8739507778
 30
0.0
 10
371.6184590961
 20
337.1007114272
 30
0.0
 10
371.6363719392
 20
336.3275202079
 30
0.0
 10
371.6587793327
 20
335.7508929498
 30
0.0
  0
SPLINE
  5
4CF
100
AcDbEntity
  8
0
100
AcDbSpline
 62
7
  6
CONTINUOUS
 70
0
 71
3
 72
10
 73
6
 74
0
 42
0.0000001
 43
0.0000001
 44
0.0000000001
 40
0.0
 40
0.0
 40
0.0
 40
0.0
 40
0.5750909489
 40
0.8089517289
 40
1.0
 40
1.0
 40
1.0
 40
1.0
 10
371.7211277085
 20
334.5263637345
 30
0.0
 10
371.760921859
 20
333.9035395309
 30
0.0
 10
371.8336797052
 20
333.02793788
 30
0.0
 10
371.9832097257
 20
331.952896419
 30
0.0
 10
372.0691912421
 20
331.4994551849
 30
0.0
 10
372.1167797309
 20
331.2976632362
 30
0.0
  0
SPLINE
  5
4D0
100
AcDbEntity
  8
0
100
AcDbSpline
 62
7
  6
CONTINUOUS
 70
0
 71
3
 72
9
 73
5
 74
0
 42
0.0000001
 43
0.0000001
 44
0.0000000001
 40
0.0
 40
0.0
 40
0.0
 40
0.0
 40
0.2448007133
 40
1.0
 40
1.0
 40
1.0
 40
1.0
 10
396.8702363919
 20
335.7508929498
 30
0.0
 10
396.8628861897
 20
335.9400415416
 30
0.0
 10
396.836913475
 20
336.7128587294
 30
0.0
 10
396.8262691494
 20
337.4861790196
 30
0.0
 10
396.8262691494
 20
338.0701343957
 30
0.0
  0
SPLINE
  5
4D1
100
AcDbEntity
  8
0
100
AcDbSpline
 62
7
  6
CONTINUOUS
 70
0
 71
3
 72
9
 73
5
 74
0
 42
0.0000001
 43
0.0000001
 44
0.0000000001
 40
0.0
 40
0.0
 40
0.0
 40
0.0
 40
0.2537143385
 40
1.0
 40
1.0
 40
1.0
 40
1.0
 10
396.8262691494
 20
338.0701343957
 30
0.0
 10
396.8262691494
 20
338.2663180137
 30
0.0
 10
396.8299161553
 20
339.0395573643
 30
0.0
 10
396.8478289984
 20
339.8127485836
 30
0.0
 10
396.8702363919
 20
340.3893758417
 30
0.0
  0
LINE
  5
4D2
100
AcDbEntity
  8
0
100
AcDbLine
 62
7
  6
CONTINUOUS
 10
396.9293434336
 20
341.562702848
 11
396.9325847677
 21
341.613905057
  0
SPLINE
  5
4D3
100
AcDbEntity
  8
0
100
AcDbSpline
 62
7
  6
CONTINUOUS
 70
0
 71
3
 72
10
 73
6
 74
0
 42
0.0000001
 43
0.0000001
 44
0.0000000001
 40
0.0
 40
0.0
 40
0.0
 40
0.0
 40
0.5750909489
 40
0.8089517289
 40
1.0
 40
1.0
 40
1.0
 40
1.0
 10
396.9325847677
 20
341.613905057
 30
0.0
 10
396.9723789182
 20
342.2367292606
 30
0.0
 10
397.0451367644
 20
343.1123309115
 30
0.0
 10
397.1946667849
 20
344.1873723725
 30
0.0
 10
397.2806483013
 20
344.6408136066
 30
0.0
 10
397.3282367901
 20
344.8426055553
 30
0.0
  0
SPLINE
  5
4D4
100
AcDbEntity
  8
0
100
AcDbSpline
 62
7
  6
CONTINUOUS
 70
0
 71
3
 72
9
 73
5
 74
0
 42
0.0000001
 43
0.0000001
 44
0.0000000001
 40
0.0
 40
0.0
 40
0.0
 40
0.0
 40
0.2836385781
 40
1.0
 40
1.0
 40
1.0
 40
1.0
 10
397.3223057951
 20
344.9603410472
 30
0.0
 10
397.3333369874
 20
345.0069598926
 30
0.0
 10
397.3740838738
 20
345.1708299817
 30
0.0
 10
397.4221396723
 20
345.3332033186
 30
0.0
 10
397.4650028168
 20
345.4463490063
 30
0.0
  0
SPLINE
  5
4D5
100
AcDbEntity
  8
0
100
AcDbSpline
 62
7
  6
CONTINUOUS
 70
0
 71
3
 72
9
 73
5
 74
0
 42
0.0000001
 43
0.0000001
 44
0.0000000001
 40
0.0
 40
0.0
 40
0.0
 40
0.0
 40
0.2662409713
 40
1.0
 40
1.0
 40
1.0
 40
1.0
 10
397.4709338118
 20
345.3286135144
 30
0.0
 10
397.4752334642
 20
345.3399098565
 30
0.0
 10
397.4917410456
 20
345.3821995299
 30
0.0
 10
397.5097367808
 20
345.4239246281
 30
0.0
 10
397.524082805
 20
345.4539887801
 30
0.0
  0
SPLINE
  5
4D6
100
AcDbEntity
  8
0
100
AcDbSpline
 62
7
  6
CONTINUOUS
 70
0
 71
3
 72
10
 73
6
 74
0
 42
0.0000001
 43
0.0000001
 44
0.0000000001
 40
0.0
 40
0.0
 40
0.0
 40
0.0
 40
0.3449803461
 40
0.6192310756
 40
1.0
 40
1.0
 40
1.0
 40
1.0
 10
397.524082805
 20
345.4539887801
 30
0.0
 10
397.540946582
 20
345.4893292443
 30
0.0
 10
397.5745943484
 20
345.5517898215
 30
0.0
 10
397.6398412482
 20
345.6426950636
 30
0.0
 10
397.7097739135
 20
345.6901304129
 30
0.0
 10
397.7529940091
 20
345.6901304129
 30
0.0
  0
SPLINE
  5
4D7
100
AcDbEntity
  8
0
100
AcDbSpline
 62
7
  6
CONTINUOUS
 70
0
 71
3
 72
10
 73
6
 74
0
 42
0.0000001
 43
0.0000001
 44
0.0000000001
 40
0.0
 40
0.0
 40
0.0
 40
0.0
 40
0.3807689244
 40
0.6550196539
 40
1.0
 40
1.0
 40
1.0
 40
1.0
 10
397.7529940091
 20
330.4501383786
 30
0.0
 10
397.7097739135
 20
330.4501383786
 30
0.0
 10
397.6398412482
 20
330.4975737279
 30
0.0
 10
397.5745943484
 20
330.58847897
 30
0.0
 10
397.540946582
 20
330.6509395472
 30
0.0
 10
397.524082805
 20
330.6862800114
 30
0.0
  0
SPLINE
  5
4D8
100
AcDbEntity
  8
0
100
AcDbSpline
 62
7
  6
CONTINUOUS
 70
0
 71
3
 72
9
 73
5
 74
0
 42
0.0000001
 43
0.0000001
 44
0.0000000001
 40
0.0
 40
0.0
 40
0.0
 40
0.0
 40
0.2338542972
 40
1.0
 40
1.0
 40
1.0
 40
1.0
 10
397.524082805
 20
330.6862800114
 30
0.0
 10
397.5195105632
 20
330.6958618001
 30
0.0
 10
397.5004676613
 20
330.7370777373
 30
0.0
 10
397.4833068274
 20
330.7791480406
 30
0.0
 10
397.4709338118
 20
330.8116552771
 30
0.0
  0
SPLINE
  5
4D9
100
AcDbEntity
  8
0
100
AcDbSpline
 62
7
  6
CONTINUOUS
 70
0
 71
3
 72
16
 73
12
 74
0
 42
0.0000001
 43
0.0000001
 44
0.0000000001
 40
0.0
 40
0.0
 40
0.0
 40
0.0
 40
0.1791350882
 40
0.3525248687
 40
0.5145667336
 40
0.6601133208
 40
0.7845665523
 40
0.8841391839
 40
0.9561325708
 40
0.9814728624
 40
1.0
 40
1.0
 40
1.0
 40
1.0
 10
333.1957369329
 20
338.0701343957
 30
0.0
 10
333.1957369329
 20
338.4511601926
 30
0.0
 10
333.2038815161
 20
339.2010208027
 30
0.0
 10
333.240291748
 20
340.2950001669
 30
0.0
 10
333.2994987012
 20
341.3164896301
 30
0.0
 10
333.3794285879
 20
342.2320463327
 30
0.0
 10
333.4765934806
 20
343.0125991592
 30
0.0
 10
333.5879847245
 20
343.6321171103
 30
0.0
 10
333.6952208395
 20
344.0390270402
 30
0.0
 10
333.7938586099
 20
344.2650273337
 30
0.0
 10
333.845724116
 20
344.3441971078
 30
0.0
 10
333.8733840001
 20
344.3722667439
 30
0.0
  0
SPLINE
  5
4DA
100
AcDbEntity
  8
0
100
AcDbSpline
 62
7
  6
CONTINUOUS
 70
0
 71
3
 72
10
 73
6
 74
0
 42
0.0000001
 43
0.0000001
 44
0.0000000001
 40
0.0
 40
0.0
 40
0.0
 40
0.0
 40
0.187655451
 40
0.5309120712
 40
1.0
 40
1.0
 40
1.0
 40
1.0
 10
372.5415369499
 20
345.6901304129
 30
0.0
 10
372.5250447167
 20
345.6901304129
 30
0.0
 10
372.4781094001
 20
345.6790026002
 30
0.0
 10
372.4092840744
 20
345.6199587826
 30
0.0
 10
372.3698325075
 20
345.5601649823
 30
0.0
 10
372.3493225161
 20
345.524402798
 30
0.0
  0
SPLINE
  5
4DB
100
AcDbEntity
  8
0
100
AcDbSpline
 62
7
  6
CONTINUOUS
 70
0
 71
3
 72
9
 73
5
 74
0
 42
0.0000001
 43
0.0000001
 44
0.0000000001
 40
0.0
 40
0.0
 40
0.0
 40
0.0
 40
0.2374512162
 40
1.0
 40
1.0
 40
1.0
 40
1.0
 10
372.3493225161
 20
345.524402798
 30
0.0
 10
372.3461954227
 20
345.5189502511
 30
0.0
 10
372.3332787576
 20
345.4958426635
 30
0.0
 10
372.3213189007
 20
345.4722065334
 30
0.0
 10
372.3126257458
 20
345.4539887801
 30
0.0
  0
SPLINE
  5
4DC
100
AcDbEntity
  8
0
100
AcDbSpline
 62
7
  6
CONTINUOUS
 70
0
 71
3
 72
17
 73
13
 74
0
 42
0.0000001
 43
0.0000001
 44
0.0000000001
 40
0.0
 40
0.0
 40
0.0
 40
0.0
 40
0.1791327804
 40
0.3525057479
 40
0.5145457084
 40
0.6600846034
 40
0.7845337072
 40
0.884102176
 40
0.9236699653
 40
0.9561353774
 40
0.9814699373
 40
1.0
 40
1.0
 40
1.0
 40
1.0
 10
334.562899658
 20
338.0701343957
 30
0.0
 10
334.562899658
 20
337.594903765
 30
0.0
 10
334.5730588794
 20
336.6596900851
 30
0.0
 10
334.6184580637
 20
335.295256945
 30
0.0
 10
334.6923505951
 20
334.0213225347
 30
0.0
 10
334.7918629923
 20
332.8792515241
 30
0.0
 10
334.9135748487
 20
331.9062552406
 30
0.0
 10
335.0360264959
 20
331.2170057853
 30
0.0
 10
335.1477364908
 20
330.7755270779
 30
0.0
 10
335.2275878487
 20
330.5294191951
 30
0.0
 10
335.3089357953
 20
330.3438886802
 30
0.0
 10
335.373568817
 20
330.2451230793
 30
0.0
 10
335.4080607853
 20
330.2100952747
 30
0.0
  0
SPLINE
  5
4DD
100
AcDbEntity
  8
0
100
AcDbSpline
 62
7
  6
CONTINUOUS
 70
0
 71
3
 72
9
 73
5
 74
0
 42
0.0000001
 43
0.0000001
 44
0.0000000001
 40
0.0
 40
0.0
 40
0.0
 40
0.0
 40
0.2163133913
 40
1.0
 40
1.0
 40
1.0
 40
1.0
 10
397.4650028168
 20
330.6939197852
 30
0.0
 10
397.4520589313
 20
330.7280877128
 30
0.0
 10
397.3961234679
 20
330.8875224608
 30
0.0
 10
397.3527867802
 20
331.0511122645
 30
0.0
 10
397.3223057951
 20
331.1799277443
 30
0.0
  0
SPLINE
  5
4DE
100
AcDbEntity
  8
0
100
AcDbSpline
 62
7
  6
CONTINUOUS
 70
0
 71
3
 72
10
 73
6
 74
0
 42
0.0000001
 43
0.0000001
 44
0.0000000001
 40
0.0
 40
0.0
 40
0.0
 40
0.0
 40
0.1910482711
 40
0.4249090511
 40
1.0
 40
1.0
 40
1.0
 40
1.0
 10
397.3282367901
 20
331.2976632362
 30
0.0
 10
397.2806483013
 20
331.4994551849
 30
0.0
 10
397.1946667849
 20
331.952896419
 30
0.0
 10
397.0451367644
 20
333.02793788
 30
0.0
 10
396.9723789182
 20
333.9035395309
 30
0.0
 10
396.9325847677
 20
334.5263637345
 30
0.0
  0
LINE
  5
4DF
100
AcDbEntity
  8
0
100
AcDbLine
 62
7
  6
CONTINUOUS
 10
396.9325847677
 20
334.5263637345
 11
396.9293434336
 21
334.5775659435
  0
SPLINE
  5
4E0
100
AcDbEntity
  8
0
100
AcDbSpline
 62
7
  6
CONTINUOUS
 70
0
 71
3
 72
16
 73
12
 74
0
 42
0.0000001
 43
0.0000001
 44
0.0000000001
 40
0.0
 40
0.0
 40
0.0
 40
0.0
 40
0.0185271376
 40
0.0438674292
 40
0.1158608161
 40
0.2154334477
 40
0.3398866792
 40
0.4854332664
 40
0.6474751313
 40
0.8208649118
 40
1.0
 40
1.0
 40
1.0
 40
1.0
 10
333.8733840001
 20
331.7680020476
 30
0.0
 10
333.845724116
 20
331.7960716836
 30
0.0
 10
333.7938586099
 20
331.8752414578
 30
0.0
 10
333.6952208395
 20
332.1012417513
 30
0.0
 10
333.5879847245
 20
332.5081516812
 30
0.0
 10
333.4765934806
 20
333.1276696323
 30
0.0
 10
333.3794285879
 20
333.9082224588
 30
0.0
 10
333.2994987012
 20
334.8237791614
 30
0.0
 10
333.240291748
 20
335.8452686246
 30
0.0
 10
333.2038815161
 20
336.9392479888
 30
0.0
 10
333.1957369329
 20
337.6891085989
 30
0.0
 10
333.1957369329
 20
338.0701343957
 30
0.0
  0
SPLINE
  5
4E1
100
AcDbEntity
  8
0
100
AcDbSpline
 62
7
  6
CONTINUOUS
 70
0
 71
3
 72
9
 73
5
 74
0
 42
0.0000001
 43
0.0000001
 44
0.0000000001
 40
0.0
 40
0.0
 40
0.0
 40
0.0
 40
0.2586318683
 40
1.0
 40
1.0
 40
1.0
 40
1.0
 10
371.5761985544
 20
338.0701343957
 30
0.0
 10
371.5761985544
 20
338.3798190746
 30
0.0
 10
371.584837753
 20
339.5771763981
 30
0.0
 10
371.6259543876
 20
340.7744753813
 30
0.0
 10
371.6806043763
 20
341.6605025706
 30
0.0
  0
SPLINE
  5
4E2
100
AcDbEntity
  8
0
100
AcDbSpline
 62
7
  6
CONTINUOUS
 70
0
 71
3
 72
11
 73
7
 74
0
 42
0.0000001
 43
0.0000001
 44
0.0000000001
 40
0.0
 40
0.0
 40
0.0
 40
0.0
 40
0.3259084547
 40
0.6073189039
 40
0.8344391765
 40
1.0
 40
1.0
 40
1.0
 40
1.0
 10
371.6806043763
 20
341.6605025706
 30
0.0
 10
371.7070741599
 20
342.0896508374
 30
0.0
 10
371.7672896689
 20
342.8886987422
 30
0.0
 10
371.8889440931
 20
343.9833475648
 30
0.0
 10
372.0318213356
 20
344.8610608726
 30
0.0
 10
372.1537894249
 20
345.3664350777
 30
0.0
 10
372.226304773
 20
345.572466971
 30
0.0
  0
SPLINE
  5
4E3
100
AcDbEntity
  8
0
100
AcDbSpline
 62
7
  6
CONTINUOUS
 70
0
 71
3
 72
10
 73
6
 74
0
 42
0.0000001
 43
0.0000001
 44
0.0000000001
 40
0.0
 40
0.0
 40
0.0
 40
0.0
 40
0.3680438829
 40
0.6511267589
 40
1.0
 40
1.0
 40
1.0
 40
1.0
 10
372.226304773
 20
345.572466971
 30
0.0
 10
372.2489252525
 20
345.6367366786
 30
0.0
 10
372.2944055042
 20
345.7504211473
 30
0.0
 10
372.3779349012
 20
345.9086991597
 30
0.0
 10
372.4769516324
 20
346.0075985684
 30
0.0
 10
372.5415369482
 20
346.0075981387
 30
0.0
  0
SPLINE
  5
4E4
100
AcDbEntity
  8
0
100
AcDbSpline
 62
7
  6
CONTINUOUS
 70
0
 71
3
 72
9
 73
5
 74
0
 42
0.0000001
 43
0.0000001
 44
0.0000000001
 40
0.0
 40
0.0
 40
0.0
 40
0.0
 40
0.2836385781
 40
1.0
 40
1.0
 40
1.0
 40
1.0
 10
372.1108487359
 20
331.1799277443
 30
0.0
 10
372.1218799282
 20
331.1333088989
 30
0.0
 10
372.1626268146
 20
330.9694388098
 30
0.0
 10
372.2106826131
 20
330.8070654729
 30
0.0
 10
372.2535457576
 20
330.6939197852
 30
0.0
  0
SPLINE
  5
4E5
100
AcDbEntity
  8
0
100
AcDbSpline
 62
7
  6
CONTINUOUS
 70
0
 71
3
 72
9
 73
5
 74
0
 42
0.0000001
 43
0.0000001
 44
0.0000000001
 40
0.0
 40
0.0
 40
0.0
 40
0.0
 40
0.2626495746
 40
1.0
 40
1.0
 40
1.0
 40
1.0
 10
372.3126257458
 20
330.6862800114
 30
0.0
 10
372.3156199581
 20
330.6800052098
 30
0.0
 10
372.3272138664
 20
330.6562086773
 30
0.0
 10
372.33961213
 20
330.6327974787
 30
0.0
 10
372.3493225161
 20
330.6158659935
 30
0.0
  0
SPLINE
  5
4E6
100
AcDbEntity
  8
0
100
AcDbSpline
 62
7
  6
CONTINUOUS
 70
0
 71
3
 72
9
 73
5
 74
0
 42
0.0000001
 43
0.0000001
 44
0.0000000001
 40
0.0
 40
0.0
 40
0.0
 40
0.0
 40
0.3348190314
 40
1.0
 40
1.0
 40
1.0
 40
1.0
 10
372.3493225161
 20
330.6158659935
 30
0.0
 10
372.3636896394
 20
330.5908148024
 30
0.0
 10
372.4079884185
 20
330.5199545125
 30
0.0
 10
372.4841640817
 20
330.4501383786
 30
0.0
 10
372.5415369499
 20
330.4501383786
 30
0.0
  0
SPLINE
  5
4E7
100
AcDbEntity
  8
0
100
AcDbSpline
 62
7
  6
CONTINUOUS
 70
0
 71
3
 72
17
 73
13
 74
0
 42
0.0000001
 43
0.0000001
 44
0.0000000001
 40
0.0
 40
0.0
 40
0.0
 40
0.0
 40
0.0185300627
 40
0.0438646226
 40
0.0763300347
 40
0.115897824
 40
0.2154662928
 40
0.3399153966
 40
0.4854542916
 40
0.6474942521
 40
0.8208672196
 40
1.0
 40
1.0
 40
1.0
 40
1.0
 10
335.4080607853
 20
345.9301735168
 30
0.0
 10
335.373568817
 20
345.8951457122
 30
0.0
 10
335.3089357953
 20
345.7963801113
 30
0.0
 10
335.2275878487
 20
345.6108495964
 30
0.0
 10
335.1477364908
 20
345.3647417136
 30
0.0
 10
335.0360264959
 20
344.9232630062
 30
0.0
 10
334.9135748487
 20
344.2340135509
 30
0.0
 10
334.7918629923
 20
343.2610172674
 30
0.0
 10
334.6923505951
 20
342.1189462568
 30
0.0
 10
334.6184580637
 20
340.8450118465
 30
0.0
 10
334.5730588794
 20
339.4805787064
 30
0.0
 10
334.562899658
 20
338.5453650265
 30
0.0
 10
334.562899658
 20
338.0701343957
 30
0.0
  0
SPLINE
  5
4E8
100
AcDbEntity
  8
0
100
AcDbSpline
 62
7
  6
CONTINUOUS
 70
0
 71
3
 72
16
 73
12
 74
0
 42
0.0000001
 43
0.0000001
 44
0.0000000001
 40
0.0
 40
0.0
 40
0.0
 40
0.0
 40
0.3750034832
 40
0.5447058863
 40
0.6938904782
 40
0.8170421807
 40
0.8674760273
 40
0.9099146667
 40
0.9441210865
 40
0.9700902588
 40
1.0
 40
1.0
 40
1.0
 40
1.0
 10
501.7532299394
 20
338.0701343957
 30
0.0
 10
501.7532299394
 20
337.4057067294
 30
0.0
 10
501.7318607553
 20
336.4402854271
 30
0.0
 10
501.6541517279
 20
335.2131919098
 30
0.0
 10
501.5784448317
 20
334.4334163852
 30
0.0
 10
501.4985281026
 20
333.8670327904
 30
0.0
 10
501.4234467589
 20
333.4911669857
 30
0.0
 10
501.3691591663
 20
333.273532912
 30
0.0
 10
501.3107620754
 20
333.0982353034
 30
0.0
 10
501.2489324271
 20
332.9592794045
 30
0.0
 10
501.1729617516
 20
332.8631468033
 30
0.0
 10
501.1199679518
 20
332.8631511862
 30
0.0
  0
SPLINE
  5
4E9
100
AcDbEntity
  8
0
100
AcDbSpline
 62
7
  6
CONTINUOUS
 70
0
 71
3
 72
15
 73
11
 74
0
 42
0.0000001
 43
0.0000001
 44
0.0000000001
 40
0.0
 40
0.0
 40
0.0
 40
0.0
 40
0.3750389728
 40
0.5447267247
 40
0.6939259872
 40
0.8170780681
 40
0.9099090288
 40
0.9441251176
 40
0.9700871172
 40
1.0
 40
1.0
 40
1.0
 40
1.0
 10
500.7338325937
 20
338.0701343957
 30
0.0
 10
500.7338325937
 20
337.6649712678
 30
0.0
 10
500.746800435
 20
337.0763279558
 30
0.0
 10
500.7943406049
 20
336.3280142646
 30
0.0
 10
500.8401410982
 20
335.8527337231
 30
0.0
 10
500.896269253
 20
335.4615157328
 30
0.0
 10
500.950822591
 20
335.1977349912
 30
0.0
 10
501.0035877354
 20
335.0385103024
 30
0.0
 10
501.0413572991
 20
334.9537734954
 30
0.0
 10
501.087652385
 20
334.8951471872
 30
0.0
 10
501.1199679517
 20
334.8951529221
 30
0.0
  0
SPLINE
  5
4EA
100
AcDbEntity
  8
0
100
AcDbSpline
 62
7
  6
CONTINUOUS
 70
0
 71
3
 72
15
 73
11
 74
0
 42
0.0000001
 43
0.0000001
 44
0.0000000001
 40
0.0
 40
0.0
 40
0.0
 40
0.0
 40
0.0299110463
 40
0.0558734167
 40
0.0900866519
 40
0.1829150021
 40
0.3060662624
 40
0.4552680247
 40
0.6249604097
 40
1.0
 40
1.0
 40
1.0
 40
1.0
 10
501.1199679521
 20
341.2451158694
 30
0.0
 10
501.0876543638
 20
341.2451101348
 30
0.0
 10
501.041356549
 20
341.1865057804
 30
0.0
 10
501.0035946466
 20
341.1017635876
 30
0.0
 10
500.9508236858
 20
340.942550414
 30
0.0
 10
500.8962762487
 20
340.678772114
 30
0.0
 10
500.8401433161
 20
340.287557364
 30
0.0
 10
500.794341742
 20
339.8122693506
 30
0.0
 10
500.7468009989
 20
339.0639474425
 30
0.0
 10
500.7338325937
 20
338.4752982597
 30
0.0
 10
500.7338325937
 20
338.0701343957
 30
0.0
  0
SPLINE
  5
4EB
100
AcDbEntity
  8
0
100
AcDbSpline
 62
7
  6
CONTINUOUS
 70
0
 71
3
 72
16
 73
12
 74
0
 42
0.0000001
 43
0.0000001
 44
0.0000000001
 40
0.0
 40
0.0
 40
0.0
 40
0.0
 40
0.0299088927
 40
0.0558777879
 40
0.0900821723
 40
0.1325202136
 40
0.182951927
 40
0.3061023651
 40
0.4552883827
 40
0.6249926331
 40
1.0
 40
1.0
 40
1.0
 40
1.0
 10
501.119967952
 20
343.2771176053
 30
0.0
 10
501.1729602517
 20
343.2771132225
 30
0.0
 10
501.2489318479
 20
343.1809975297
 30
0.0
 10
501.3107562646
 20
343.0420400299
 30
0.0
 10
501.3691569168
 20
342.8667511281
 30
0.0
 10
501.4234392122
 20
342.6491235397
 30
0.0
 10
501.4985249568
 20
342.2732663099
 30
0.0
 10
501.5784396322
 20
341.7068854289
 30
0.0
 10
501.6541490212
 20
340.9271067581
 30
0.0
 10
501.7318603141
 20
339.7000004774
 30
0.0
 10
501.7532299394
 20
338.7345689864
 30
0.0
 10
501.7532299394
 20
338.0701343957
 30
0.0
  0
SPLINE
  5
4EC
100
AcDbEntity
  8
0
100
AcDbSpline
 62
7
  6
CONTINUOUS
 70
0
 71
3
 72
16
 73
12
 74
0
 42
0.0000001
 43
0.0000001
 44
0.0000000001
 40
0.0
 40
0.0
 40
0.0
 40
0.0
 40
0.3750034832
 40
0.5447058863
 40
0.6938904782
 40
0.8170421807
 40
0.8674760273
 40
0.9099146667
 40
0.9441210865
 40
0.9700902588
 40
1.0
 40
1.0
 40
1.0
 40
1.0
 10
500.4867059644
 20
338.0701343957
 30
0.0
 10
500.4867059644
 20
338.7345620621
 30
0.0
 10
500.5080751485
 20
339.6999833644
 30
0.0
 10
500.5857841759
 20
340.9270768817
 30
0.0
 10
500.6614910721
 20
341.7068524062
 30
0.0
 10
500.7414078012
 20
342.2732360011
 30
0.0
 10
500.8164891449
 20
342.6491018058
 30
0.0
 10
500.8707767375
 20
342.8667358795
 30
0.0
 10
500.9291738284
 20
343.0420334881
 30
0.0
 10
500.9910034767
 20
343.180989387
 30
0.0
 10
501.0669741522
 20
343.2771219882
 30
0.0
 10
501.119967952
 20
343.2771176053
 30
0.0
  0
SPLINE
  5
4ED
100
AcDbEntity
  8
0
100
AcDbSpline
 62
7
  6
CONTINUOUS
 70
0
 71
3
 72
15
 73
11
 74
0
 42
0.0000001
 43
0.0000001
 44
0.0000000001
 40
0.0
 40
0.0
 40
0.0
 40
0.0
 40
0.3750389728
 40
0.5447267247
 40
0.6939259872
 40
0.8170780681
 40
0.9099090288
 40
0.9441251176
 40
0.9700871172
 40
1.0
 40
1.0
 40
1.0
 40
1.0
 10
501.5061033101
 20
338.0701343957
 30
0.0
 10
501.5061033101
 20
338.4752975237
 30
0.0
 10
501.4931354688
 20
339.0639408357
 30
0.0
 10
501.4455952989
 20
339.8122545269
 30
0.0
 10
501.3997948056
 20
340.2875350684
 30
0.0
 10
501.3436666508
 20
340.6787530587
 30
0.0
 10
501.2891133128
 20
340.9425338002
 30
0.0
 10
501.2363481684
 20
341.101758489
 30
0.0
 10
501.1985786047
 20
341.1864952961
 30
0.0
 10
501.1522835188
 20
341.2451216043
 30
0.0
 10
501.1199679521
 20
341.2451158694
 30
0.0
  0
SPLINE
  5
4EE
100
AcDbEntity
  8
0
100
AcDbSpline
 62
7
  6
CONTINUOUS
 70
0
 71
3
 72
16
 73
12
 74
0
 42
0.0000001
 43
0.0000001
 44
0.0000000001
 40
0.0
 40
0.0
 40
0.0
 40
0.0
 40
0.0299088927
 40
0.0558777879
 40
0.0900821723
 40
0.1325202136
 40
0.182951927
 40
0.3061023651
 40
0.4552883827
 40
0.6249926331
 40
1.0
 40
1.0
 40
1.0
 40
1.0
 10
501.1199679518
 20
332.8631511862
 30
0.0
 10
501.0669756521
 20
332.863155569
 30
0.0
 10
500.9910040559
 20
332.9592712618
 30
0.0
 10
500.9291796392
 20
333.0982287616
 30
0.0
 10
500.870778987
 20
333.2735176634
 30
0.0
 10
500.8164966916
 20
333.4911452518
 30
0.0
 10
500.741410947
 20
333.8670024816
 30
0.0
 10
500.6614962716
 20
334.4333833626
 30
0.0
 10
500.5857868826
 20
335.2131620333
 30
0.0
 10
500.5080755897
 20
336.4402683141
 30
0.0
 10
500.4867059644
 20
337.4056998051
 30
0.0
 10
500.4867059644
 20
338.0701343957
 30
0.0
  0
SPLINE
  5
4EF
100
AcDbEntity
  8
0
100
AcDbSpline
 62
7
  6
CONTINUOUS
 70
0
 71
3
 72
15
 73
11
 74
0
 42
0.0000001
 43
0.0000001
 44
0.0000000001
 40
0.0
 40
0.0
 40
0.0
 40
0.0
 40
0.0299110463
 40
0.0558734167
 40
0.0900866519
 40
0.1829150021
 40
0.3060662624
 40
0.4552680247
 40
0.6249604097
 40
1.0
 40
1.0
 40
1.0
 40
1.0
 10
501.1199679517
 20
334.8951529221
 30
0.0
 10
501.15228154
 20
334.8951586567
 30
0.0
 10
501.1985793548
 20
334.953763011
 30
0.0
 10
501.2363412572
 20
335.0385052039
 30
0.0
 10
501.289112218
 20
335.1977183775
 30
0.0
 10
501.3436596551
 20
335.4614966775
 30
0.0
 10
501.3997925877
 20
335.8527114275
 30
0.0
 10
501.4455941618
 20
336.3279994408
 30
0.0
 10
501.4931349049
 20
337.076321349
 30
0.0
 10
501.5061033101
 20
337.6649705318
 30
0.0
 10
501.5061033101
 20
338.0701343957
 30
0.0
  0
SPLINE
  5
4F0
100
AcDbEntity
  8
0
100
AcDbSpline
 62
7
  6
CONTINUOUS
 70
0
 71
3
 72
11
 73
7
 74
0
 42
0.0000001
 43
0.0000001
 44
0.0000000001
 40
0.0
 40
0.0
 40
0.0
 40
0.0
 40
0.250896428
 40
0.5012167456
 40
0.7508248901
 40
1.0
 40
1.0
 40
1.0
 40
1.0
 10
349.0471008709
 20
350.0081343957
 30
0.0
 10
349.0471008709
 20
350.2063167285
 30
0.0
 10
348.9686136495
 20
350.6065455581
 30
0.0
 10
348.6322562969
 20
351.1129102695
 30
0.0
 10
348.129608552
 20
351.4526478714
 30
0.0
 10
347.7312361161
 20
351.5321343957
 30
0.0
 10
347.5344134473
 20
351.5321343957
 30
0.0
  0
SPLINE
  5
4F1
100
AcDbEntity
  8
0
100
AcDbSpline
 62
7
  6
CONTINUOUS
 70
0
 71
3
 72
9
 73
5
 74
0
 42
0.0000001
 43
0.0000001
 44
0.0000000001
 40
0.0
 40
0.0
 40
0.0
 40
0.0
 40
0.2754100563
 40
1.0
 40
1.0
 40
1.0
 40
1.0
 10
349.0471008709
 20
328.4181343958
 30
0.0
 10
349.0471008709
 20
328.3190511557
 30
0.0
 10
349.0516945654
 20
327.9593838227
 30
0.0
 10
349.06991545
 20
327.5992799305
 30
0.0
 10
349.1013871563
 20
327.3405036612
 30
0.0
  0
SPLINE
  5
4F2
100
AcDbEntity
  8
0
100
AcDbSpline
 62
7
  6
CONTINUOUS
 70
0
 71
3
 72
11
 73
7
 74
0
 42
0.0000001
 43
0.0000001
 44
0.0000000001
 40
0.0
 40
0.0
 40
0.0
 40
0.0
 40
0.4023676272
 40
0.7059908887
 40
0.9022356409
 40
1.0
 40
1.0
 40
1.0
 40
1.0
 10
349.1013871563
 20
327.3405036612
 30
0.0
 10
349.1090944479
 20
327.2771304153
 30
0.0
 10
349.124059903
 20
327.1668269324
 30
0.0
 10
349.1562267888
 20
327.0244996929
 30
0.0
 10
349.1822707709
 20
326.9385538017
 30
0.0
 10
349.2169344163
 20
326.8941343957
 30
0.0
 10
349.2324458428
 20
326.8941343957
 30
0.0
  0
SPLINE
  5
4F3
100
AcDbEntity
  8
0
100
AcDbSpline
 62
7
  6
CONTINUOUS
 70
0
 71
3
 72
11
 73
7
 74
0
 42
0.0000001
 43
0.0000001
 44
0.0000000001
 40
0.0
 40
0.0
 40
0.0
 40
0.0
 40
0.2499596061
 40
0.4997536173
 40
0.7497207062
 40
1.0
 40
1.0
 40
1.0
 40
1.0
 10
351.3795514456
 20
354.1991343957
 30
0.0
 10
351.7948754769
 20
354.1991343957
 30
0.0
 10
352.6306258959
 20
354.0737047437
 30
0.0
 10
353.7685672928
 20
353.5235274804
 30
0.0
 10
354.6940142645
 20
352.6619523811
 30
0.0
 10
355.1149873336
 20
351.9283433185
 30
0.0
 10
355.2663742019
 20
351.5410222962
 30
0.0
  0
SPLINE
  5
4F4
100
AcDbEntity
  8
0
100
AcDbSpline
 62
7
  6
CONTINUOUS
 70
0
 71
3
 72
11
 73
7
 74
0
 42
0.0000001
 43
0.0000001
 44
0.0000000001
 40
0.0
 40
0.0
 40
0.0
 40
0.0
 40
0.0977643591
 40
0.2940091113
 40
0.5976323728
 40
1.0
 40
1.0
 40
1.0
 40
1.0
 10
351.879648834
 20
326.8941343957
 30
0.0
 10
351.8641374076
 20
326.8941343957
 30
0.0
 10
351.8294737621
 20
326.9385538017
 30
0.0
 10
351.80342978
 20
327.0244996929
 30
0.0
 10
351.7712628942
 20
327.1668269324
 30
0.0
 10
351.7562974392
 20
327.2771304153
 30
0.0
 10
351.7485901475
 20
327.3405036612
 30
0.0
  0
SPLINE
  5
4F5
100
AcDbEntity
  8
0
100
AcDbSpline
 62
7
  6
CONTINUOUS
 70
0
 71
3
 72
9
 73
5
 74
0
 42
0.0000001
 43
0.0000001
 44
0.0000000001
 40
0.0
 40
0.0
 40
0.0
 40
0.0
 40
0.2149807601
 40
1.0
 40
1.0
 40
1.0
 40
1.0
 10
351.7485901475
 20
327.3405036612
 30
0.0
 10
351.7392522363
 20
327.4172846848
 30
0.0
 10
351.7048099322
 20
327.7755064094
 30
0.0
 10
351.6943038621
 20
328.1356965661
 30
0.0
 10
351.6943038621
 20
328.4181343957
 30
0.0
  0
SPLINE
  5
4F6
100
AcDbEntity
  8
0
100
AcDbSpline
 62
7
  6
CONTINUOUS
 70
0
 71
3
 72
11
 73
7
 74
0
 42
0.0000001
 43
0.0000001
 44
0.0000000001
 40
0.0
 40
0.0
 40
0.0
 40
0.0
 40
0.2494020385
 40
0.499072873
 40
0.7492744094
 40
1.0
 40
1.0
 40
1.0
 40
1.0
 10
347.5344134473
 20
354.1991343957
 30
0.0
 10
347.9479539593
 20
354.1991343957
 30
0.0
 10
348.7808357791
 20
354.0729375186
 30
0.0
 10
349.9145017002
 20
353.5216217537
 30
0.0
 10
350.8368891824
 20
352.6593010098
 30
0.0
 10
351.256383198
 20
351.9255812189
 30
0.0
 10
351.4071762163
 20
351.5381574656
 30
0.0
  0
SPLINE
  5
4F7
100
AcDbEntity
  8
0
100
AcDbSpline
 62
7
  6
CONTINUOUS
 70
0
 71
3
 72
8
 73
4
 74
0
 42
0.0000001
 43
0.0000001
 44
0.0000000001
 40
0.0
 40
0.0
 40
0.0
 40
0.0
 40
1.0
 40
1.0
 40
1.0
 40
1.0
 10
351.4071762163
 20
351.5381574656
 30
0.0
 10
351.5953923985
 20
351.0545845483
 30
0.0
 10
351.6943038621
 20
350.5270448868
 30
0.0
 10
351.6943038621
 20
350.0081343958
 30
0.0
  0
SPLINE
  5
4F8
100
AcDbEntity
  8
0
100
AcDbSpline
 62
7
  6
CONTINUOUS
 70
0
 71
3
 72
11
 73
7
 74
0
 42
0.0000001
 43
0.0000001
 44
0.0000000001
 40
0.0
 40
0.0
 40
0.0
 40
0.0
 40
0.083537648
 40
0.2742369015
 40
0.5806987851
 40
1.0
 40
1.0
 40
1.0
 40
1.0
 10
236.0925501961
 20
232.1521043826
 30
0.0
 10
236.1286620804
 20
232.1521043826
 30
0.0
 10
236.1975235364
 20
232.017677524
 30
0.0
 10
236.2515718764
 20
231.7972538118
 30
0.0
 10
236.3236930018
 20
231.3940534431
 30
0.0
 10
236.3599452717
 20
231.0865527998
 30
0.0
 10
236.3796380014
 20
230.906369056
 30
0.0
  0
SPLINE
  5
4F9
100
AcDbEntity
  8
0
100
AcDbSpline
 62
7
  6
CONTINUOUS
 70
0
 71
3
 72
8
 73
4
 74
0
 42
0.0000001
 43
0.0000001
 44
0.0000000001
 40
0.0
 40
0.0
 40
0.0
 40
0.0
 40
1.0
 40
1.0
 40
1.0
 40
1.0
 10
230.6378098952
 20
230.8653311621
 30
0.0
 10
230.1977137651
 20
230.6456276249
 30
0.0
 10
229.7949400736
 20
230.3297370723
 30
0.0
 10
229.4765674074
 20
229.9547796169
 30
0.0
  0
SPLINE
  5
4FA
100
AcDbEntity
  8
0
100
AcDbSpline
 62
7
  6
CONTINUOUS
 70
0
 71
3
 72
8
 73
4
 74
0
 42
0.0000001
 43
0.0000001
 44
0.0000000001
 40
0.0
 40
0.0
 40
0.0
 40
0.0
 40
1.0
 40
1.0
 40
1.0
 40
1.0
 10
230.7770082657
 20
229.9203267847
 30
0.0
 10
231.1080293199
 20
230.3200005111
 30
0.0
 10
231.53455178
 20
230.655170312
 30
0.0
 10
232.0012436811
 20
230.8821343957
 30
0.0
  0
SPLINE
  5
4FB
100
AcDbEntity
  8
0
100
AcDbSpline
 62
7
  6
CONTINUOUS
 70
0
 71
3
 72
11
 73
7
 74
0
 42
0.0000001
 43
0.0000001
 44
0.0000000001
 40
0.0
 40
0.0
 40
0.0
 40
0.0
 40
0.2952552435
 40
0.5707307365
 40
0.809391105
 40
1.0
 40
1.0
 40
1.0
 40
1.0
 10
104.7668758803
 20
543.8101343957
 30
0.0
 10
104.7668758803
 20
544.7272313876
 30
0.0
 10
104.8669221734
 20
546.5015730194
 30
0.0
 10
105.3109849966
 20
548.9843493364
 30
0.0
 10
106.0070492103
 20
551.0664247881
 30
0.0
 10
106.6902573506
 20
552.2371641553
 30
0.0
 10
107.0836327797
 20
552.6796377632
 30
0.0
  0
SPLINE
  5
4FC
100
AcDbEntity
  8
0
100
AcDbSpline
 62
7
  6
CONTINUOUS
 70
0
 71
3
 72
11
 73
7
 74
0
 42
0.0000001
 43
0.0000001
 44
0.0000000001
 40
0.0
 40
0.0
 40
0.0
 40
0.0
 40
0.190608895
 40
0.4292692635
 40
0.7047447565
 40
1.0
 40
1.0
 40
1.0
 40
1.0
 10
107.0836327797
 20
345.2026310283
 30
0.0
 10
106.6902573506
 20
345.6451046362
 30
0.0
 10
106.0070492103
 20
346.8158440034
 30
0.0
 10
105.3109849966
 20
348.8979194551
 30
0.0
 10
104.8669221734
 20
351.3806957721
 30
0.0
 10
104.7668758803
 20
353.1550374039
 30
0.0
 10
104.7668758803
 20
354.0721343957
 30
0.0
  0
SPLINE
  5
4FD
100
AcDbEntity
  8
0
100
AcDbSpline
 62
7
  6
CONTINUOUS
 70
0
 71
3
 72
9
 73
5
 74
0
 42
0.0000001
 43
0.0000001
 44
0.0000000001
 40
0.0
 40
0.0
 40
0.0
 40
0.0
 40
0.2382248166
 40
1.0
 40
1.0
 40
1.0
 40
1.0
 10
108.7340224022
 20
550.1601343957
 30
0.0
 10
108.6761173839
 20
550.1601343957
 30
0.0
 10
108.4328931283
 20
550.1399452267
 30
0.0
 10
108.2014756708
 20
550.0359139334
 30
0.0
 10
108.048134204
 20
549.932125603
 30
0.0
  0
SPLINE
  5
4FE
100
AcDbEntity
  8
0
100
AcDbSpline
 62
7
  6
CONTINUOUS
 70
0
 71
3
 72
11
 73
7
 74
0
 42
0.0000001
 43
0.0000001
 44
0.0000000001
 40
0.0
 40
0.0
 40
0.0
 40
0.0
 40
0.1744898829
 40
0.4082825418
 40
0.6907444944
 40
1.0
 40
1.0
 40
1.0
 40
1.0
 10
108.048134204
 20
549.932125603
 30
0.0
 10
107.7311216888
 20
549.7175574215
 30
0.0
 10
107.1617239588
 20
548.9829567358
 30
0.0
 10
106.601268948
 20
547.5707203777
 30
0.0
 10
106.2337239539
 20
545.7880420105
 30
0.0
 10
106.1512447186
 20
544.4885877689
 30
0.0
 10
106.1512447186
 20
543.8101343957
 30
0.0
  0
SPLINE
  5
4FF
100
AcDbEntity
  8
0
100
AcDbSpline
 62
7
  6
CONTINUOUS
 70
0
 71
3
 72
11
 73
7
 74
0
 42
0.0000001
 43
0.0000001
 44
0.0000000001
 40
0.0
 40
0.0
 40
0.0
 40
0.0
 40
0.3092562617
 40
0.5917186103
 40
0.8255109834
 40
1.0
 40
1.0
 40
1.0
 40
1.0
 10
106.1512447186
 20
354.0721343957
 30
0.0
 10
106.1512447186
 20
353.3936765437
 30
0.0
 10
106.2337249493
 20
352.0942143712
 30
0.0
 10
106.6012745777
 20
350.3115270261
 30
0.0
 10
107.1617357365
 20
348.8992882515
 30
0.0
 10
107.7311414257
 20
348.1646900483
 30
0.0
 10
108.0481573964
 20
347.9501275241
 30
0.0
  0
SPLINE
  5
500
100
AcDbEntity
  8
0
100
AcDbSpline
 62
7
  6
CONTINUOUS
 70
0
 71
3
 72
9
 73
5
 74
0
 42
0.0000001
 43
0.0000001
 44
0.0000000001
 40
0.0
 40
0.0
 40
0.0
 40
0.0
 40
0.2689213661
 40
1.0
 40
1.0
 40
1.0
 40
1.0
 10
108.0481573964
 20
347.9501275241
 30
0.0
 10
108.1022520819
 20
347.9135151974
 30
0.0
 10
108.310683878
 20
347.7891167679
 30
0.0
 10
108.5564462228
 20
347.7221343957
 30
0.0
 10
108.7340224022
 20
347.7221343957
 30
0.0
  0
ENDSEC
  0
SECTION
  2
OBJECTS
  0
DICTIONARY
  5
C
100
AcDbDictionary
280
0
281
1
  3
ACAD_GROUP
350
D
  3
ACAD_MLINESTYLE
350
17
  3
ACAD_LAYOUT
350
1A
  3
ACAD_PLOTSETTINGS
350
19
  3
ACAD_PLOTSTYLENAME
350
E
  0
DICTIONARY
  5
D
102
{ACAD_REACTORS
330
C
102
}
100
AcDbDictionary
280
0
281
1
  0
ACDBDICTIONARYWDFLT
  5
E
102
{ACAD_REACTORS
330
C
102
}
100
AcDbDictionary
281
1
  3
Normal
350
F
100
AcDbDictionaryWithDefault
340
F
  0
DICTIONARY
  5
17
102
{ACAD_REACTORS
330
C
102
}
100
AcDbDictionary
280
0
281
1
  3
Standard
350
18
  0
DICTIONARY
  5
19
102
{ACAD_REACTORS
330
C
102
}
100
AcDbDictionary
281
1
  0
DICTIONARY
  5
1A
102
{ACAD_REACTORS
330
C
102
}
100
AcDbDictionary
281
1
  3
Model
350
501
  3
Layout1
350
502
  0
ACDBPLACEHOLDER
  5
F
102
{ACAD_REACTORS
330
E
102
}
  0
MLINESTYLE
  5
18
102
{ACAD_REACTORS
330
17
102
}
100
AcDbMlineStyle
  2
STANDARD
 70
0
  3

 62
256
 51
90.0
 52
90.0
 71
2
 49
0.5
 62
256
  6
BYLAYER
 49
-0.5
 62
256
  6
BYLAYER
  0
LAYOUT
  5
501
102
{ACAD_REACTORS
330
1A
102
}
100
AcDbPlotSettings
  1

  2
none_device
  4

  6

 40
0.0
 41
0.0
 42
0.0
 43
0.0
 44
210.0
 45
297.0
 46
0.0
 47
0.0
 48
0.0
 49
0.0
140
0.0
141
0.0
142
1.0
143
1.0
 70
1024
 72
1
 73
0
 74
0
  7

 75
0
147
1.0
148
0.0
149
0.0
100
AcDbLayout
  1
Model
 70
0
 71
0
 10
0.0
 20
0.0
 11
210.0
 21
297.0
 12
0.0
 22
0.0
 32
0.0
 14
0.0
 24
0.0
 34
0.0
 15
0.0
 25
0.0
 35
0.0
146
0.0
 13
0.0
 23
0.0
 33
0.0
 16
1.0
 26
0.0
 36
0.0
 17
0.0
 27
1.0
 37
0.0
 76
0
330
210
345
0
346
0
  0
LAYOUT
  5
502
102
{ACAD_REACTORS
330
1A
102
}
100
AcDbPlotSettings
  1

  2
none_device
  4

  6

 40
0.0
 41
0.0
 42
0.0
 43
0.0
 44
210.0
 45
297.0
 46
0.0
 47
0.0
 48
0.0
 49
0.0
140
0.0
141
0.0
142
1.0
143
1.0
 70
0
 72
1
 73
0
 74
0
  7

 75
0
147
1.0
148
0.0
149
0.0
100
AcDbLayout
  1
Layout1
 70
0
 71
1
 10
0.0
 20
0.0
 11
210.0
 21
297.0
 12
0.0
 22
0.0
 32
0.0
 14
0.0
 24
0.0
 34
0.0
 15
0.0
 25
0.0
 35
0.0
146
0.0
 13
0.0
 23
0.0
 33
0.0
 16
1.0
 26
0.0
 36
0.0
 17
0.0
 27
1.0
 37
0.0
 76
0
330
211
345
0
346
0
  0
ENDSEC
  0
EOF
