999
DXF file: C:\Users\sesa63760\Dev\_Creo\CAD\MCADID0003393_3D-CAD\drw0001_6.dxf
999
Pro/ENGINEER 2019471 by Parametric Technology Corporation
  0
SECTION
  2
HEADER
  9
$ACADVER
  1
AC1024
  9
$DWGCODEPAGE
  3
ANSI_1252
  9
$EXTMAX
 10
94.0207055896
 20
132.9721407625
 30
0.0
  9
$EXTMIN
 10
0.0
 20
0.0
 30
0.0
  9
$LIMMIN
 10
0.0
 20
0.0
  9
$LIMMAX
 10
94.0207055896
 20
132.9721407625
  9
$VIEWCTR
 10
47.0103527948
 20
66.4860703812
  9
$VIEWSIZE
 40
132.9721407625
  9
$CLAYER
  8
0
  9
$LTSCALE
 40
8.6678136201
  9
$CELTYPE
  6
BYLAYER
  9
$DIMSCALE
 40
1.0
  9
$DIMASZ
 40
1.1192941142
  9
$DIMEXO
 40
1.0
  9
$DIMDLI
 40
5.9886712284
  9
$DIMEXE
 40
1.0
  9
$DIMCEN
 40
1.4183695015
  9
$DIMLFAC
 40
1.0
  9
$DIMBLK
  1
_FILLED
  9
$DIMALT
 70
0
  9
$DIMALTF
 40
0.0393700787
  9
$DIMTXT
 40
1.5670117598
  9
$DIMTOL
 70
1
  9
$DIMLIM
 70
0
  9
$DIMTFAC
 40
1.0
  9
$DIMTP
 40
0.01
  9
$DIMTM
 40
0.01
  9
$DIMGAP
 40
0.625
  9
$DIMDSEP
 70
46
  9
$AUNITS
 70
0
  9
$PDMODE
 70
3
  9
$PDSIZE
 40
0.3125
  9
$HANDSEED
  5
294
  9
$TILEMODE
 70
1
  9
$MEASUREMENT
 70
1
  9
$INSUNITS
 70
4
  0
ENDSEC
  0
SECTION
  2
CLASSES
  0
CLASS
  1
ACDBDICTIONARYWDFLT
  2
AcDbDictionaryWithDefault
  3
AutoCAD 2000
 90
0
 91
1
280
0
281
0
  0
CLASS
  1
ACDBPLACEHOLDER
  2
AcDbPlaceHolder
  3
AutoCAD 2000
 90
0
 91
1
280
0
281
0
  0
CLASS
  1
LAYOUT
  2
AcDbLayout
  3
AutoCAD 2000
 90
0
 91
0
280
0
281
0
  0
ENDSEC
  0
SECTION
  2
TABLES
  0
TABLE
  2
VPORT
  5
8
100
AcDbSymbolTable
 70
2
  0
VPORT
  5
1F4
100
AcDbSymbolTableRecord
100
AcDbViewportTableRecord
  2
*ACTIVE
 70
0
 10
0.0
 20
0.0
 11
1.0
 21
1.0
 12
47.0103527948
 22
66.4860703812
 13
0.0
 23
0.0
 14
1.0
 24
1.0
 15
0.0
 25
0.0
 16
0.0
 26
0.0
 36
1.0
 17
0.0
 27
0.0
 37
0.0
 40
132.9721407625
 41
0.7070707071
 42
50.0
 43
0.0
 44
0.0
 50
0.0
 51
0.0
 71
0
 72
100
 73
1
 74
1
 75
0
 76
0
 77
0
 78
0
  0
ENDTAB
  0
TABLE
  2
LTYPE
  5
5
100
AcDbSymbolTable
 70
6
  0
LTYPE
  5
14
100
AcDbSymbolTableRecord
100
AcDbLinetypeTableRecord
  2
BYBLOCK
 70
0
  3

 72
65
 73
0
 40
0.0
  0
LTYPE
  5
15
100
AcDbSymbolTableRecord
100
AcDbLinetypeTableRecord
  2
BYLAYER
 70
0
  3

 72
65
 73
0
 40
0.0
  0
LTYPE
  5
16
100
AcDbSymbolTableRecord
100
AcDbLinetypeTableRecord
  2
CONTINUOUS
 70
64
  3
Solid line
 72
65
 73
0
 40
0.0
  0
LTYPE
  5
1F5
100
AcDbSymbolTableRecord
100
AcDbLinetypeTableRecord
  2
CENTER
 70
64
  3
____ _ ____ _ ____ _ ____ _ ____ _ ____ _ ____
 72
65
 73
4
 40
0.6
 49
0.375
 74
0
 49
-0.075
 74
0
 49
0.075
 74
0
 49
-0.075
 74
0
  0
LTYPE
  5
1F6
100
AcDbSymbolTableRecord
100
AcDbLinetypeTableRecord
  2
HIDDEN
 70
64
  3
- - - - - - - - - - - - - - - - - - - -
 72
65
 73
2
 40
0.2
 49
0.1
 74
0
 49
-0.1
 74
0
  0
LTYPE
  5
1F7
100
AcDbSymbolTableRecord
100
AcDbLinetypeTableRecord
  2
PHANTOM
 70
64
  3
_____ _ _ _____ _ _ _____ _ _ _____
 72
65
 73
6
 40
0.8
 49
0.45
 74
0
 49
-0.05
 74
0
 49
0.1
 74
0
 49
-0.05
 74
0
 49
0.1
 74
0
 49
-0.05
 74
0
  0
LTYPE
  5
1F8
100
AcDbSymbolTableRecord
100
AcDbLinetypeTableRecord
  2
DOT
 70
64
  3
. . . . . . . . . . . . . . . . . . . .
 72
65
 73
2
 40
0.2
 49
0.1
 74
0
 49
-0.1
 74
0
  0
LTYPE
  5
1F9
100
AcDbSymbolTableRecord
100
AcDbLinetypeTableRecord
  2
DASHED
 70
64
  3
- - - - - - - - - - - - - - - - - - - -
 72
65
 73
2
 40
0.2
 49
0.1
 74
0
 49
-0.1
 74
0
  0
ENDTAB
  0
TABLE
  2
LAYER
  5
2
100
AcDbSymbolTable
 70
36
  0
LAYER
  5
10
100
AcDbSymbolTableRecord
100
AcDbLayerTableRecord
  2
0
 70
0
 62
7
  6
CONTINUOUS
370
-3
390
F
  0
LAYER
  5
1FA
100
AcDbSymbolTableRecord
100
AcDbLayerTableRecord
  2
DEFAULT_1
 70
0
 62
7
  6
CENTER
370
-3
390
F
  0
LAYER
  5
1FB
100
AcDbSymbolTableRecord
100
AcDbLayerTableRecord
  2
DEFAULT_2
 70
0
 62
7
  6
HIDDEN
370
-3
390
F
  0
LAYER
  5
1FC
100
AcDbSymbolTableRecord
100
AcDbLayerTableRecord
  2
DEFAULT_3
 70
0
 62
7
  6
PHANTOM
370
-3
390
F
  0
LAYER
  5
1FD
100
AcDbSymbolTableRecord
100
AcDbLayerTableRecord
  2
00_COMPONENTS
 70
0
 62
7
  6
CONTINUOUS
370
-3
390
F
  0
LAYER
  5
1FE
100
AcDbSymbolTableRecord
100
AcDbLayerTableRecord
  2
01_1_DEFAULT_DATUMS
 70
0
 62
7
  6
CONTINUOUS
370
-3
390
F
  0
LAYER
  5
1FF
100
AcDbSymbolTableRecord
100
AcDbLayerTableRecord
  2
01_PLANES
 70
0
 62
7
  6
CONTINUOUS
370
-3
390
F
  0
LAYER
  5
200
100
AcDbSymbolTableRecord
100
AcDbLayerTableRecord
  2
02_COORD_SYS
 70
0
 62
7
  6
CONTINUOUS
370
-3
390
F
  0
LAYER
  5
201
100
AcDbSymbolTableRecord
100
AcDbLayerTableRecord
  2
03_AXES
 70
0
 62
7
  6
CONTINUOUS
370
-3
390
F
  0
LAYER
  5
202
100
AcDbSymbolTableRecord
100
AcDbLayerTableRecord
  2
04_POINTS
 70
0
 62
7
  6
CONTINUOUS
370
-3
390
F
  0
LAYER
  5
203
100
AcDbSymbolTableRecord
100
AcDbLayerTableRecord
  2
05_CURVES
 70
0
 62
7
  6
CONTINUOUS
370
-3
390
F
  0
LAYER
  5
204
100
AcDbSymbolTableRecord
100
AcDbLayerTableRecord
  2
06_SURFS
 70
0
 62
7
  6
CONTINUOUS
370
-3
390
F
  0
LAYER
  5
205
100
AcDbSymbolTableRecord
100
AcDbLayerTableRecord
  2
07_COSMETICS
 70
0
 62
7
  6
CONTINUOUS
370
-3
390
F
  0
LAYER
  5
206
100
AcDbSymbolTableRecord
100
AcDbLayerTableRecord
  2
10_NOTES
 70
0
 62
7
  6
CONTINUOUS
370
-3
390
F
  0
LAYER
  5
207
100
AcDbSymbolTableRecord
100
AcDbLayerTableRecord
  2
11_NOTES_PUB
 70
0
 62
7
  6
CONTINUOUS
370
-3
390
F
  0
LAYER
  5
208
100
AcDbSymbolTableRecord
100
AcDbLayerTableRecord
  2
13_REF_GTOL
 70
0
 62
7
  6
CONTINUOUS
370
-3
390
F
  0
LAYER
  5
209
100
AcDbSymbolTableRecord
100
AcDbLayerTableRecord
  2
16_MISC
 70
0
 62
7
  6
CONTINUOUS
370
-3
390
F
  0
LAYER
  5
20A
100
AcDbSymbolTableRecord
100
AcDbLayerTableRecord
  2
17_NO_PRINT
 70
0
 62
7
  6
CONTINUOUS
370
-3
390
F
  0
LAYER
  5
20B
100
AcDbSymbolTableRecord
100
AcDbLayerTableRecord
  2
18_DATUM_CAMS_JOINTS
 70
0
 62
7
  6
CONTINUOUS
370
-3
390
F
  0
LAYER
  5
20C
100
AcDbSymbolTableRecord
100
AcDbLayerTableRecord
  2
19_DATUM_FUNCTIONAL
 70
0
 62
7
  6
CONTINUOUS
370
-3
390
F
  0
LAYER
  5
20D
100
AcDbSymbolTableRecord
100
AcDbLayerTableRecord
  2
20_DATUM_KINEMATIC_SCHEME
 70
0
 62
7
  6
CONTINUOUS
370
-3
390
F
  0
ENDTAB
  0
TABLE
  2
STYLE
  5
3
100
AcDbSymbolTable
 70
1
  0
STYLE
  5
11
100
AcDbSymbolTableRecord
100
AcDbTextStyleTableRecord
  2
STANDARD
 70
0
 40
0.0
 41
1.0
 50
0.0
 71
0
 42
0.2
  3
ARIAL.TTF
  4

  0
STYLE
  5
20E
100
AcDbSymbolTableRecord
100
AcDbTextStyleTableRecord
  2
TEXTSTYLE_1
 70
0
 40
0.0
 41
0.8
 50
0.0
 71
0
 42
0.2
  3
gdt
  4

  0
ENDTAB
  0
TABLE
  2
VIEW
  5
6
100
AcDbSymbolTable
 70
0
  0
ENDTAB
  0
TABLE
  2
UCS
  5
7
100
AcDbSymbolTable
 70
0
  0
ENDTAB
  0
TABLE
  2
APPID
  5
9
100
AcDbSymbolTable
 70
1
  0
APPID
  5
20F
100
AcDbSymbolTableRecord
100
AcDbRegAppTableRecord
  2
ACAD
 70
0
  0
ENDTAB
  0
TABLE
  2
BLOCK_RECORD
  5
1
100
AcDbSymbolTable
 70
0
  0
BLOCK_RECORD
  5
210
100
AcDbSymbolTableRecord
100
AcDbBlockTableRecord
  2
*Model_Space
  0
BLOCK_RECORD
  5
211
100
AcDbSymbolTableRecord
100
AcDbBlockTableRecord
  2
*Paper_Space
  0
BLOCK_RECORD
  5
212
100
AcDbSymbolTableRecord
100
AcDbBlockTableRecord
  2
_FILLED
  0
ENDTAB
  0
TABLE
  2
DIMSTYLE
  5
A
100
AcDbSymbolTable
 70
1
100
AcDbDimStyleTable
 71
0
  0
DIMSTYLE
105
213
100
AcDbSymbolTableRecord
100
AcDbDimStyleTableRecord
  2
STANDARD
 70
0
  3

  4

 40
1.0
 41
1.1192941142
 42
1.0
 43
0.38
 44
1.0
 45
0.0
 46
0.0
 47
0.01
 48
0.01
140
1.5670117598
141
0.09
142
0.0
143
25.4
144
1.0
145
0.0
146
1.0
147
0.625
 71
1
 72
0
 73
0
 74
0
 75
0
 76
0
 77
1
 78
8
 79
2
170
0
171
1
172
0
173
0
174
0
175
0
176
0
177
0
178
0
270
2
179
2
271
2
272
2
273
2
274
2
275
0
280
0
281
0
282
0
283
1
284
8
285
0
286
0
287
3
288
0
340
11
278
46
341
212
342
212
343
212
344
212
  0
ENDTAB
  0
ENDSEC
  0
SECTION
  2
BLOCKS
  0
BLOCK
  5
20
100
AcDbEntity
  8
0
100
AcDbBlockBegin
  2
*Model_Space
 70
0
 10
0.0
 20
0.0
 30
0.0
  3
*Model_Space
  1

  0
ENDBLK
  5
21
100
AcDbEntity
  8
0
100
AcDbBlockEnd
  0
BLOCK
  5
1C
100
AcDbEntity
  8
0
100
AcDbBlockBegin
  2
*Paper_Space
 70
0
 10
0.0
 20
0.0
 30
0.0
  3
*Paper_Space
  1

  0
ENDBLK
  5
1D
100
AcDbEntity
  8
0
100
AcDbBlockEnd
  0
BLOCK
  5
214
100
AcDbEntity
  8
0
100
AcDbBlockBegin
  2
_FILLED
 70
64
 10
0.0
 20
0.0
  3
_FILLED
  1

  0
SOLID
  5
215
100
AcDbEntity
  8
0
  6
BYBLOCK
 62
0
100
AcDbTrace
 10
0.0
 20
0.0
 11
-1.0
 21
0.25
 12
-1.0
 22
-0.25
 13
-1.0
 23
-0.25
  0
ENDBLK
  5
216
100
AcDbEntity
  8
0
  6
BYBLOCK
 62
0
100
AcDbBlockEnd
  0
ENDSEC
  0
SECTION
  2
ENTITIES
  0
LINE
  5
217
100
AcDbEntity
  8
0
100
AcDbLine
 62
7
  6
BYLAYER
 10
68.4491206805
 20
10.9860703812
 11
46.7491508915
 21
10.9860703812
  0
LINE
  5
218
100
AcDbEntity
  8
0
100
AcDbLine
 62
7
  6
BYLAYER
 10
46.099135786
 20
14.4860703812
 11
70.099135786
 21
14.4860703812
  0
LINE
  5
219
100
AcDbEntity
  8
0
100
AcDbLine
 62
7
  6
BYLAYER
 10
60.3193822168
 20
15.4860703812
 11
52.912037735
 21
15.4860703812
  0
LINE
  5
21A
100
AcDbEntity
  8
0
100
AcDbLine
 62
7
  6
BYLAYER
 10
54.4795320671
 20
17.3860703812
 11
57.0621556575
 21
17.3860703812
  0
LINE
  5
21B
100
AcDbEntity
  8
0
100
AcDbLine
 62
7
  6
BYLAYER
 10
57.0721556575
 20
17.4860703812
 11
54.5832865177
 21
17.4860703812
  0
LINE
  5
21C
100
AcDbEntity
  8
0
100
AcDbLine
 62
7
  6
BYLAYER
 10
52.1810566996
 20
18.4860703812
 11
54.4085427282
 21
18.4860703812
  0
LINE
  5
21D
100
AcDbEntity
  8
0
100
AcDbLine
 62
7
  6
BYLAYER
 10
58.1358785228
 20
19.1714210253
 11
58.8757207956
 21
19.1714210253
  0
LINE
  5
21E
100
AcDbEntity
  8
0
100
AcDbLine
 62
7
  6
BYLAYER
 10
43.5217187495
 20
17.7219104735
 11
47.3200052416
 21
16.5611814177
  0
LINE
  5
21F
100
AcDbEntity
  8
0
100
AcDbLine
 62
7
  6
BYLAYER
 10
70.099135786
 20
20.4860703812
 11
58.0728913518
 21
20.4860703812
  0
LINE
  5
220
100
AcDbEntity
  8
0
100
AcDbLine
 62
7
  6
BYLAYER
 10
40.4112888639
 20
18.9809434174
 11
43.5217187495
 21
17.7219104735
  0
LINE
  5
221
100
AcDbEntity
  8
0
100
AcDbLine
 62
7
  6
BYLAYER
 10
40.089135786
 20
19.538389187
 11
40.4112888639
 21
18.9809434174
  0
LINE
  5
222
100
AcDbEntity
  8
0
100
AcDbLine
 62
7
  6
BYLAYER
 10
25.549135786
 20
113.4610703812
 11
25.789135786
 21
116.6110703812
  0
LINE
  5
223
100
AcDbEntity
  8
0
100
AcDbLine
 62
7
  6
BYLAYER
 10
25.549135786
 20
111.4610761099
 11
25.549135786
 21
113.4610703812
  0
LINE
  5
224
100
AcDbEntity
  8
0
100
AcDbLine
 62
7
  6
BYLAYER
 10
25.789135786
 20
108.3110703812
 11
25.789135786
 21
116.6110703812
  0
LINE
  5
225
100
AcDbEntity
  8
0
100
AcDbLine
 62
7
  6
BYLAYER
 10
25.8399057996
 20
108.2110633437
 11
25.839905803
 21
116.7110703812
  0
LINE
  5
226
100
AcDbEntity
  8
0
100
AcDbLine
 62
7
  6
BYLAYER
 10
26.649135786
 20
102.9360704346
 11
26.649135786
 21
121.9860703812
  0
LINE
  5
227
100
AcDbEntity
  8
0
100
AcDbLine
 62
7
  6
BYLAYER
 10
25.549135786
 20
111.4610703812
 11
25.789135786
 21
108.3110703812
  0
LINE
  5
228
100
AcDbEntity
  8
0
100
AcDbLine
 62
7
  6
BYLAYER
 10
32.149135786
 20
121.9860703812
 11
32.149135786
 21
102.9360703812
  0
LINE
  5
229
100
AcDbEntity
  8
0
100
AcDbLine
 62
7
  6
BYLAYER
 10
59.7181686176
 20
18.4567126024
 11
59.5219210095
 21
18.7485435716
  0
LINE
  5
22A
100
AcDbEntity
  8
0
100
AcDbLine
 62
7
  6
BYLAYER
 10
32.449135786
 20
106.8584950549
 11
32.449135786
 21
119.8866582813
  0
LINE
  5
22B
100
AcDbEntity
  8
0
100
AcDbLine
 62
7
  6
BYLAYER
 10
34.0841826733
 20
85.1019577012
 11
34.0841826733
 21
92.8701830613
  0
LINE
  5
22C
100
AcDbEntity
  8
0
100
AcDbLine
 62
7
  6
BYLAYER
 10
34.449135786
 20
119.8866582813
 11
34.449135786
 21
106.8584950549
  0
LINE
  5
22D
100
AcDbEntity
  8
0
100
AcDbLine
 62
7
  6
BYLAYER
 10
35.8848065908
 20
82.4876277258
 11
35.8848065908
 21
95.4845130367
  0
LINE
  5
22E
100
AcDbEntity
  8
0
100
AcDbLine
 62
7
  6
BYLAYER
 10
35.949135786
 20
114.5110703812
 11
35.949135786
 21
110.4110703812
  0
LINE
  5
22F
100
AcDbEntity
  8
0
100
AcDbLine
 62
7
  6
BYLAYER
 10
36.383871811
 20
95.4845130367
 11
36.383871811
 21
82.4876277258
  0
LINE
  5
230
100
AcDbEntity
  8
0
100
AcDbLine
 62
7
  6
BYLAYER
 10
45.4366563942
 20
17.1367192908
 11
46.099135786
 21
14.4860703812
  0
LINE
  5
231
100
AcDbEntity
  8
0
100
AcDbLine
 62
7
  6
BYLAYER
 10
40.2991864072
 20
71.0407209068
 11
40.2991293663
 21
71.1955058459
  0
LINE
  5
232
100
AcDbEntity
  8
0
100
AcDbLine
 62
7
  6
BYLAYER
 10
39.3122616917
 20
70.5265193147
 11
39.3121624801
 21
70.8854035543
  0
LINE
  5
233
100
AcDbEntity
  8
0
100
AcDbLine
 62
7
  6
BYLAYER
 10
36.399135786
 20
80.986206147
 11
36.399135786
 21
101.1140703812
  0
LINE
  5
234
100
AcDbEntity
  8
0
100
AcDbLine
 62
7
  6
BYLAYER
 10
38.399135786
 20
80.0067338003
 11
38.399135786
 21
100.9419065745
  0
LINE
  5
235
100
AcDbEntity
  8
0
100
AcDbLine
 62
7
  6
BYLAYER
 10
39.3121623245
 20
66.0867375016
 11
39.3122616917
 21
69.7487018554
  0
LINE
  5
236
100
AcDbEntity
  8
0
100
AcDbLine
 62
7
  6
BYLAYER
 10
39.599135786
 20
69.9200470942
 11
39.599135786
 21
70.6978645535
  0
LINE
  5
237
100
AcDbEntity
  8
0
100
AcDbLine
 62
7
  6
BYLAYER
 10
39.7073446222
 20
65.8284099345
 11
39.7073446222
 21
71.1437308279
  0
LINE
  5
238
100
AcDbEntity
  8
0
100
AcDbLine
 62
7
  6
BYLAYER
 10
40.089135786
 20
19.538389187
 11
40.089135786
 21
66.9624418979
  0
LINE
  5
239
100
AcDbEntity
  8
0
100
AcDbLine
 62
7
  6
BYLAYER
 10
60.5585065804
 20
16.7050830846
 11
59.7181686176
 21
18.4567126024
  0
LINE
  5
23A
100
AcDbEntity
  8
0
100
AcDbLine
 62
7
  6
BYLAYER
 10
47.3926897809
 20
62.7717018598
 11
45.099135786
 21
62.7717018598
  0
LINE
  5
23B
100
AcDbEntity
  8
0
100
AcDbLine
 62
7
  6
BYLAYER
 10
40.089135786
 20
62.7717018598
 11
45.089135786
 21
62.7717018598
  0
LINE
  5
23C
100
AcDbEntity
  8
0
100
AcDbLine
 62
7
  6
BYLAYER
 10
45.039135786
 20
76.0715890103
 11
45.039135786
 21
65.6562363304
  0
LINE
  5
23D
100
AcDbEntity
  8
0
100
AcDbLine
 62
7
  6
BYLAYER
 10
45.099135786
 20
62.7717018598
 11
45.099135786
 21
79.4860660072
  0
LINE
  5
23E
100
AcDbEntity
  8
0
100
AcDbLine
 62
7
  6
BYLAYER
 10
46.749135786
 20
10.9860703812
 11
46.749135786
 21
14.4860703812
  0
LINE
  5
23F
100
AcDbEntity
  8
0
100
AcDbLine
 62
7
  6
BYLAYER
 10
40.089135786
 20
63.5979750272
 11
44.8286575699
 21
63.5979750272
  0
LINE
  5
240
100
AcDbEntity
  8
0
100
AcDbLine
 62
7
  6
BYLAYER
 10
40.089135786
 20
65.1631714207
 11
44.3213641048
 21
65.1631714207
  0
LINE
  5
241
100
AcDbEntity
  8
0
100
AcDbLine
 62
7
  6
BYLAYER
 10
44.1577888513
 20
65.6562363304
 11
45.039135786
 21
65.6562363304
  0
LINE
  5
242
100
AcDbEntity
  8
0
100
AcDbLine
 62
7
  6
BYLAYER
 10
45.039135786
 20
66.3340771922
 11
40.089135786
 21
66.3340771922
  0
LINE
  5
243
100
AcDbEntity
  8
0
100
AcDbLine
 62
7
  6
BYLAYER
 10
39.7073446223
 20
65.8284099345
 11
40.089135786
 21
65.7950075359
  0
LINE
  5
244
100
AcDbEntity
  8
0
100
AcDbLine
 62
7
  6
BYLAYER
 10
54.4795320671
 20
17.3860703812
 11
54.4085427282
 21
18.4860703812
  0
LINE
  5
245
100
AcDbEntity
  8
0
100
AcDbLine
 62
7
  6
BYLAYER
 10
49.599135786
 20
79.4860703812
 11
49.599135786
 21
80.0067283306
  0
LINE
  5
246
100
AcDbEntity
  8
0
100
AcDbLine
 62
7
  6
BYLAYER
 10
38.9113075156
 20
67.7082529219
 11
38.7597402325
 21
67.7082529219
  0
LINE
  5
247
100
AcDbEntity
  8
0
100
AcDbLine
 62
7
  6
BYLAYER
 10
39.0176352022
 20
69.2638878405
 11
38.7597402325
 21
69.2638878405
  0
LINE
  5
248
100
AcDbEntity
  8
0
100
AcDbLine
 62
7
  6
BYLAYER
 10
40.1617675958
 20
69.5053708015
 11
45.039135786
 21
69.5053708015
  0
LINE
  5
249
100
AcDbEntity
  8
0
100
AcDbLine
 62
7
  6
BYLAYER
 10
39.7073446223
 20
71.1437308279
 11
40.299135786
 21
71.1955058459
  0
LINE
  5
24A
100
AcDbEntity
  8
0
100
AcDbLine
 62
7
  6
BYLAYER
 10
57.599135786
 20
94.4619942547
 11
57.599135786
 21
85.6007029309
  0
LINE
  5
24B
100
AcDbEntity
  8
0
100
AcDbLine
 62
7
  6
BYLAYER
 10
41.0731596176
 20
75.2198006203
 11
45.039135786
 21
75.2198006203
  0
LINE
  5
24C
100
AcDbEntity
  8
0
100
AcDbLine
 62
7
  6
BYLAYER
 10
45.039135786
 20
76.0717864772
 11
42.4259631103
 21
76.0717864772
  0
LINE
  5
24D
100
AcDbEntity
  8
0
100
AcDbLine
 62
7
  6
BYLAYER
 10
45.099135786
 20
76.7860703812
 11
70.099135786
 21
76.7860703812
  0
LINE
  5
24E
100
AcDbEntity
  8
0
100
AcDbLine
 62
7
  6
BYLAYER
 10
45.099135786
 20
77.369358327
 11
70.099135786
 21
77.369358327
  0
LINE
  5
24F
100
AcDbEntity
  8
0
100
AcDbLine
 62
7
  6
BYLAYER
 10
36.399135786
 20
101.1140703812
 11
32.8731142788
 21
105.6271721042
  0
LINE
  5
250
100
AcDbEntity
  8
0
100
AcDbLine
 62
7
  6
BYLAYER
 10
70.099135786
 20
79.4860703812
 11
45.099135786
 21
79.4860703812
  0
LINE
  5
251
100
AcDbEntity
  8
0
100
AcDbLine
 62
7
  6
BYLAYER
 10
49.5991362826
 20
80.0067278639
 11
38.399135786
 21
80.0067278639
  0
LINE
  5
252
100
AcDbEntity
  8
0
100
AcDbLine
 62
7
  6
BYLAYER
 10
36.399135786
 20
80.9860703812
 11
38.399135786
 21
80.9860703812
  0
LINE
  5
253
100
AcDbEntity
  8
0
100
AcDbLine
 62
7
  6
BYLAYER
 10
35.8848065908
 20
82.4876277258
 11
36.383871811
 21
82.4876277258
  0
LINE
  5
254
100
AcDbEntity
  8
0
100
AcDbLine
 62
7
  6
BYLAYER
 10
34.449135786
 20
106.8584950549
 11
37.86916267
 21
102.4810602628
  0
LINE
  5
255
100
AcDbEntity
  8
0
100
AcDbLine
 62
7
  6
BYLAYER
 10
65.599135786
 20
79.4860703812
 11
65.599135786
 21
95.1860703812
  0
LINE
  5
256
100
AcDbEntity
  8
0
100
AcDbLine
 62
7
  6
BYLAYER
 10
36.383871811
 20
84.6860703812
 11
36.399135786
 21
84.6860703812
  0
LINE
  5
257
100
AcDbEntity
  8
0
100
AcDbLine
 62
7
  6
BYLAYER
 10
57.599135786
 20
85.6067278639
 11
38.399135786
 21
85.6067278639
  0
LINE
  5
258
100
AcDbEntity
  8
0
100
AcDbLine
 62
7
  6
BYLAYER
 10
34.0841826733
 20
85.1019577012
 11
35.8848065908
 21
84.9860697951
  0
LINE
  5
259
100
AcDbEntity
  8
0
100
AcDbLine
 62
7
  6
BYLAYER
 10
68.449135786
 20
10.9860703812
 11
68.449135786
 21
14.4860703812
  0
LINE
  5
25A
100
AcDbEntity
  8
0
100
AcDbLine
 62
7
  6
BYLAYER
 10
70.099135786
 20
14.4860703812
 11
70.099135786
 21
79.4860660072
  0
LINE
  5
25B
100
AcDbEntity
  8
0
100
AcDbLine
 62
7
  6
BYLAYER
 10
57.0721556575
 20
17.4860703812
 11
58.0728913518
 21
20.4860703812
  0
LINE
  5
25C
100
AcDbEntity
  8
0
100
AcDbLine
 62
7
  6
BYLAYER
 10
57.5604942246
 20
18.8799870164
 11
57.0621556575
 21
17.3860703812
  0
LINE
  5
25D
100
AcDbEntity
  8
0
100
AcDbLine
 62
7
  6
BYLAYER
 10
38.399135786
 20
89.8629308958
 11
36.399135786
 21
89.8629308958
  0
LINE
  5
25E
100
AcDbEntity
  8
0
100
AcDbLine
 62
7
  6
BYLAYER
 10
35.8848065908
 20
92.9860709674
 11
34.0841826733
 21
92.8701830613
  0
LINE
  5
25F
100
AcDbEntity
  8
0
100
AcDbLine
 62
7
  6
BYLAYER
 10
36.399135786
 20
93.2860703812
 11
36.383871811
 21
93.2860703812
  0
LINE
  5
260
100
AcDbEntity
  8
0
100
AcDbLine
 62
7
  6
BYLAYER
 10
38.399135786
 20
94.4553286249
 11
57.599135786
 21
94.4553286249
  0
LINE
  5
261
100
AcDbEntity
  8
0
100
AcDbLine
 62
7
  6
BYLAYER
 10
36.383871811
 20
95.4845130367
 11
35.8848065908
 21
95.4845130367
  0
LINE
  5
262
100
AcDbEntity
  8
0
100
AcDbLine
 62
7
  6
BYLAYER
 10
38.399135786
 20
95.6552748195
 11
60.076606617
 21
95.6552748195
  0
LINE
  5
263
100
AcDbEntity
  8
0
100
AcDbLine
 62
7
  6
BYLAYER
 10
63.599135786
 20
97.1860719194
 11
38.399135786
 21
97.1860719194
  0
LINE
  5
264
100
AcDbEntity
  8
0
100
AcDbLine
 62
7
  6
BYLAYER
 10
38.3990044168
 20
100.9675352508
 11
36.399135786
 21
100.9675352508
  0
LINE
  5
265
100
AcDbEntity
  8
0
100
AcDbLine
 62
7
  6
BYLAYER
 10
37.6115954561
 20
102.810731263
 11
35.073559026
 21
102.810731263
  0
LINE
  5
266
100
AcDbEntity
  8
0
100
AcDbLine
 62
7
  6
BYLAYER
 10
26.649135786
 20
102.9360703812
 11
32.149135786
 21
102.9360703812
  0
LINE
  5
267
100
AcDbEntity
  8
0
100
AcDbLine
 62
7
  6
BYLAYER
 10
34.6436963387
 20
106.6094689035
 11
32.4646998521
 21
106.6094689035
  0
LINE
  5
268
100
AcDbEntity
  8
0
100
AcDbLine
 62
7
  6
BYLAYER
 10
32.149135786
 20
107.7110703812
 11
32.449135786
 21
107.7110703812
  0
LINE
  5
269
100
AcDbEntity
  8
0
100
AcDbLine
 62
7
  6
BYLAYER
 10
25.789135786
 20
108.3110703812
 11
25.8399058029
 21
108.3110703812
  0
LINE
  5
26A
100
AcDbEntity
  8
0
100
AcDbLine
 62
7
  6
BYLAYER
 10
34.449135786
 20
110.4110703812
 11
35.949135786
 21
110.4110703812
  0
LINE
  5
26B
100
AcDbEntity
  8
0
100
AcDbLine
 62
7
  6
BYLAYER
 10
35.949135786
 20
114.5110703812
 11
34.449135786
 21
114.5110703812
  0
LINE
  5
26C
100
AcDbEntity
  8
0
100
AcDbLine
 62
7
  6
BYLAYER
 10
32.449135786
 20
115.8065907175
 11
34.449135786
 21
115.8065907175
  0
LINE
  5
26D
100
AcDbEntity
  8
0
100
AcDbLine
 62
7
  6
BYLAYER
 10
25.8399058029
 20
116.6110703812
 11
25.789135786
 21
116.6110703812
  0
LINE
  5
26E
100
AcDbEntity
  8
0
100
AcDbLine
 62
7
  6
BYLAYER
 10
32.449135786
 20
117.2110703812
 11
32.149135786
 21
117.2110703812
  0
LINE
  5
26F
100
AcDbEntity
  8
0
100
AcDbLine
 62
7
  6
BYLAYER
 10
32.449135786
 20
119.8866649614
 11
34.449135786
 21
119.8866649614
  0
LINE
  5
270
100
AcDbEntity
  8
0
100
AcDbLine
 62
7
  6
BYLAYER
 10
32.149135786
 20
121.9860703812
 11
26.649135786
 21
121.9860703812
  0
ARC
  5
271
100
AcDbEntity
  8
0
100
AcDbCircle
 62
7
  6
BYLAYER
 10
-131.2465063209
 20
11.1931129299
 40
185.9363149573
100
AcDbArc
 50
1.9395284503
 51
16.1050432352
  0
ARC
  5
272
100
AcDbEntity
  8
0
100
AcDbCircle
 62
7
  6
BYLAYER
 10
-104.2530958505
 20
16.1453023769
 40
156.4516643533
100
AcDbArc
 50
0.8572688067
 51
18.4490679316
  0
ARC
  5
273
100
AcDbEntity
  8
0
100
AcDbCircle
 62
7
  6
BYLAYER
 10
71.1409819522
 20
112.4610703812
 40
45.5000000032
100
AcDbArc
 50
185.3596164794
 51
192.0837159393
  0
ARC
  5
274
100
AcDbEntity
  8
0
100
AcDbCircle
 62
7
  6
BYLAYER
 10
71.1409819522
 20
112.4610703812
 40
45.5000000032
100
AcDbArc
 50
167.9162839949
 51
174.6403834741
  0
ARC
  5
275
100
AcDbEntity
  8
0
100
AcDbCircle
 62
7
  6
BYLAYER
 10
73.7587224151
 20
67.2732639513
 40
33.6710212813
100
AcDbArc
 50
166.9585187538
 51
180.5289131157
  0
ARC
  5
276
100
AcDbEntity
  8
0
100
AcDbCircle
 62
7
  6
BYLAYER
 10
54.5923518282
 20
39.3066021355
 40
23.8797233758
100
AcDbArc
 50
252.2694692756
 51
265.965006376
  0
ARC
  5
277
100
AcDbEntity
  8
0
100
AcDbCircle
 62
7
  6
BYLAYER
 10
41.2493309128
 20
88.9860703812
 40
8.1501951267
100
AcDbArc
 50
151.5385845196
 51
208.461415467
  0
ARC
  5
278
100
AcDbEntity
  8
0
100
AcDbCircle
 62
7
  6
BYLAYER
 10
43.6988697105
 20
68.4860703812
 40
5.0
100
AcDbArc
 50
151.3209389296
 51
171.0505216142
  0
ARC
  5
279
100
AcDbEntity
  8
0
100
AcDbCircle
 62
7
  6
BYLAYER
 10
43.6988697105
 20
68.4860703812
 40
5.0
100
AcDbArc
 50
188.9494783858
 51
208.679061055
  0
ARC
  5
27A
100
AcDbEntity
  8
0
100
AcDbCircle
 62
7
  6
BYLAYER
 10
35.899135786
 20
100.9419065745
 40
2.5
100
AcDbArc
 50
0.0
 51
38.0
  0
ARC
  5
27B
100
AcDbEntity
  8
0
100
AcDbCircle
 62
7
  6
BYLAYER
 10
41.2595613602
 20
69.193371356
 40
2.459671143
100
AcDbArc
 50
180.0045235619
 51
189.1020309367
  0
ARC
  5
27C
100
AcDbEntity
  8
0
100
AcDbCircle
 62
7
  6
BYLAYER
 10
41.2499876802
 20
69.1931696123
 40
2.4500974553
100
AcDbArc
 50
178.3717887289
 51
179.9998234386
  0
ARC
  5
27D
100
AcDbEntity
  8
0
100
AcDbCircle
 62
7
  6
BYLAYER
 10
41.3067506918
 20
67.4961208876
 40
2.4078812787
100
AcDbArc
 50
170.7051620055
 51
189.2948379945
  0
ARC
  5
27E
100
AcDbEntity
  8
0
100
AcDbCircle
 62
7
  6
BYLAYER
 10
34.449135786
 20
106.8584950549
 40
2.0
100
AcDbArc
 50
180.0
 51
218.0000000013
  0
ARC
  5
27F
100
AcDbEntity
  8
0
100
AcDbCircle
 62
7
  6
BYLAYER
 10
63.599135786
 20
95.1860703812
 40
2.0
100
AcDbArc
 50
0.0
 51
90.0
  0
ARC
  5
280
100
AcDbEntity
  8
0
100
AcDbCircle
 62
7
  6
BYLAYER
 10
42.4259631103
 20
74.5717861835
 40
1.5
100
AcDbArc
 50
90.0
 51
168.480192919
  0
ARC
  5
281
100
AcDbEntity
  8
0
100
AcDbCircle
 62
7
  6
BYLAYER
 10
59.5313519151
 20
16.2736121828
 40
1.114097772
100
AcDbArc
 50
315.0177643356
 51
22.7855324308
  0
ARC
  5
282
100
AcDbEntity
  8
0
100
AcDbCircle
 62
7
  6
BYLAYER
 10
58.8584679763
 20
18.4398880447
 40
0.7317364017
100
AcDbArc
 50
24.9490682396
 51
88.6489597328
  0
ARC
  5
283
100
AcDbEntity
  8
0
100
AcDbCircle
 62
7
  6
BYLAYER
 10
58.1338388231
 20
18.4617343774
 40
0.7096895791
100
AcDbArc
 50
89.8353275163
 51
143.8893954579
  0
ARC
  5
284
100
AcDbEntity
  8
0
100
AcDbCircle
 62
7
  6
BYLAYER
 10
39.7509224936
 20
66.3265072836
 40
0.5
100
AcDbArc
 50
208.6790611446
 51
265.0
  0
ARC
  5
285
100
AcDbEntity
  8
0
100
AcDbCircle
 62
7
  6
BYLAYER
 10
39.7509224936
 20
70.6456334789
 40
0.5
100
AcDbArc
 50
95.0
 51
151.3209388554
  0
SPLINE
  5
286
100
AcDbEntity
  8
0
100
AcDbSpline
 62
7
  6
BYLAYER
 70
0
 71
3
 72
11
 73
7
 74
0
 42
0.0000001
 43
0.0000001
 44
0.0000000001
 40
0.0
 40
0.0
 40
0.0
 40
0.0
 40
0.1865810029
 40
0.4216562758
 40
0.6959075254
 40
1.0
 40
1.0
 40
1.0
 40
1.0
 10
64.7168204096
 20
96.8446917837
 30
0.0
 10
64.4367515053
 20
96.741541139
 30
0.0
 10
63.7999168235
 20
96.5188837319
 30
0.0
 10
62.7347524858
 20
96.1939921016
 30
0.0
 10
61.4707815993
 20
95.8819587786
 30
0.0
 10
60.5586599074
 20
95.7212922318
 30
0.0
 10
60.076711978
 20
95.6553721051
 30
0.0
  0
SPLINE
  5
287
100
AcDbEntity
  8
0
100
AcDbSpline
 62
7
  6
BYLAYER
 70
0
 71
3
 72
45
 73
41
 74
0
 42
0.0000001
 43
0.0000001
 44
0.0000000001
 40
0.0
 40
0.0
 40
0.0
 40
0.0
 40
0.0439944841
 40
0.0659811963
 40
0.0879078283
 40
0.1315819916
 40
0.1749638874
 40
0.2180369799
 40
0.2607461757
 40
0.303069131
 40
0.3449617013
 40
0.3863845503
 40
0.4272864235
 40
0.5073057683
 40
0.5845101926
 40
0.6582775872
 40
0.7278421126
 40
0.7922728089
 40
0.822228297
 40
0.8504688223
 40
0.8768252584
 40
0.9011245922
 40
0.923181074
 40
0.9428063384
 40
0.9598149078
 40
0.9672812214
 40
0.9740253659
 40
0.9800252897
 40
0.9852643523
 40
0.9897288197
 40
0.9934049856
 40
0.9949431722
 40
0.9962791436
 40
0.9974113184
 40
0.998339036
 40
0.9990620284
 40
0.9995800292
 40
0.9997620747
 40
0.9998927729
 40
1.0
 40
1.0
 40
1.0
 40
1.0
 10
57.599135786
 20
85.6007029309
 30
0.0
 10
57.4535862675
 20
85.6007029309
 30
0.0
 10
57.234920656
 20
85.5839540732
 30
0.0
 10
56.9486814536
 20
85.5317201336
 30
0.0
 10
56.6674789752
 20
85.4609643412
 30
0.0
 10
56.3261831523
 20
85.3424954172
 30
0.0
 10
55.9335648182
 20
85.1648546803
 30
0.0
 10
55.5572078007
 20
84.9619272497
 30
0.0
 10
55.1948876457
 20
84.7417817579
 30
0.0
 10
54.844983103
 20
84.5094807649
 30
0.0
 10
54.5057078709
 20
84.2692650663
 30
0.0
 10
54.1762187511
 20
84.0236071297
 30
0.0
 10
53.7517684161
 20
83.6944623229
 30
0.0
 10
53.2432231311
 20
83.2807804192
 30
0.0
 10
52.6604189094
 20
82.7864218252
 30
0.0
 10
52.1109163431
 20
82.3064106164
 30
0.0
 10
51.5980010501
 20
81.848825813
 30
0.0
 10
51.1960111828
 20
81.4846626202
 30
0.0
 10
50.8965665245
 20
81.2109473311
 30
0.0
 10
50.6905690406
 20
81.021701578
 30
0.0
 10
50.4987300663
 20
80.8447047583
 30
0.0
 10
50.3222091389
 20
80.6812769335
 30
0.0
 10
50.1622653733
 20
80.5327234362
 30
0.0
 10
50.020189586
 20
80.4003756408
 30
0.0
 10
49.9135602138
 20
80.3007928638
 30
0.0
 10
49.8381190732
 20
80.2302509376
 30
0.0
 10
49.7892907899
 20
80.1845728876
 30
0.0
 10
49.7458424333
 20
80.1439298941
 30
0.0
 10
49.7078981474
 20
80.1084431566
 30
0.0
 10
49.6755660519
 20
80.0782105177
 30
0.0
 10
49.6521747229
 20
80.0563430243
 30
0.0
 10
49.6363431222
 20
80.0415447694
 30
0.0
 10
49.6266589088
 20
80.0324954796
 30
0.0
 10
49.6184516405
 20
80.0248226302
 30
0.0
 10
49.6117197587
 20
80.0185442547
 30
0.0
 10
49.6064852561
 20
80.0136313688
 30
0.0
 10
49.6030205711
 20
80.010455801
 30
0.0
 10
49.6010365672
 20
80.0085370745
 30
0.0
 10
49.5999664999
 20
80.0076764369
 30
0.0
 10
49.5994881192
 20
80.0069778182
 30
0.0
 10
49.5991575847
 20
80.0068490108
 30
0.0
  0
SPLINE
  5
288
100
AcDbEntity
  8
0
100
AcDbSpline
 62
7
  6
BYLAYER
 70
0
 71
3
 72
13
 73
9
 74
0
 42
0.0000001
 43
0.0000001
 44
0.0000000001
 40
0.0
 40
0.0
 40
0.0
 40
0.0
 40
0.1264576272
 40
0.2526852856
 40
0.3785150655
 40
0.503851645
 40
0.7527743803
 40
1.0
 40
1.0
 40
1.0
 40
1.0
 10
57.599135786
 20
94.4619942547
 30
0.0
 10
57.7180054387
 20
94.4619942547
 30
0.0
 10
57.9558340977
 20
94.4781755491
 30
0.0
 10
58.3054216908
 20
94.5492075109
 30
0.0
 10
58.6425446816
 20
94.662294552
 30
0.0
 10
59.0697032431
 20
94.8604201508
 30
0.0
 10
59.561183334
 20
95.1819175816
 30
0.0
 10
59.9113134468
 20
95.4919231185
 30
0.0
 10
60.076606617
 20
95.6552748195
 30
0.0
  0
SPLINE
  5
289
100
AcDbEntity
  8
0
100
AcDbSpline
 62
7
  6
BYLAYER
 70
0
 71
3
 72
29
 73
25
 74
0
 42
0.0000001
 43
0.0000001
 44
0.0000000001
 40
0.0
 40
0.0
 40
0.0
 40
0.0
 40
0.0003034904
 40
0.0012131169
 40
0.0027273438
 40
0.0048446357
 40
0.0075634576
 40
0.0108822748
 40
0.0193137554
 40
0.0301218248
 40
0.0432733703
 40
0.0587321505
 40
0.076461955
 40
0.0964220863
 40
0.1185572447
 40
0.1691199242
 40
0.2276605877
 40
0.2935970697
 40
0.3663043641
 40
0.4450804172
 40
0.5291845362
 40
0.6177963541
 40
0.8051617223
 40
1.0
 40
1.0
 40
1.0
 40
1.0
 10
51.5991357981
 20
79.4860726995
 30
0.0
 10
51.5985752342
 20
79.4863086707
 30
0.0
 10
51.6038269619
 20
79.4853028651
 30
0.0
 10
51.6065227662
 20
79.4854138979
 30
0.0
 10
51.6171269608
 20
79.4840111577
 30
0.0
 10
51.629089379
 20
79.4828004664
 30
0.0
 10
51.6456011477
 20
79.4809532052
 30
0.0
 10
51.6743003543
 20
79.4778431113
 30
0.0
 10
51.7193276498
 20
79.4729500772
 30
0.0
 10
51.7838326846
 20
79.4660208854
 30
0.0
 10
51.8624004782
 20
79.4576814252
 30
0.0
 10
51.9547604851
 20
79.4480309015
 30
0.0
 10
52.0607166017
 20
79.4371486212
 30
0.0
 10
52.1800037973
 20
79.4251286183
 30
0.0
 10
52.3648002872
 20
79.4069317883
 30
0.0
 10
52.6266427072
 20
79.382198164
 30
0.0
 10
52.976064637
 20
79.3512648832
 30
0.0
 10
53.3699205934
 20
79.3190881236
 30
0.0
 10
53.8044512522
 20
79.2868927656
 30
0.0
 10
54.2755643624
 20
79.255897759
 30
0.0
 10
54.778760781
 20
79.2273332977
 30
0.0
 10
55.4995804474
 20
79.1932389293
 30
0.0
 10
56.4426983799
 20
79.1630495422
 30
0.0
 10
57.2086728536
 20
79.1547582878
 30
0.0
 10
57.599135786
 20
79.1547582878
 30
0.0
  0
SPLINE
  5
28A
100
AcDbEntity
  8
0
100
AcDbSpline
 62
7
  6
BYLAYER
 70
0
 71
3
 72
9
 73
5
 74
0
 42
0.0000001
 43
0.0000001
 44
0.0000000001
 40
0.0
 40
0.0
 40
0.0
 40
0.0
 40
0.2534519264
 40
1.0
 40
1.0
 40
1.0
 40
1.0
 10
38.9304842395
 20
67.8850296172
 30
0.0
 10
38.910215106
 20
67.933845765
 30
0.0
 10
38.8357203041
 20
68.1286682602
 30
0.0
 10
38.7839600978
 20
68.3322745912
 30
0.0
 10
38.7597402325
 20
68.4860703812
 30
0.0
  0
SPLINE
  5
28B
100
AcDbEntity
  8
0
100
AcDbSpline
 62
7
  6
BYLAYER
 70
0
 71
3
 72
9
 73
5
 74
0
 42
0.0000001
 43
0.0000001
 44
0.0000000001
 40
0.0
 40
0.0
 40
0.0
 40
0.0
 40
0.4706972139
 40
1.0
 40
1.0
 40
1.0
 40
1.0
 10
39.312184589
 20
69.748581777
 30
0.0
 10
39.3442060127
 20
69.7911073808
 30
0.0
 10
39.4332068558
 20
69.8660663731
 30
0.0
 10
39.5408021304
 20
69.9065826028
 30
0.0
 10
39.599135786
 20
69.9200204089
 30
0.0
  0
SPLINE
  5
28C
100
AcDbEntity
  8
0
100
AcDbSpline
 62
7
  6
BYLAYER
 70
0
 71
3
 72
9
 73
5
 74
0
 42
0.0000001
 43
0.0000001
 44
0.0000000001
 40
0.0
 40
0.0
 40
0.0
 40
0.0
 40
0.4951030969
 40
1.0
 40
1.0
 40
1.0
 40
1.0
 10
38.7597402325
 20
68.4860703812
 30
0.0
 10
38.7781605439
 20
68.6030390888
 30
0.0
 10
38.8320798739
 20
68.8369300348
 30
0.0
 10
38.9171240912
 20
69.0612954494
 30
0.0
 10
38.9670407635
 20
69.1712477421
 30
0.0
  0
SPLINE
  5
28D
100
AcDbEntity
  8
0
100
AcDbSpline
 62
7
  6
BYLAYER
 70
0
 71
3
 72
9
 73
5
 74
0
 42
0.0000001
 43
0.0000001
 44
0.0000000001
 40
0.0
 40
0.0
 40
0.0
 40
0.0
 40
0.2451146928
 40
1.0
 40
1.0
 40
1.0
 40
1.0
 10
38.9670407635
 20
69.1712477421
 30
0.0
 10
38.9897851342
 20
69.2213471495
 30
0.0
 10
39.0884954348
 20
69.4230237063
 30
0.0
 10
39.2102568166
 20
69.6132180774
 30
0.0
 10
39.312184589
 20
69.748581777
 30
0.0
  0
SPLINE
  5
28E
100
AcDbEntity
  8
0
100
AcDbSpline
 62
7
  6
BYLAYER
 70
0
 71
3
 72
29
 73
25
 74
0
 42
0.0000001
 43
0.0000001
 44
0.0000000001
 40
0.0
 40
0.0
 40
0.0
 40
0.0
 40
0.1948443724
 40
0.3822118146
 40
0.4708219206
 40
0.5549244179
 40
0.6336989435
 40
0.7064046733
 40
0.7723402565
 40
0.830880483
 40
0.8814429512
 40
0.903577987
 40
0.9235382212
 40
0.9412681558
 40
0.9567267932
 40
0.9698781858
 40
0.9806863594
 40
0.9891179978
 40
0.9924367492
 40
0.9951554601
 40
0.9972726358
 40
0.9987867813
 40
0.9996964012
 40
1.0
 40
1.0
 40
1.0
 40
1.0
 10
57.599135786
 20
79.1547582878
 30
0.0
 10
57.9896109311
 20
79.1547582878
 30
0.0
 10
58.7556017943
 20
79.1630488326
 30
0.0
 10
59.6987325961
 20
79.1932407963
 30
0.0
 10
60.4195497022
 20
79.2273358758
 30
0.0
 10
60.9227362822
 20
79.2559016709
 30
0.0
 10
61.3938400203
 20
79.2868951911
 30
0.0
 10
61.8283626764
 20
79.3190902476
 30
0.0
 10
62.2222129381
 20
79.3512654461
 30
0.0
 10
62.5716318003
 20
79.3821977532
 30
0.0
 10
62.8334728407
 20
79.406930671
 30
0.0
 10
63.0182687161
 20
79.4251271432
 30
0.0
 10
63.1375565338
 20
79.4371477842
 30
0.0
 10
63.2435113621
 20
79.4480301598
 30
0.0
 10
63.3358752823
 20
79.457682531
 30
0.0
 10
63.4144302339
 20
79.4660167387
 30
0.0
 10
63.4789700877
 20
79.4729609565
 30
0.0
 10
63.5239180879
 20
79.4778210441
 30
0.0
 10
63.5527390938
 20
79.480982209
 30
0.0
 10
63.5689943199
 20
79.4827214917
 30
0.0
 10
63.581618028
 20
79.4842103931
 30
0.0
 10
63.5907221712
 20
79.4849818933
 30
0.0
 10
63.5960516419
 20
79.4859789969
 30
0.0
 10
63.59857501
 20
79.4858366442
 30
0.0
 10
63.5991357739
 20
79.4860726995
 30
0.0
  0
SPLINE
  5
28F
100
AcDbEntity
  8
0
100
AcDbSpline
 62
7
  6
BYLAYER
 70
0
 71
3
 72
9
 73
5
 74
0
 42
0.0000001
 43
0.0000001
 44
0.0000000001
 40
0.0
 40
0.0
 40
0.0
 40
0.0
 40
0.5293013096
 40
1.0
 40
1.0
 40
1.0
 40
1.0
 10
39.599135786
 20
70.6978371746
 30
0.0
 10
39.5408030585
 20
70.6843995821
 30
0.0
 10
39.4332111926
 20
70.6438807049
 30
0.0
 10
39.3442076121
 20
70.5689274038
 30
0.0
 10
39.3121865079
 20
70.5264022248
 30
0.0
  0
SPLINE
  5
290
100
AcDbEntity
  8
0
100
AcDbSpline
 62
7
  6
BYLAYER
 70
0
 71
3
 72
9
 73
5
 74
0
 42
0.0000001
 43
0.0000001
 44
0.0000000001
 40
0.0
 40
0.0
 40
0.0
 40
0.0
 40
0.247388118
 40
1.0
 40
1.0
 40
1.0
 40
1.0
 10
38.7597402325
 20
67.7082529219
 30
0.0
 10
38.7677663004
 20
67.6572875082
 30
0.0
 10
38.8064852149
 20
67.4522948268
 30
0.0
 10
38.8702983317
 20
67.252172441
 30
0.0
 10
38.9304878276
 20
67.1072121579
 30
0.0
  0
SPLINE
  5
291
100
AcDbEntity
  8
0
100
AcDbSpline
 62
7
  6
BYLAYER
 70
0
 71
3
 72
9
 73
5
 74
0
 42
0.0000001
 43
0.0000001
 44
0.0000000001
 40
0.0
 40
0.0
 40
0.0
 40
0.0
 40
0.5121339556
 40
1.0
 40
1.0
 40
1.0
 40
1.0
 10
39.3121865079
 20
70.5264022248
 30
0.0
 10
39.1695994075
 20
70.3370414945
 30
0.0
 10
38.9293605729
 20
69.9360017982
 30
0.0
 10
38.7948678491
 20
69.4869476912
 30
0.0
 10
38.7597402325
 20
69.2638878405
 30
0.0
  0
ENDSEC
  0
SECTION
  2
OBJECTS
  0
DICTIONARY
  5
C
100
AcDbDictionary
280
0
281
1
  3
ACAD_GROUP
350
D
  3
ACAD_MLINESTYLE
350
17
  3
ACAD_LAYOUT
350
1A
  3
ACAD_PLOTSETTINGS
350
19
  3
ACAD_PLOTSTYLENAME
350
E
  0
DICTIONARY
  5
D
102
{ACAD_REACTORS
330
C
102
}
100
AcDbDictionary
280
0
281
1
  0
ACDBDICTIONARYWDFLT
  5
E
102
{ACAD_REACTORS
330
C
102
}
100
AcDbDictionary
281
1
  3
Normal
350
F
100
AcDbDictionaryWithDefault
340
F
  0
DICTIONARY
  5
17
102
{ACAD_REACTORS
330
C
102
}
100
AcDbDictionary
280
0
281
1
  3
Standard
350
18
  0
DICTIONARY
  5
19
102
{ACAD_REACTORS
330
C
102
}
100
AcDbDictionary
281
1
  0
DICTIONARY
  5
1A
102
{ACAD_REACTORS
330
C
102
}
100
AcDbDictionary
281
1
  3
Model
350
292
  3
Layout1
350
293
  0
ACDBPLACEHOLDER
  5
F
102
{ACAD_REACTORS
330
E
102
}
  0
MLINESTYLE
  5
18
102
{ACAD_REACTORS
330
17
102
}
100
AcDbMlineStyle
  2
STANDARD
 70
0
  3

 62
256
 51
90.0
 52
90.0
 71
2
 49
0.5
 62
256
  6
BYLAYER
 49
-0.5
 62
256
  6
BYLAYER
  0
LAYOUT
  5
292
102
{ACAD_REACTORS
330
1A
102
}
100
AcDbPlotSettings
  1

  2
none_device
  4

  6

 40
0.0
 41
0.0
 42
0.0
 43
0.0
 44
210.0
 45
297.0
 46
0.0
 47
0.0
 48
0.0
 49
0.0
140
0.0
141
0.0
142
1.0
143
1.0
 70
1024
 72
1
 73
0
 74
0
  7

 75
0
147
1.0
148
0.0
149
0.0
100
AcDbLayout
  1
Model
 70
0
 71
0
 10
0.0
 20
0.0
 11
210.0
 21
297.0
 12
0.0
 22
0.0
 32
0.0
 14
0.0
 24
0.0
 34
0.0
 15
0.0
 25
0.0
 35
0.0
146
0.0
 13
0.0
 23
0.0
 33
0.0
 16
1.0
 26
0.0
 36
0.0
 17
0.0
 27
1.0
 37
0.0
 76
0
330
210
345
0
346
0
  0
LAYOUT
  5
293
102
{ACAD_REACTORS
330
1A
102
}
100
AcDbPlotSettings
  1

  2
none_device
  4

  6

 40
0.0
 41
0.0
 42
0.0
 43
0.0
 44
210.0
 45
297.0
 46
0.0
 47
0.0
 48
0.0
 49
0.0
140
0.0
141
0.0
142
1.0
143
1.0
 70
0
 72
1
 73
0
 74
0
  7

 75
0
147
1.0
148
0.0
149
0.0
100
AcDbLayout
  1
Layout1
 70
0
 71
1
 10
0.0
 20
0.0
 11
210.0
 21
297.0
 12
0.0
 22
0.0
 32
0.0
 14
0.0
 24
0.0
 34
0.0
 15
0.0
 25
0.0
 35
0.0
146
0.0
 13
0.0
 23
0.0
 33
0.0
 16
1.0
 26
0.0
 36
0.0
 17
0.0
 27
1.0
 37
0.0
 76
0
330
211
345
0
346
0
  0
ENDSEC
  0
EOF
