999
DXF file: C:\Users\sesa63760\Dev\_Creo\CAD\MCADID0000751_3D-CAD\drw0001_1.dxf
999
Pro/ENGINEER 2019471 by Parametric Technology Corporation
  0
SECTION
  2
HEADER
  9
$ACADVER
  1
AC1024
  9
$DWGCODEPAGE
  3
ANSI_1252
  9
$EXTMAX
 10
93.3682634325
 20
132.0494011402
 30
0.0
  9
$EXTMIN
 10
-0.0
 20
0.0
 30
0.0
  9
$LIMMIN
 10
-0.0
 20
0.0
  9
$LIMMAX
 10
93.3682634325
 20
132.0494011402
  9
$VIEWCTR
 10
46.6841317162
 20
66.0247005701
  9
$VIEWSIZE
 40
132.0494011402
  9
$CLAYER
  8
0
  9
$LTSCALE
 40
8.6076646669
  9
$CELTYPE
  6
BYLAYER
  9
$DIMSCALE
 40
1.0
  9
$DIMASZ
 40
1.1115269456
  9
$DIMEXO
 40
1.0
  9
$DIMDLI
 40
5.9471137699
  9
$DIMEXE
 40
1.0
  9
$DIMCEN
 40
1.4085269455
  9
$DIMLFAC
 40
1.0
  9
$DIMBLK
  1
_FILLED
  9
$DIMALT
 70
0
  9
$DIMALTF
 40
0.0393700787
  9
$DIMTXT
 40
1.5561377239
  9
$DIMTOL
 70
1
  9
$DIMLIM
 70
0
  9
$DIMTFAC
 40
1.0
  9
$DIMTP
 40
0.01
  9
$DIMTM
 40
0.01
  9
$DIMGAP
 40
0.625
  9
$DIMDSEP
 70
46
  9
$AUNITS
 70
0
  9
$PDMODE
 70
3
  9
$PDSIZE
 40
0.3125
  9
$HANDSEED
  5
39E
  9
$TILEMODE
 70
1
  9
$MEASUREMENT
 70
1
  9
$INSUNITS
 70
4
  0
ENDSEC
  0
SECTION
  2
CLASSES
  0
CLASS
  1
ACDBDICTIONARYWDFLT
  2
AcDbDictionaryWithDefault
  3
AutoCAD 2000
 90
0
 91
1
280
0
281
0
  0
CLASS
  1
ACDBPLACEHOLDER
  2
AcDbPlaceHolder
  3
AutoCAD 2000
 90
0
 91
1
280
0
281
0
  0
CLASS
  1
LAYOUT
  2
AcDbLayout
  3
AutoCAD 2000
 90
0
 91
0
280
0
281
0
  0
ENDSEC
  0
SECTION
  2
TABLES
  0
TABLE
  2
VPORT
  5
8
100
AcDbSymbolTable
 70
2
  0
VPORT
  5
1F4
100
AcDbSymbolTableRecord
100
AcDbViewportTableRecord
  2
*ACTIVE
 70
0
 10
0.0
 20
0.0
 11
1.0
 21
1.0
 12
46.6841317162
 22
66.0247005701
 13
0.0
 23
0.0
 14
1.0
 24
1.0
 15
0.0
 25
0.0
 16
0.0
 26
0.0
 36
1.0
 17
0.0
 27
0.0
 37
0.0
 40
132.0494011402
 41
0.7070707071
 42
50.0
 43
0.0
 44
0.0
 50
0.0
 51
0.0
 71
0
 72
100
 73
1
 74
1
 75
0
 76
0
 77
0
 78
0
  0
ENDTAB
  0
TABLE
  2
LTYPE
  5
5
100
AcDbSymbolTable
 70
6
  0
LTYPE
  5
14
100
AcDbSymbolTableRecord
100
AcDbLinetypeTableRecord
  2
BYBLOCK
 70
0
  3

 72
65
 73
0
 40
0.0
  0
LTYPE
  5
15
100
AcDbSymbolTableRecord
100
AcDbLinetypeTableRecord
  2
BYLAYER
 70
0
  3

 72
65
 73
0
 40
0.0
  0
LTYPE
  5
16
100
AcDbSymbolTableRecord
100
AcDbLinetypeTableRecord
  2
CONTINUOUS
 70
64
  3
Solid line
 72
65
 73
0
 40
0.0
  0
LTYPE
  5
1F5
100
AcDbSymbolTableRecord
100
AcDbLinetypeTableRecord
  2
CENTER
 70
64
  3
____ _ ____ _ ____ _ ____ _ ____ _ ____ _ ____
 72
65
 73
4
 40
0.6
 49
0.375
 74
0
 49
-0.075
 74
0
 49
0.075
 74
0
 49
-0.075
 74
0
  0
LTYPE
  5
1F6
100
AcDbSymbolTableRecord
100
AcDbLinetypeTableRecord
  2
HIDDEN
 70
64
  3
- - - - - - - - - - - - - - - - - - - -
 72
65
 73
2
 40
0.2
 49
0.1
 74
0
 49
-0.1
 74
0
  0
LTYPE
  5
1F7
100
AcDbSymbolTableRecord
100
AcDbLinetypeTableRecord
  2
PHANTOM
 70
64
  3
_____ _ _ _____ _ _ _____ _ _ _____
 72
65
 73
6
 40
0.8
 49
0.45
 74
0
 49
-0.05
 74
0
 49
0.1
 74
0
 49
-0.05
 74
0
 49
0.1
 74
0
 49
-0.05
 74
0
  0
LTYPE
  5
1F8
100
AcDbSymbolTableRecord
100
AcDbLinetypeTableRecord
  2
DOT
 70
64
  3
. . . . . . . . . . . . . . . . . . . .
 72
65
 73
2
 40
0.2
 49
0.1
 74
0
 49
-0.1
 74
0
  0
LTYPE
  5
1F9
100
AcDbSymbolTableRecord
100
AcDbLinetypeTableRecord
  2
DASHED
 70
64
  3
- - - - - - - - - - - - - - - - - - - -
 72
65
 73
2
 40
0.2
 49
0.1
 74
0
 49
-0.1
 74
0
  0
ENDTAB
  0
TABLE
  2
LAYER
  5
2
100
AcDbSymbolTable
 70
36
  0
LAYER
  5
10
100
AcDbSymbolTableRecord
100
AcDbLayerTableRecord
  2
0
 70
0
 62
7
  6
CONTINUOUS
370
-3
390
F
  0
LAYER
  5
1FA
100
AcDbSymbolTableRecord
100
AcDbLayerTableRecord
  2
DEFAULT_1
 70
0
 62
7
  6
CENTER
370
-3
390
F
  0
LAYER
  5
1FB
100
AcDbSymbolTableRecord
100
AcDbLayerTableRecord
  2
DEFAULT_2
 70
0
 62
8
  6
HIDDEN
370
-3
390
F
  0
LAYER
  5
1FC
100
AcDbSymbolTableRecord
100
AcDbLayerTableRecord
  2
DEFAULT_3
 70
0
 62
7
  6
PHANTOM
370
-3
390
F
  0
LAYER
  5
1FD
100
AcDbSymbolTableRecord
100
AcDbLayerTableRecord
  2
00_COMPONENTS
 70
0
 62
7
  6
CONTINUOUS
370
-3
390
F
  0
LAYER
  5
1FE
100
AcDbSymbolTableRecord
100
AcDbLayerTableRecord
  2
01_1_DEFAULT_DATUMS
 70
0
 62
7
  6
CONTINUOUS
370
-3
390
F
  0
LAYER
  5
1FF
100
AcDbSymbolTableRecord
100
AcDbLayerTableRecord
  2
01_PLANES
 70
0
 62
7
  6
CONTINUOUS
370
-3
390
F
  0
LAYER
  5
200
100
AcDbSymbolTableRecord
100
AcDbLayerTableRecord
  2
02_COORD_SYS
 70
0
 62
7
  6
CONTINUOUS
370
-3
390
F
  0
LAYER
  5
201
100
AcDbSymbolTableRecord
100
AcDbLayerTableRecord
  2
03_AXES
 70
0
 62
7
  6
CONTINUOUS
370
-3
390
F
  0
LAYER
  5
202
100
AcDbSymbolTableRecord
100
AcDbLayerTableRecord
  2
04_POINTS
 70
0
 62
7
  6
CONTINUOUS
370
-3
390
F
  0
LAYER
  5
203
100
AcDbSymbolTableRecord
100
AcDbLayerTableRecord
  2
05_CURVES
 70
0
 62
7
  6
CONTINUOUS
370
-3
390
F
  0
LAYER
  5
204
100
AcDbSymbolTableRecord
100
AcDbLayerTableRecord
  2
06_SURFS
 70
0
 62
7
  6
CONTINUOUS
370
-3
390
F
  0
LAYER
  5
205
100
AcDbSymbolTableRecord
100
AcDbLayerTableRecord
  2
07_COSMETICS
 70
0
 62
7
  6
CONTINUOUS
370
-3
390
F
  0
LAYER
  5
206
100
AcDbSymbolTableRecord
100
AcDbLayerTableRecord
  2
10_NOTES
 70
0
 62
7
  6
CONTINUOUS
370
-3
390
F
  0
LAYER
  5
207
100
AcDbSymbolTableRecord
100
AcDbLayerTableRecord
  2
11_NOTES_PUB
 70
0
 62
7
  6
CONTINUOUS
370
-3
390
F
  0
LAYER
  5
208
100
AcDbSymbolTableRecord
100
AcDbLayerTableRecord
  2
13_REF_GTOL
 70
0
 62
7
  6
CONTINUOUS
370
-3
390
F
  0
LAYER
  5
209
100
AcDbSymbolTableRecord
100
AcDbLayerTableRecord
  2
16_MISC
 70
0
 62
7
  6
CONTINUOUS
370
-3
390
F
  0
LAYER
  5
20A
100
AcDbSymbolTableRecord
100
AcDbLayerTableRecord
  2
17_NO_PRINT
 70
0
 62
7
  6
CONTINUOUS
370
-3
390
F
  0
LAYER
  5
20B
100
AcDbSymbolTableRecord
100
AcDbLayerTableRecord
  2
18_DATUM_CAMS_JOINTS
 70
0
 62
7
  6
CONTINUOUS
370
-3
390
F
  0
LAYER
  5
20C
100
AcDbSymbolTableRecord
100
AcDbLayerTableRecord
  2
19_DATUM_FUNCTIONAL
 70
0
 62
7
  6
CONTINUOUS
370
-3
390
F
  0
LAYER
  5
20D
100
AcDbSymbolTableRecord
100
AcDbLayerTableRecord
  2
20_DATUM_KINEMATIC_SCHEME
 70
0
 62
7
  6
CONTINUOUS
370
-3
390
F
  0
ENDTAB
  0
TABLE
  2
STYLE
  5
3
100
AcDbSymbolTable
 70
1
  0
STYLE
  5
11
100
AcDbSymbolTableRecord
100
AcDbTextStyleTableRecord
  2
STANDARD
 70
0
 40
0.0
 41
0.8
 50
0.0
 71
0
 42
0.2
  3
txt
  4

  0
STYLE
  5
20E
100
AcDbSymbolTableRecord
100
AcDbTextStyleTableRecord
  2
TEXTSTYLE_1
 70
0
 40
0.0
 41
0.8
 50
0.0
 71
0
 42
0.2
  3
gdt
  4

  0
ENDTAB
  0
TABLE
  2
VIEW
  5
6
100
AcDbSymbolTable
 70
0
  0
ENDTAB
  0
TABLE
  2
UCS
  5
7
100
AcDbSymbolTable
 70
0
  0
ENDTAB
  0
TABLE
  2
APPID
  5
9
100
AcDbSymbolTable
 70
1
  0
APPID
  5
20F
100
AcDbSymbolTableRecord
100
AcDbRegAppTableRecord
  2
ACAD
 70
0
  0
ENDTAB
  0
TABLE
  2
BLOCK_RECORD
  5
1
100
AcDbSymbolTable
 70
0
  0
BLOCK_RECORD
  5
210
100
AcDbSymbolTableRecord
100
AcDbBlockTableRecord
  2
*Model_Space
  0
BLOCK_RECORD
  5
211
100
AcDbSymbolTableRecord
100
AcDbBlockTableRecord
  2
*Paper_Space
  0
BLOCK_RECORD
  5
212
100
AcDbSymbolTableRecord
100
AcDbBlockTableRecord
  2
_FILLED
  0
ENDTAB
  0
TABLE
  2
DIMSTYLE
  5
A
100
AcDbSymbolTable
 70
1
100
AcDbDimStyleTable
 71
0
  0
DIMSTYLE
105
213
100
AcDbSymbolTableRecord
100
AcDbDimStyleTableRecord
  2
STANDARD
 70
0
  3

  4

 40
1.0
 41
1.1115269456
 42
1.0
 43
0.38
 44
1.0
 45
0.0
 46
0.0
 47
0.01
 48
0.01
140
1.5561377239
141
0.09
142
0.0
143
25.4
144
1.0
145
0.0
146
1.0
147
0.625
 71
1
 72
0
 73
0
 74
0
 75
0
 76
0
 77
1
 78
8
 79
2
170
0
171
1
172
0
173
0
174
0
175
0
176
0
177
0
178
0
270
2
179
2
271
2
272
2
273
2
274
2
275
0
280
0
281
0
282
0
283
1
284
8
285
0
286
0
287
3
288
0
340
11
278
46
341
212
342
212
343
212
344
212
  0
ENDTAB
  0
ENDSEC
  0
SECTION
  2
BLOCKS
  0
BLOCK
  5
20
100
AcDbEntity
  8
0
100
AcDbBlockBegin
  2
*Model_Space
 70
0
 10
0.0
 20
0.0
 30
0.0
  3
*Model_Space
  1

  0
ENDBLK
  5
21
100
AcDbEntity
  8
0
100
AcDbBlockEnd
  0
BLOCK
  5
1C
100
AcDbEntity
  8
0
100
AcDbBlockBegin
  2
*Paper_Space
 70
0
 10
0.0
 20
0.0
 30
0.0
  3
*Paper_Space
  1

  0
ENDBLK
  5
1D
100
AcDbEntity
  8
0
100
AcDbBlockEnd
  0
BLOCK
  5
214
100
AcDbEntity
  8
0
100
AcDbBlockBegin
  2
_FILLED
 70
64
 10
0.0
 20
0.0
  3
_FILLED
  1

  0
SOLID
  5
215
100
AcDbEntity
  8
0
  6
BYBLOCK
 62
0
100
AcDbTrace
 10
0.0
 20
0.0
 11
-1.0
 21
0.25
 12
-1.0
 22
-0.25
 13
-1.0
 23
-0.25
  0
ENDBLK
  5
216
100
AcDbEntity
  8
0
  6
BYBLOCK
 62
0
100
AcDbBlockEnd
  0
ENDSEC
  0
SECTION
  2
ENTITIES
  0
LINE
  5
217
100
AcDbEntity
  8
0
100
AcDbLine
 62
7
  6
CONTINUOUS
 10
13.457623113
 20
13.4004983777
 11
15.0132645078
 21
12.5023687181
  0
LINE
  5
218
100
AcDbEntity
  8
0
100
AcDbLine
 62
7
  6
CONTINUOUS
 10
21.617658507
 20
10.1917323028
 11
16.3143355682
 21
13.2535379618
  0
LINE
  5
219
100
AcDbEntity
  8
0
100
AcDbLine
 62
7
  6
CONTINUOUS
 10
13.457623113
 20
14.902824355
 11
11.0110126299
 21
16.3153436206
  0
LINE
  5
21A
100
AcDbEntity
  8
0
100
AcDbLine
 62
7
  6
CONTINUOUS
 10
20.3095055156
 20
12.1227411787
 11
19.7084622492
 21
12.46974582
  0
LINE
  5
21B
100
AcDbEntity
  8
0
100
AcDbLine
 62
7
  6
CONTINUOUS
 10
19.7084622492
 20
14.3477013794
 11
20.3095055156
 21
14.0006967381
  0
LINE
  5
21C
100
AcDbEntity
  8
0
100
AcDbLine
 62
7
  6
CONTINUOUS
 10
34.4344636797
 20
10.8039292268
 11
34.7270470698
 21
10.8294333199
  0
LINE
  5
21D
100
AcDbEntity
  8
0
100
AcDbLine
 62
7
  6
CONTINUOUS
 10
20.3095055156
 20
16.2705734577
 11
19.7084622492
 21
16.617578099
  0
LINE
  5
21E
100
AcDbEntity
  8
0
100
AcDbLine
 62
7
  6
CONTINUOUS
 10
19.7084622492
 20
18.4955336584
 11
20.3095055156
 21
18.1485290171
  0
LINE
  5
21F
100
AcDbEntity
  8
0
100
AcDbLine
 62
7
  6
CONTINUOUS
 10
34.4344565581
 20
10.8039168806
 11
28.2715038489
 21
14.3620187912
  0
LINE
  5
220
100
AcDbEntity
  8
0
100
AcDbLine
 62
7
  6
CONTINUOUS
 10
34.3101891656
 20
11.0785885693
 11
28.2715038489
 21
14.5649462905
  0
LINE
  5
221
100
AcDbEntity
  8
0
100
AcDbLine
 62
7
  6
CONTINUOUS
 10
20.3095055156
 20
20.4184057367
 11
19.7084622492
 21
20.765410378
  0
LINE
  5
222
100
AcDbEntity
  8
0
100
AcDbLine
 62
7
  6
CONTINUOUS
 10
32.908420066
 20
14.5440735907
 11
30.0423306696
 21
16.1987736409
  0
LINE
  5
223
100
AcDbEntity
  8
0
100
AcDbLine
 62
7
  6
CONTINUOUS
 10
19.7084622492
 20
22.6433659374
 11
20.3095047758
 21
22.2963617232
  0
LINE
  5
224
100
AcDbEntity
  8
0
100
AcDbLine
 62
7
  6
CONTINUOUS
 10
31.1029864254
 20
16.8111398717
 11
32.908420066
 21
15.7687958543
  0
LINE
  5
225
100
AcDbEntity
  8
0
100
AcDbLine
 62
7
  6
CONTINUOUS
 10
32.294926449
 20
16.3562190262
 11
31.3049728336
 21
16.9277560827
  0
LINE
  5
226
100
AcDbEntity
  8
0
100
AcDbLine
 62
7
  6
CONTINUOUS
 10
20.3095055156
 20
24.5662380157
 11
19.7084622492
 21
24.913242657
  0
LINE
  5
227
100
AcDbEntity
  8
0
100
AcDbLine
 62
7
  6
CONTINUOUS
 10
19.7084622492
 20
26.7911982164
 11
20.3095047758
 21
26.4441940022
  0
LINE
  5
228
100
AcDbEntity
  8
0
100
AcDbLine
 62
7
  6
CONTINUOUS
 10
20.3095055156
 20
28.7140702947
 11
19.7084622492
 21
29.0610749361
  0
LINE
  5
229
100
AcDbEntity
  8
0
100
AcDbLine
 62
7
  6
CONTINUOUS
 10
19.7084622492
 20
30.9390304955
 11
20.3095047758
 21
30.5920262812
  0
LINE
  5
22A
100
AcDbEntity
  8
0
100
AcDbLine
 62
7
  6
CONTINUOUS
 10
20.3095055156
 20
32.8619025737
 11
19.7084622492
 21
33.2089072151
  0
LINE
  5
22B
100
AcDbEntity
  8
0
100
AcDbLine
 62
7
  6
CONTINUOUS
 10
19.7084622492
 20
35.0868627745
 11
20.3095047758
 21
34.7398585602
  0
LINE
  5
22C
100
AcDbEntity
  8
0
100
AcDbLine
 62
7
  6
CONTINUOUS
 10
46.2869293022
 20
20.3880830618
 11
47.7011487525
 21
19.5716015527
  0
LINE
  5
22D
100
AcDbEntity
  8
0
100
AcDbLine
 62
7
  6
CONTINUOUS
 10
11.0110126299
 20
16.3153436206
 11
11.0110126299
 21
62.0231489303
  0
LINE
  5
22E
100
AcDbEntity
  8
0
100
AcDbLine
 62
7
  6
CONTINUOUS
 10
18.0392575564
 20
93.737903068
 11
23.2792303499
 21
96.8687995125
  0
LINE
  5
22F
100
AcDbEntity
  8
0
100
AcDbLine
 62
7
  6
CONTINUOUS
 10
23.2792303499
 20
96.8687995125
 11
41.8980186053
 21
107.6182977579
  0
LINE
  5
230
100
AcDbEntity
  8
0
100
AcDbLine
 62
7
  6
CONTINUOUS
 10
52.2485303381
 20
113.5941328222
 11
67.1196682571
 21
122.1799370526
  0
LINE
  5
231
100
AcDbEntity
  8
0
100
AcDbLine
 62
7
  6
CONTINUOUS
 10
42.8951942692
 20
107.9082458735
 11
49.6957327099
 21
111.8345151362
  0
LINE
  5
232
100
AcDbEntity
  8
0
100
AcDbLine
 62
7
  6
CONTINUOUS
 10
50.8523085813
 20
111.1550237926
 11
52.2485303381
 21
111.9611279879
  0
LINE
  5
233
100
AcDbEntity
  8
0
100
AcDbLine
 62
7
  6
CONTINUOUS
 10
51.7985494802
 20
110.5991047944
 11
45.0350358498
 21
106.6942116882
  0
LINE
  5
234
100
AcDbEntity
  8
0
100
AcDbLine
 62
7
  6
CONTINUOUS
 10
66.8368479194
 20
119.0772937205
 11
69.6652632682
 21
120.710270336
  0
LINE
  5
235
100
AcDbEntity
  8
0
100
AcDbLine
 62
7
  6
CONTINUOUS
 10
18.9860669371
 20
91.2817734136
 11
16.6524216585
 21
89.9344507262
  0
LINE
  5
236
100
AcDbEntity
  8
0
100
AcDbLine
 62
7
  6
CONTINUOUS
 10
54.9928607065
 20
111.9534344257
 11
44.7398550669
 21
106.0338941946
  0
LINE
  5
237
100
AcDbEntity
  8
0
100
AcDbLine
 62
7
  6
CONTINUOUS
 10
35.8147953379
 20
100.1499111497
 11
39.7285515289
 21
102.4095058522
  0
LINE
  5
238
100
AcDbEntity
  8
0
100
AcDbLine
 62
7
  6
CONTINUOUS
 10
61.2705334776
 20
114.8467006891
 11
65.1842896686
 21
117.1062953916
  0
LINE
  5
239
100
AcDbEntity
  8
0
100
AcDbLine
 62
7
  6
CONTINUOUS
 10
18.1522256711
 20
89.7858326528
 11
20.4858709497
 21
91.1331553401
  0
LINE
  5
23A
100
AcDbEntity
  8
0
100
AcDbLine
 62
7
  6
CONTINUOUS
 10
20.3095055156
 20
37.0097348528
 11
19.7084622492
 21
37.3567394941
  0
LINE
  5
23B
100
AcDbEntity
  8
0
100
AcDbLine
 62
7
  6
CONTINUOUS
 10
19.7084622492
 20
39.2346950535
 11
20.3095047758
 21
38.8876908393
  0
LINE
  5
23C
100
AcDbEntity
  8
0
100
AcDbLine
 62
7
  6
CONTINUOUS
 10
36.7968483615
 20
29.6640767457
 11
38.2110678118
 21
28.8475952367
  0
LINE
  5
23D
100
AcDbEntity
  8
0
100
AcDbLine
 62
7
  6
CONTINUOUS
 10
20.3095055156
 20
41.1575671318
 11
19.7084622492
 21
41.5045717731
  0
LINE
  5
23E
100
AcDbEntity
  8
0
100
AcDbLine
 62
7
  6
CONTINUOUS
 10
13.457623113
 20
59.1083036885
 11
13.457623113
 21
13.4004983777
  0
LINE
  5
23F
100
AcDbEntity
  8
0
100
AcDbLine
 62
7
  6
CONTINUOUS
 10
15.0132645078
 20
12.5023687181
 11
15.0132645078
 21
58.2101740289
  0
LINE
  5
240
100
AcDbEntity
  8
0
100
AcDbLine
 62
7
  6
CONTINUOUS
 10
16.0312195855
 20
88.5612342094
 11
16.0312195855
 21
74.1900455157
  0
LINE
  5
241
100
AcDbEntity
  8
0
100
AcDbLine
 62
7
  6
CONTINUOUS
 10
16.3143355682
 20
13.2535379612
 11
16.3143355682
 21
58.961343272
  0
LINE
  5
242
100
AcDbEntity
  8
0
100
AcDbLine
 62
7
  6
CONTINUOUS
 10
66.000679988
 20
116.6349628839
 11
62.0869237969
 21
114.3753681814
  0
LINE
  5
243
100
AcDbEntity
  8
0
100
AcDbLine
 62
7
  6
CONTINUOUS
 10
40.5449418483
 20
101.9381733445
 11
36.6311856572
 21
99.678578642
  0
LINE
  5
244
100
AcDbEntity
  8
0
100
AcDbLine
 62
7
  6
CONTINUOUS
 10
38.5633962267
 20
98.3589212092
 11
42.8307043364
 21
100.8226379886
  0
LINE
  5
245
100
AcDbEntity
  8
0
100
AcDbLine
 62
7
  6
CONTINUOUS
 10
64.0191343664
 20
113.0557107485
 11
68.2864424761
 21
115.519427528
  0
LINE
  5
246
100
AcDbEntity
  8
0
100
AcDbLine
 62
7
  6
CONTINUOUS
 10
39.989970756
 20
97.549544647
 11
42.8307043364
 21
99.1896331543
  0
LINE
  5
247
100
AcDbEntity
  8
0
100
AcDbLine
 62
7
  6
CONTINUOUS
 10
65.4457088957
 20
112.2463341864
 11
68.2864424761
 21
113.8864226937
  0
LINE
  5
248
100
AcDbEntity
  8
0
100
AcDbLine
 62
7
  6
CONTINUOUS
 10
69.7253472197
 20
114.6886942806
 11
65.45803911
 21
112.2249775012
  0
LINE
  5
249
100
AcDbEntity
  8
0
100
AcDbLine
 62
7
  6
CONTINUOUS
 10
44.26960908
 20
99.9919047412
 11
40.0023009703
 21
97.5281879618
  0
LINE
  5
24A
100
AcDbEntity
  8
0
100
AcDbLine
 62
7
  6
CONTINUOUS
 10
19.7084622492
 20
43.3825273325
 11
20.3095047758
 21
43.0355231183
  0
LINE
  5
24B
100
AcDbEntity
  8
0
100
AcDbLine
 62
7
  6
CONTINUOUS
 10
40.3205600061
 20
31.9019882973
 11
41.7347794564
 21
31.0855067882
  0
LINE
  5
24C
100
AcDbEntity
  8
0
100
AcDbLine
 62
7
  6
CONTINUOUS
 10
20.3095055156
 20
45.3053994108
 11
19.7084622492
 21
45.6524040521
  0
LINE
  5
24D
100
AcDbEntity
  8
0
100
AcDbLine
 62
7
  6
CONTINUOUS
 10
34.3101891656
 20
11.0785885693
 11
34.4344636797
 21
10.8039292268
  0
LINE
  5
24E
100
AcDbEntity
  8
0
100
AcDbLine
 62
7
  6
CONTINUOUS
 10
17.6223996522
 20
90.4944644392
 11
17.6223996522
 21
93.0074046455
  0
LINE
  5
24F
100
AcDbEntity
  8
0
100
AcDbLine
 62
7
  6
CONTINUOUS
 10
18.683055408
 20
70.2099078506
 11
18.683055408
 21
66.4525784534
  0
LINE
  5
250
100
AcDbEntity
  8
0
100
AcDbLine
 62
7
  6
CONTINUOUS
 10
19.7084622492
 20
12.46974582
 11
19.7084622492
 21
14.3477013794
  0
LINE
  5
251
100
AcDbEntity
  8
0
100
AcDbLine
 62
7
  6
CONTINUOUS
 10
19.7084622492
 20
16.617578099
 11
19.7084622492
 21
18.4955336584
  0
LINE
  5
252
100
AcDbEntity
  8
0
100
AcDbLine
 62
7
  6
CONTINUOUS
 10
19.7084622492
 20
20.765410378
 11
19.7084622492
 21
22.6433659374
  0
LINE
  5
253
100
AcDbEntity
  8
0
100
AcDbLine
 62
7
  6
CONTINUOUS
 10
19.7084622492
 20
24.913242657
 11
19.7084622492
 21
26.7911982164
  0
LINE
  5
254
100
AcDbEntity
  8
0
100
AcDbLine
 62
7
  6
CONTINUOUS
 10
19.7084622492
 20
29.0610749361
 11
19.7084622492
 21
30.9390304955
  0
LINE
  5
255
100
AcDbEntity
  8
0
100
AcDbLine
 62
7
  6
CONTINUOUS
 10
19.7084622492
 20
33.2089072151
 11
19.7084622492
 21
35.0868627745
  0
LINE
  5
256
100
AcDbEntity
  8
0
100
AcDbLine
 62
7
  6
CONTINUOUS
 10
19.7084622492
 20
37.3567394941
 11
19.7084622492
 21
39.2346950535
  0
LINE
  5
257
100
AcDbEntity
  8
0
100
AcDbLine
 62
7
  6
CONTINUOUS
 10
19.7084622492
 20
41.5045717731
 11
19.7084622492
 21
43.3825273325
  0
LINE
  5
258
100
AcDbEntity
  8
0
100
AcDbLine
 62
7
  6
CONTINUOUS
 10
19.7084622492
 20
45.6524040521
 11
19.7084622492
 21
47.5303596115
  0
LINE
  5
259
100
AcDbEntity
  8
0
100
AcDbLine
 62
7
  6
CONTINUOUS
 10
19.7084622492
 20
49.8002363312
 11
19.7084622492
 21
51.6781918906
  0
LINE
  5
25A
100
AcDbEntity
  8
0
100
AcDbLine
 62
7
  6
CONTINUOUS
 10
19.7084622492
 20
53.9480686102
 11
19.7084622492
 21
55.8260241696
  0
LINE
  5
25B
100
AcDbEntity
  8
0
100
AcDbLine
 62
7
  6
CONTINUOUS
 10
74.1907890604
 20
114.8315898738
 11
77.0192044092
 21
116.4645664893
  0
LINE
  5
25C
100
AcDbEntity
  8
0
100
AcDbLine
 62
7
  6
CONTINUOUS
 10
19.7084622492
 20
47.5303596115
 11
20.3095047758
 21
47.1833553973
  0
LINE
  5
25D
100
AcDbEntity
  8
0
100
AcDbLine
 62
7
  6
CONTINUOUS
 10
20.3095055156
 20
49.4532316898
 11
19.7084622492
 21
49.8002363312
  0
LINE
  5
25E
100
AcDbEntity
  8
0
100
AcDbLine
 62
7
  6
CONTINUOUS
 10
19.7084622492
 20
51.6781918906
 11
20.3095047757
 21
51.3311876764
  0
LINE
  5
25F
100
AcDbEntity
  8
0
100
AcDbLine
 62
7
  6
CONTINUOUS
 10
21.617658507
 20
55.8995376125
 11
21.617658507
 21
10.1917323028
  0
LINE
  5
260
100
AcDbEntity
  8
0
100
AcDbLine
 62
7
  6
CONTINUOUS
 10
39.9670198634
 20
87.2343177059
 11
34.7270470698
 21
84.1034212614
  0
LINE
  5
261
100
AcDbEntity
  8
0
100
AcDbLine
 62
7
  6
CONTINUOUS
 10
31.4467178679
 20
84.8050505822
 11
29.1130725893
 21
83.4577278948
  0
LINE
  5
262
100
AcDbEntity
  8
0
100
AcDbLine
 62
7
  6
CONTINUOUS
 10
39.9670198634
 20
87.2343177059
 11
83.8074577706
 21
112.5454552459
  0
LINE
  5
263
100
AcDbEntity
  8
0
100
AcDbLine
 62
7
  6
CONTINUOUS
 10
20.3095055156
 20
53.6010639688
 11
19.7084622492
 21
53.9480686102
  0
LINE
  5
264
100
AcDbEntity
  8
0
100
AcDbLine
 62
7
  6
CONTINUOUS
 10
15.0132645078
 20
58.2101740289
 11
13.457623113
 21
59.1083036885
  0
LINE
  5
265
100
AcDbEntity
  8
0
100
AcDbLine
 62
7
  6
CONTINUOUS
 10
19.7084622492
 20
55.8260241696
 11
20.3095047757
 21
55.4790199554
  0
LINE
  5
266
100
AcDbEntity
  8
0
100
AcDbLine
 62
7
  6
CONTINUOUS
 10
11.0110126299
 20
62.0231489303
 11
14.7586941735
 21
59.8594729311
  0
LINE
  5
267
100
AcDbEntity
  8
0
100
AcDbLine
 62
7
  6
CONTINUOUS
 10
16.3143355682
 20
58.9613432715
 11
21.617658507
 21
55.8995376125
  0
LINE
  5
268
100
AcDbEntity
  8
0
100
AcDbLine
 62
7
  6
CONTINUOUS
 10
27.4229810109
 20
59.2512221156
 11
27.4229810109
 21
13.5434168059
  0
LINE
  5
269
100
AcDbEntity
  8
0
100
AcDbLine
 62
7
  6
CONTINUOUS
 10
28.2714973721
 20
60.8841939724
 11
28.2715038489
 21
14.2782552629
  0
LINE
  5
26A
100
AcDbEntity
  8
0
100
AcDbLine
 62
7
  6
CONTINUOUS
 10
45.879995033
 20
89.2909284874
 11
47.7011487525
 21
90.3423658014
  0
LINE
  5
26B
100
AcDbEntity
  8
0
100
AcDbLine
 62
7
  6
CONTINUOUS
 10
68.5073178238
 20
102.3547414113
 11
70.3284715434
 21
103.4061787253
  0
LINE
  5
26C
100
AcDbEntity
  8
0
100
AcDbLine
 62
7
  6
CONTINUOUS
 10
31.2340786761
 20
79.7840579826
 11
33.5677239547
 21
81.13138067
  0
LINE
  5
26D
100
AcDbEntity
  8
0
100
AcDbLine
 62
7
  6
CONTINUOUS
 10
68.9138818167
 20
101.2218103924
 11
68.5206786841
 21
100.9947958131
  0
LINE
  5
26E
100
AcDbEntity
  8
0
100
AcDbLine
 62
7
  6
CONTINUOUS
 10
46.2869293022
 20
88.1577836835
 11
45.879995033
 21
87.922841476
  0
LINE
  5
26F
100
AcDbEntity
  8
0
100
AcDbLine
 62
7
  6
CONTINUOUS
 10
59.2586120759
 20
94.4672976788
 11
65.9177306891
 21
98.3119186534
  0
LINE
  5
270
100
AcDbEntity
  8
0
100
AcDbLine
 62
7
  6
CONTINUOUS
 10
71.0244175315
 20
101.0291218916
 11
78.9129020792
 21
105.5835133827
  0
LINE
  5
271
100
AcDbEntity
  8
0
100
AcDbLine
 62
7
  6
CONTINUOUS
 10
71.0244175315
 20
100.8377123146
 11
75.7464604847
 21
103.5639688112
  0
LINE
  5
272
100
AcDbEntity
  8
0
100
AcDbLine
 62
7
  6
CONTINUOUS
 10
70.3281012669
 20
100.4053288834
 11
68.5076881
 21
99.3543191251
  0
LINE
  5
273
100
AcDbEntity
  8
0
100
AcDbLine
 62
7
  6
CONTINUOUS
 10
47.7011487525
 20
87.3413021744
 11
45.879995033
 21
86.2898648605
  0
LINE
  5
274
100
AcDbEntity
  8
0
100
AcDbLine
 62
7
  6
CONTINUOUS
 10
73.33170088
 20
101.4962005313
 11
74.6751981708
 21
102.2718644236
  0
LINE
  5
275
100
AcDbEntity
  8
0
100
AcDbLine
 62
7
  6
CONTINUOUS
 10
31.2340786761
 20
65.4128693025
 11
31.2340786761
 21
79.7840579783
  0
LINE
  5
276
100
AcDbEntity
  8
0
100
AcDbLine
 62
7
  6
CONTINUOUS
 10
31.3049728336
 20
62.6355613924
 11
31.3049728336
 21
16.9277560827
  0
LINE
  5
277
100
AcDbEntity
  8
0
100
AcDbLine
 62
7
  6
CONTINUOUS
 10
32.294926449
 20
62.064024336
 11
32.294926449
 21
16.3562190262
  0
LINE
  5
278
100
AcDbEntity
  8
0
100
AcDbLine
 62
7
  6
CONTINUOUS
 10
32.908420066
 20
63.0322449862
 11
32.908420066
 21
14.5440735907
  0
LINE
  5
279
100
AcDbEntity
  8
0
100
AcDbLine
 62
7
  6
CONTINUOUS
 10
33.5677239547
 20
81.131420152
 11
33.5677239547
 21
66.7601521684
  0
LINE
  5
27A
100
AcDbEntity
  8
0
100
AcDbLine
 62
7
  6
CONTINUOUS
 10
34.3101891656
 20
11.0785885693
 11
34.3101891656
 21
83.3729228389
  0
LINE
  5
27B
100
AcDbEntity
  8
0
100
AcDbLine
 62
7
  6
CONTINUOUS
 10
72.0094167045
 20
100.1775623199
 11
73.33170088
 21
100.9409788876
  0
LINE
  5
27C
100
AcDbEntity
  8
0
100
AcDbLine
 62
7
  6
CONTINUOUS
 10
75.7464604847
 20
101.6860132512
 11
75.7182030388
 21
101.6696989046
  0
LINE
  5
27D
100
AcDbEntity
  8
0
100
AcDbLine
 62
7
  6
CONTINUOUS
 10
71.5038374608
 20
99.2365483277
 11
71.0244175315
 21
98.9597567546
  0
LINE
  5
27E
100
AcDbEntity
  8
0
100
AcDbLine
 62
7
  6
CONTINUOUS
 10
74.9580532479
 20
100.5572467959
 11
76.3015505382
 21
101.332910688
  0
LINE
  5
27F
100
AcDbEntity
  8
0
100
AcDbLine
 62
7
  6
CONTINUOUS
 10
73.6357690723
 20
99.2386085845
 11
74.9580532479
 21
100.0020251522
  0
LINE
  5
280
100
AcDbEntity
  8
0
100
AcDbLine
 62
7
  6
CONTINUOUS
 10
64.5035112388
 20
93.2353306564
 11
59.2586120759
 21
90.2072047883
  0
LINE
  5
281
100
AcDbEntity
  8
0
100
AcDbLine
 62
7
  6
CONTINUOUS
 10
11.0110126299
 20
62.0231489303
 11
21.9370446349
 21
68.3312587952
  0
LINE
  5
282
100
AcDbEntity
  8
0
100
AcDbLine
 62
7
  6
CONTINUOUS
 10
65.9177306891
 20
92.4188491474
 11
59.2586120759
 21
88.5742281728
  0
LINE
  5
283
100
AcDbEntity
  8
0
100
AcDbLine
 62
7
  6
CONTINUOUS
 10
27.210848093
 20
59.3736943421
 11
27.4229810109
 21
59.2512221156
  0
LINE
  5
284
100
AcDbEntity
  8
0
100
AcDbLine
 62
7
  6
CONTINUOUS
 10
64.5158537822
 20
38.536794637
 11
65.9300732325
 21
37.7203131279
  0
LINE
  5
285
100
AcDbEntity
  8
0
100
AcDbLine
 62
7
  6
CONTINUOUS
 10
36.7736829962
 20
28.0182313763
 11
36.7736829962
 21
32.5352519335
  0
LINE
  5
286
100
AcDbEntity
  8
0
100
AcDbLine
 62
7
  6
CONTINUOUS
 10
36.7736829962
 20
64.7608401471
 11
36.7736829962
 21
69.2778607044
  0
LINE
  5
287
100
AcDbEntity
  8
0
100
AcDbLine
 62
7
  6
CONTINUOUS
 10
36.7968483615
 20
69.2778607044
 11
36.7968483615
 21
66.4066855165
  0
LINE
  5
288
100
AcDbEntity
  8
0
100
AcDbLine
 62
7
  6
CONTINUOUS
 10
36.7968483615
 20
32.5352519335
 11
36.7968483615
 21
29.6640767457
  0
LINE
  5
289
100
AcDbEntity
  8
0
100
AcDbLine
 62
7
  6
CONTINUOUS
 10
38.2110678118
 20
70.1082359572
 11
38.2110678118
 21
65.5902040075
  0
LINE
  5
28A
100
AcDbEntity
  8
0
100
AcDbLine
 62
7
  6
CONTINUOUS
 10
38.2110678118
 20
33.3656271863
 11
38.2110678118
 21
28.8475952367
  0
LINE
  5
28B
100
AcDbEntity
  8
0
100
AcDbLine
 62
7
  6
CONTINUOUS
 10
78.9129020792
 20
97.7578386574
 11
79.3065672637
 21
97.9851200009
  0
LINE
  5
28C
100
AcDbEntity
  8
0
100
AcDbLine
 62
7
  6
CONTINUOUS
 10
13.457623113
 20
59.1083036885
 11
14.7586941735
 21
59.8594729316
  0
LINE
  5
28D
100
AcDbEntity
  8
0
100
AcDbLine
 62
7
  6
CONTINUOUS
 10
15.0132645078
 20
58.2101740284
 11
16.3143355682
 21
58.9613432715
  0
LINE
  5
28E
100
AcDbEntity
  8
0
100
AcDbLine
 62
7
  6
CONTINUOUS
 10
31.3049728336
 20
62.6355613924
 11
32.294926449
 21
62.064024336
  0
LINE
  5
28F
100
AcDbEntity
  8
0
100
AcDbLine
 62
7
  6
CONTINUOUS
 10
18.1522256689
 20
70.5163756101
 11
29.1130725915
 21
64.1882708497
  0
LINE
  5
290
100
AcDbEntity
  8
0
100
AcDbLine
 62
7
  6
CONTINUOUS
 10
30.8035814003
 20
64.1497555863
 11
32.908420066
 21
62.9345539076
  0
LINE
  5
291
100
AcDbEntity
  8
0
100
AcDbLine
 62
7
  6
CONTINUOUS
 10
30.8881855656
 20
64.1986015323
 11
32.908420066
 21
63.0322449862
  0
LINE
  5
292
100
AcDbEntity
  8
0
100
AcDbLine
 62
7
  6
CONTINUOUS
 10
77.3994981396
 20
38.3508258321
 11
78.8137175899
 21
37.5343443231
  0
LINE
  5
293
100
AcDbEntity
  8
0
100
AcDbLine
 62
7
  6
CONTINUOUS
 10
39.7285515289
 20
101.4668329874
 11
39.7285515289
 21
102.4095058522
  0
LINE
  5
294
100
AcDbEntity
  8
0
100
AcDbLine
 62
7
  6
CONTINUOUS
 10
39.9793624072
 20
30.072022332
 11
39.9793624072
 21
34.1830386242
  0
LINE
  5
295
100
AcDbEntity
  8
0
100
AcDbLine
 62
7
  6
CONTINUOUS
 10
39.9793624072
 20
66.8146311029
 11
39.9793624072
 21
70.925647395
  0
LINE
  5
296
100
AcDbEntity
  8
0
100
AcDbLine
 62
7
  6
CONTINUOUS
 10
40.3205600061
 20
71.1226367447
 11
40.3205600061
 21
68.6445970681
  0
LINE
  5
297
100
AcDbEntity
  8
0
100
AcDbLine
 62
7
  6
CONTINUOUS
 10
40.3205600061
 20
34.3800279739
 11
40.3205600061
 21
31.9019882973
  0
LINE
  5
298
100
AcDbEntity
  8
0
100
AcDbLine
 62
7
  6
CONTINUOUS
 10
41.7347794564
 20
71.9391318512
 11
41.7347794564
 21
67.8281155591
  0
LINE
  5
299
100
AcDbEntity
  8
0
100
AcDbLine
 62
7
  6
CONTINUOUS
 10
41.7347794564
 20
35.1965230804
 11
41.7347794564
 21
31.0855067882
  0
LINE
  5
29A
100
AcDbEntity
  8
0
100
AcDbLine
 62
7
  6
CONTINUOUS
 10
42.8307043364
 20
99.1896331543
 11
42.8307043364
 21
100.8226379886
  0
LINE
  5
29B
100
AcDbEntity
  8
0
100
AcDbLine
 62
7
  6
CONTINUOUS
 10
42.8951942692
 20
107.9082458735
 11
42.8951942692
 21
107.0623443466
  0
LINE
  5
29C
100
AcDbEntity
  8
0
100
AcDbLine
 62
7
  6
CONTINUOUS
 10
36.7736829962
 20
69.2778607044
 11
38.2110678118
 21
70.1082359572
  0
LINE
  5
29D
100
AcDbEntity
  8
0
100
AcDbLine
 62
7
  6
CONTINUOUS
 10
39.9793624072
 20
70.925647395
 11
41.7347794564
 21
71.9391318512
  0
LINE
  5
29E
100
AcDbEntity
  8
0
100
AcDbLine
 62
7
  6
CONTINUOUS
 10
77.8923478134
 20
92.5145328972
 11
77.4986826289
 21
92.2872515536
  0
LINE
  5
29F
100
AcDbEntity
  8
0
100
AcDbLine
 62
7
  6
CONTINUOUS
 10
33.5677239547
 20
66.7601919856
 11
31.2340786761
 21
65.4128692982
  0
LINE
  5
2A0
100
AcDbEntity
  8
0
100
AcDbLine
 62
7
  6
CONTINUOUS
 10
64.5035230142
 20
83.7639376343
 11
67.3319383635
 21
85.3969142501
  0
LINE
  5
2A1
100
AcDbEntity
  8
0
100
AcDbLine
 62
7
  6
CONTINUOUS
 10
30.6128766022
 20
64.039652777
 11
32.9465218808
 21
65.3869754643
  0
LINE
  5
2A2
100
AcDbEntity
  8
0
100
AcDbLine
 62
7
  6
CONTINUOUS
 10
79.3065672637
 20
91.6980513881
 11
78.9129020792
 21
91.4707700446
  0
LINE
  5
2A3
100
AcDbEntity
  8
0
100
AcDbLine
 62
7
  6
CONTINUOUS
 10
40.3205600061
 20
68.6445970681
 11
39.9793624072
 21
68.4476077184
  0
LINE
  5
2A4
100
AcDbEntity
  8
0
100
AcDbLine
 62
7
  6
CONTINUOUS
 10
31.3049728336
 20
62.6355613924
 11
28.2714973722
 21
60.8841939725
  0
LINE
  5
2A5
100
AcDbEntity
  8
0
100
AcDbLine
 62
7
  6
CONTINUOUS
 10
71.0244175315
 20
84.9159151806
 11
71.5038374608
 21
85.1927067536
  0
LINE
  5
2A6
100
AcDbEntity
  8
0
100
AcDbLine
 62
7
  6
CONTINUOUS
 10
41.7347794564
 20
67.8281155591
 11
39.9793624072
 21
66.8146311029
  0
LINE
  5
2A7
100
AcDbEntity
  8
0
100
AcDbLine
 62
7
  6
CONTINUOUS
 10
27.210848093
 20
59.3736943421
 11
28.2715038489
 21
59.9860605729
  0
LINE
  5
2A8
100
AcDbEntity
  8
0
100
AcDbLine
 62
7
  6
CONTINUOUS
 10
21.617658507
 20
55.8995376125
 11
27.4229810106
 21
59.2512221158
  0
LINE
  5
2A9
100
AcDbEntity
  8
0
100
AcDbLine
 62
7
  6
CONTINUOUS
 10
32.294926449
 20
62.064024336
 11
32.908420066
 21
62.4182229266
  0
LINE
  5
2AA
100
AcDbEntity
  8
0
100
AcDbLine
 62
7
  6
CONTINUOUS
 10
36.7968483615
 20
66.4066855165
 11
36.7736829962
 21
66.3933192164
  0
LINE
  5
2AB
100
AcDbEntity
  8
0
100
AcDbLine
 62
7
  6
CONTINUOUS
 10
38.2110678118
 20
65.5902040075
 11
36.7736829962
 21
64.7608401471
  0
LINE
  5
2AC
100
AcDbEntity
  8
0
100
AcDbLine
 62
7
  6
CONTINUOUS
 10
36.7968483615
 20
66.4066855165
 11
38.2110678118
 21
65.5902040075
  0
LINE
  5
2AD
100
AcDbEntity
  8
0
100
AcDbLine
 62
7
  6
CONTINUOUS
 10
45.0350358498
 20
106.6942116882
 11
45.0350358498
 21
106.2043158817
  0
LINE
  5
2AE
100
AcDbEntity
  8
0
100
AcDbLine
 62
7
  6
CONTINUOUS
 10
45.879995033
 20
18.5201642388
 11
45.879995033
 21
21.5212278656
  0
LINE
  5
2AF
100
AcDbEntity
  8
0
100
AcDbLine
 62
7
  6
CONTINUOUS
 10
45.879995033
 20
86.2898648605
 11
45.879995033
 21
89.2909284874
  0
LINE
  5
2B0
100
AcDbEntity
  8
0
100
AcDbLine
 62
7
  6
CONTINUOUS
 10
46.2869293022
 20
89.5258706949
 11
46.2869293022
 21
88.1577836835
  0
LINE
  5
2B1
100
AcDbEntity
  8
0
100
AcDbLine
 62
7
  6
CONTINUOUS
 10
46.2869293022
 20
21.7561700731
 11
46.2869293022
 21
20.3880830618
  0
LINE
  5
2B2
100
AcDbEntity
  8
0
100
AcDbLine
 62
7
  6
CONTINUOUS
 10
47.7011487525
 20
90.3423658014
 11
47.7011487525
 21
87.3413021744
  0
LINE
  5
2B3
100
AcDbEntity
  8
0
100
AcDbLine
 62
7
  6
CONTINUOUS
 10
47.7011487525
 20
22.5726651796
 11
47.7011487525
 21
19.5716015527
  0
LINE
  5
2B4
100
AcDbEntity
  8
0
100
AcDbLine
 62
7
  6
CONTINUOUS
 10
82.8245097193
 20
88.0251500856
 11
82.2518293285
 21
87.6829721651
  0
LINE
  5
2B5
100
AcDbEntity
  8
0
100
AcDbLine
 62
7
  6
CONTINUOUS
 10
20.9751945823
 20
54.6794124987
 11
19.7084622487
 21
53.9480686105
  0
LINE
  5
2B6
100
AcDbEntity
  8
0
100
AcDbLine
 62
7
  6
CONTINUOUS
 10
73.0736352311
 20
84.2210689489
 11
71.0244175315
 21
83.0379596206
  0
LINE
  5
2B7
100
AcDbEntity
  8
0
100
AcDbLine
 62
7
  6
CONTINUOUS
 10
21.1226887255
 20
54.0705527115
 11
20.3095055156
 21
53.6010639688
  0
LINE
  5
2B8
100
AcDbEntity
  8
0
100
AcDbLine
 62
7
  6
CONTINUOUS
 10
81.8982774101
 20
89.111854922
 11
80.9790424218
 21
88.5811375219
  0
LINE
  5
2B9
100
AcDbEntity
  8
0
100
AcDbLine
 62
7
  6
CONTINUOUS
 10
74.9580532479
 20
84.6599447344
 11
73.6357690722
 21
83.8965281665
  0
LINE
  5
2BA
100
AcDbEntity
  8
0
100
AcDbLine
 62
7
  6
CONTINUOUS
 10
76.3015505386
 20
84.8803869831
 11
74.9580532483
 21
84.104723091
  0
LINE
  5
2BB
100
AcDbEntity
  8
0
100
AcDbLine
 62
7
  6
CONTINUOUS
 10
77.4435114604
 20
84.4578005721
 11
71.0244175315
 21
80.7517570863
  0
LINE
  5
2BC
100
AcDbEntity
  8
0
100
AcDbLine
 62
7
  6
CONTINUOUS
 10
77.4986826289
 20
84.4615768282
 11
71.0244175315
 21
80.7236804436
  0
LINE
  5
2BD
100
AcDbEntity
  8
0
100
AcDbLine
 62
7
  6
CONTINUOUS
 10
20.9751945823
 20
50.5315802197
 11
19.7084622487
 21
49.8002363314
  0
LINE
  5
2BE
100
AcDbEntity
  8
0
100
AcDbLine
 62
7
  6
CONTINUOUS
 10
65.9177189132
 20
76.4153667536
 11
64.5035230142
 21
75.5988852443
  0
LINE
  5
2BF
100
AcDbEntity
  8
0
100
AcDbLine
 62
7
  6
CONTINUOUS
 10
40.3205600061
 20
68.6445970681
 11
41.7347794564
 21
67.8281155591
  0
LINE
  5
2C0
100
AcDbEntity
  8
0
100
AcDbLine
 62
7
  6
CONTINUOUS
 10
51.7985494802
 20
110.5991047944
 11
51.7985494802
 21
110.1092089878
  0
LINE
  5
2C1
100
AcDbEntity
  8
0
100
AcDbLine
 62
7
  6
CONTINUOUS
 10
52.2485303381
 20
111.9611279879
 11
52.2485303381
 21
113.5941328222
  0
LINE
  5
2C2
100
AcDbEntity
  8
0
100
AcDbLine
 62
7
  6
CONTINUOUS
 10
78.9129020792
 20
83.6450953191
 11
71.0244175315
 21
79.0907038281
  0
LINE
  5
2C3
100
AcDbEntity
  8
0
100
AcDbLine
 62
7
  6
CONTINUOUS
 10
21.1226887255
 20
49.9227204325
 11
20.3095055156
 21
49.4532316898
  0
LINE
  5
2C4
100
AcDbEntity
  8
0
100
AcDbLine
 62
7
  6
CONTINUOUS
 10
67.3319383635
 20
75.5988852446
 11
64.5035230142
 21
73.9659086288
  0
LINE
  5
2C5
100
AcDbEntity
  8
0
100
AcDbLine
 62
7
  6
CONTINUOUS
 10
20.9751945823
 20
46.3837479407
 11
19.7084622487
 21
45.6524040524
  0
LINE
  5
2C6
100
AcDbEntity
  8
0
100
AcDbLine
 62
7
  6
CONTINUOUS
 10
21.1226887257
 20
45.7748881529
 11
20.3095055162
 21
45.3053994105
  0
LINE
  5
2C7
100
AcDbEntity
  8
0
100
AcDbLine
 62
7
  6
CONTINUOUS
 10
20.9751945823
 20
42.2359156617
 11
19.7084622487
 21
41.5045717734
  0
LINE
  5
2C8
100
AcDbEntity
  8
0
100
AcDbLine
 62
7
  6
CONTINUOUS
 10
21.1226887255
 20
41.6270558744
 11
20.3095055156
 21
41.1575671318
  0
LINE
  5
2C9
100
AcDbEntity
  8
0
100
AcDbLine
 62
7
  6
CONTINUOUS
 10
29.1130725893
 20
83.4577278948
 11
18.1522256711
 21
89.7858326528
  0
LINE
  5
2CA
100
AcDbEntity
  8
0
100
AcDbLine
 62
7
  6
CONTINUOUS
 10
20.4858330053
 20
91.1331772468
 11
31.4467523542
 21
84.805030672
  0
LINE
  5
2CB
100
AcDbEntity
  8
0
100
AcDbLine
 62
7
  6
CONTINUOUS
 10
17.6223996522
 20
93.0074046455
 11
34.3101891656
 21
83.3729228389
  0
LINE
  5
2CC
100
AcDbEntity
  8
0
100
AcDbLine
 62
7
  6
CONTINUOUS
 10
34.7270470698
 20
84.1034212614
 11
18.0392575563
 21
93.737903068
  0
LINE
  5
2CD
100
AcDbEntity
  8
0
100
AcDbLine
 62
7
  6
CONTINUOUS
 10
59.2586120759
 20
33.8685662251
 11
59.2586120759
 21
39.7616357311
  0
LINE
  5
2CE
100
AcDbEntity
  8
0
100
AcDbLine
 62
7
  6
CONTINUOUS
 10
59.2586120759
 20
88.5742281728
 11
59.2586120759
 21
94.4672976788
  0
LINE
  5
2CF
100
AcDbEntity
  8
0
100
AcDbLine
 62
7
  6
CONTINUOUS
 10
20.9751945823
 20
38.0880833827
 11
19.7084622487
 21
37.3567394944
  0
LINE
  5
2D0
100
AcDbEntity
  8
0
100
AcDbLine
 62
7
  6
CONTINUOUS
 10
21.1226887257
 20
37.4792235949
 11
20.3095055162
 21
37.0097348524
  0
LINE
  5
2D1
100
AcDbEntity
  8
0
100
AcDbLine
 62
7
  6
CONTINUOUS
 10
64.5035112388
 20
97.4954235469
 11
64.5035112388
 21
93.2353306564
  0
LINE
  5
2D2
100
AcDbEntity
  8
0
100
AcDbLine
 62
7
  6
CONTINUOUS
 10
64.5035230142
 20
73.9659086288
 11
64.5035230142
 21
83.7639376343
  0
LINE
  5
2D3
100
AcDbEntity
  8
0
100
AcDbLine
 62
7
  6
CONTINUOUS
 10
64.5158537822
 20
42.7968875274
 11
64.5158537822
 21
38.536794637
  0
LINE
  5
2D4
100
AcDbEntity
  8
0
100
AcDbLine
 62
7
  6
CONTINUOUS
 10
65.1842896686
 20
116.1636225268
 11
65.1842896686
 21
117.1062953916
  0
LINE
  5
2D5
100
AcDbEntity
  8
0
100
AcDbLine
 62
7
  6
CONTINUOUS
 10
20.9751945823
 20
33.9402511036
 11
19.7084622487
 21
33.2089072154
  0
LINE
  5
2D6
100
AcDbEntity
  8
0
100
AcDbLine
 62
7
  6
CONTINUOUS
 10
21.1226887255
 20
33.3313913164
 11
20.3095055156
 21
32.8619025737
  0
LINE
  5
2D7
100
AcDbEntity
  8
0
100
AcDbLine
 62
7
  6
CONTINUOUS
 10
20.9751945823
 20
29.7924188246
 11
19.7084622487
 21
29.0610749363
  0
LINE
  5
2D8
100
AcDbEntity
  8
0
100
AcDbLine
 62
7
  6
CONTINUOUS
 10
83.8074577706
 20
61.3345704024
 11
80.9790424218
 21
62.9675198231
  0
LINE
  5
2D9
100
AcDbEntity
  8
0
100
AcDbLine
 62
7
  6
CONTINUOUS
 10
39.9670198634
 20
87.2343177059
 11
23.2792303499
 21
96.8687995125
  0
LINE
  5
2DA
100
AcDbEntity
  8
0
100
AcDbLine
 62
7
  6
CONTINUOUS
 10
65.9177189132
 20
76.4153667536
 11
67.3319383635
 21
75.5988852446
  0
LINE
  5
2DB
100
AcDbEntity
  8
0
100
AcDbLine
 62
7
  6
CONTINUOUS
 10
65.9177189132
 20
84.5804191436
 11
65.9177189132
 21
76.4153667536
  0
LINE
  5
2DC
100
AcDbEntity
  8
0
100
AcDbLine
 62
7
  6
CONTINUOUS
 10
65.9177306891
 20
98.3119186534
 11
65.9177306891
 21
92.4188491474
  0
LINE
  5
2DD
100
AcDbEntity
  8
0
100
AcDbLine
 62
7
  6
CONTINUOUS
 10
65.9300732325
 20
43.6133826339
 11
65.9300732325
 21
37.7203131279
  0
LINE
  5
2DE
100
AcDbEntity
  8
0
100
AcDbLine
 62
7
  6
CONTINUOUS
 10
67.3319383635
 20
85.3969142501
 11
67.3319383635
 21
75.5988852446
  0
LINE
  5
2DF
100
AcDbEntity
  8
0
100
AcDbLine
 62
7
  6
CONTINUOUS
 10
68.2864424761
 20
113.8864226937
 11
68.2864424761
 21
115.519427528
  0
LINE
  5
2E0
100
AcDbEntity
  8
0
100
AcDbLine
 62
7
  6
CONTINUOUS
 10
68.5076881
 20
99.3543191251
 11
68.5073178238
 21
102.3547414113
  0
LINE
  5
2E1
100
AcDbEntity
  8
0
100
AcDbLine
 62
7
  6
CONTINUOUS
 10
68.9138818167
 20
102.5894698409
 11
68.9138818167
 21
101.2218103924
  0
LINE
  5
2E2
100
AcDbEntity
  8
0
100
AcDbLine
 62
7
  6
CONTINUOUS
 10
69.6652632677
 20
120.7102703363
 11
69.6652632677
 21
117.4443443
  0
LINE
  5
2E3
100
AcDbEntity
  8
0
100
AcDbLine
 62
7
  6
CONTINUOUS
 10
21.1226887255
 20
29.1835590374
 11
20.3095055156
 21
28.7140702947
  0
LINE
  5
2E4
100
AcDbEntity
  8
0
100
AcDbLine
 62
7
  6
CONTINUOUS
 10
20.9751945823
 20
25.6445865456
 11
19.7084622487
 21
24.9132426573
  0
LINE
  5
2E5
100
AcDbEntity
  8
0
100
AcDbLine
 62
7
  6
CONTINUOUS
 10
21.1226887257
 20
25.0357267579
 11
20.3095055162
 21
24.5662380154
  0
LINE
  5
2E6
100
AcDbEntity
  8
0
100
AcDbLine
 62
7
  6
CONTINUOUS
 10
83.8074577706
 20
61.3345704023
 11
80.9790424218
 21
59.7586021969
  0
LINE
  5
2E7
100
AcDbEntity
  8
0
100
AcDbLine
 62
7
  6
CONTINUOUS
 10
46.2869293022
 20
88.1577836835
 11
47.7011487525
 21
87.3413021744
  0
LINE
  5
2E8
100
AcDbEntity
  8
0
100
AcDbLine
 62
7
  6
CONTINUOUS
 10
71.0244175315
 20
79.0907038281
 11
71.0244175315
 21
101.0291218916
  0
LINE
  5
2E9
100
AcDbEntity
  8
0
100
AcDbLine
 62
7
  6
CONTINUOUS
 10
71.5038374608
 20
85.1927067536
 11
71.5038374608
 21
99.2365483277
  0
LINE
  5
2EA
100
AcDbEntity
  8
0
100
AcDbLine
 62
7
  6
CONTINUOUS
 10
72.0094167045
 20
84.835481902
 11
72.0094167045
 21
100.1775623199
  0
LINE
  5
2EB
100
AcDbEntity
  8
0
100
AcDbLine
 62
7
  6
CONTINUOUS
 10
73.33170088
 20
100.9409788876
 11
73.33170088
 21
101.4962005313
  0
LINE
  5
2EC
100
AcDbEntity
  8
0
100
AcDbLine
 62
7
  6
CONTINUOUS
 10
73.6357690723
 20
83.8965281666
 11
73.6357690723
 21
99.2386085841
  0
LINE
  5
2ED
100
AcDbEntity
  8
0
100
AcDbLine
 62
7
  6
CONTINUOUS
 10
70.3284715434
 20
103.4061787253
 11
70.3281012669
 21
100.4053288834
  0
LINE
  5
2EE
100
AcDbEntity
  8
0
100
AcDbLine
 62
7
  6
CONTINUOUS
 10
82.8245097193
 20
88.0251500856
 11
83.8074577706
 21
90.2141141377
  0
LINE
  5
2EF
100
AcDbEntity
  8
0
100
AcDbLine
 62
7
  6
CONTINUOUS
 10
36.7736829962
 20
32.5352519335
 11
38.2110678118
 21
33.3656271863
  0
LINE
  5
2F0
100
AcDbEntity
  8
0
100
AcDbLine
 62
7
  6
CONTINUOUS
 10
39.9793624072
 20
34.1830386242
 11
41.7347794564
 21
35.1965230804
  0
LINE
  5
2F1
100
AcDbEntity
  8
0
100
AcDbLine
 62
7
  6
CONTINUOUS
 10
20.9751945823
 20
21.4967542666
 11
19.7084622487
 21
20.7654103783
  0
LINE
  5
2F2
100
AcDbEntity
  8
0
100
AcDbLine
 62
7
  6
CONTINUOUS
 10
21.1226887255
 20
20.8878944793
 11
20.3095055156
 21
20.4184057367
  0
LINE
  5
2F3
100
AcDbEntity
  8
0
100
AcDbLine
 62
7
  6
CONTINUOUS
 10
40.3205600061
 20
31.9019882973
 11
39.9793624072
 21
31.7049989476
  0
LINE
  5
2F4
100
AcDbEntity
  8
0
100
AcDbLine
 62
7
  6
CONTINUOUS
 10
36.7968483615
 20
29.6640767457
 11
36.7736829962
 21
29.6507104456
  0
LINE
  5
2F5
100
AcDbEntity
  8
0
100
AcDbLine
 62
7
  6
CONTINUOUS
 10
40.0023009703
 20
97.5281879618
 11
38.5633962267
 21
98.3589212092
  0
LINE
  5
2F6
100
AcDbEntity
  8
0
100
AcDbLine
 62
7
  6
CONTINUOUS
 10
36.6311856572
 20
99.678578642
 11
35.8147953379
 21
100.1499111497
  0
LINE
  5
2F7
100
AcDbEntity
  8
0
100
AcDbLine
 62
7
  6
CONTINUOUS
 10
42.8307043364
 20
99.1896331543
 11
42.8553651912
 21
99.1753955253
  0
LINE
  5
2F8
100
AcDbEntity
  8
0
100
AcDbLine
 62
7
  6
CONTINUOUS
 10
74.9580532479
 20
84.1047230907
 11
74.9580532479
 21
84.6599447343
  0
LINE
  5
2F9
100
AcDbEntity
  8
0
100
AcDbLine
 62
7
  6
CONTINUOUS
 10
74.9580532479
 20
100.0020251524
 11
74.9580532479
 21
100.5572467958
  0
LINE
  5
2FA
100
AcDbEntity
  8
0
100
AcDbLine
 62
7
  6
CONTINUOUS
 10
75.7464604847
 20
103.5639688112
 11
75.7464604847
 21
101.6860132512
  0
LINE
  5
2FB
100
AcDbEntity
  8
0
100
AcDbLine
 62
7
  6
CONTINUOUS
 10
76.3015505386
 20
101.3329106882
 11
76.3015505386
 21
84.8803869838
  0
LINE
  5
2FC
100
AcDbEntity
  8
0
100
AcDbLine
 62
7
  6
CONTINUOUS
 10
76.9925638704
 20
36.4829070091
 11
76.9925638704
 21
39.483970636
  0
LINE
  5
2FD
100
AcDbEntity
  8
0
100
AcDbLine
 62
7
  6
CONTINUOUS
 10
77.3994981396
 20
39.7189128434
 11
77.3994981396
 21
38.3508258321
  0
LINE
  5
2FE
100
AcDbEntity
  8
0
100
AcDbLine
 62
7
  6
CONTINUOUS
 10
77.4435114604
 20
104.7351653773
 11
77.4435114604
 21
84.4578005721
  0
LINE
  5
2FF
100
AcDbEntity
  8
0
100
AcDbLine
 62
7
  6
CONTINUOUS
 10
77.4986826289
 20
104.7670182762
 11
77.4986826289
 21
98.5743201664
  0
LINE
  5
300
100
AcDbEntity
  8
0
100
AcDbLine
 62
7
  6
CONTINUOUS
 10
77.4986826289
 20
92.2872515536
 11
77.4986826289
 21
84.4615768282
  0
LINE
  5
301
100
AcDbEntity
  8
0
100
AcDbLine
 62
7
  6
CONTINUOUS
 10
77.8923478134
 20
98.3470426078
 11
77.8923478134
 21
92.5145328972
  0
LINE
  5
302
100
AcDbEntity
  8
0
100
AcDbLine
 62
7
  6
CONTINUOUS
 10
78.8137175899
 20
40.53540795
 11
78.8137175899
 21
37.5343443231
  0
LINE
  5
303
100
AcDbEntity
  8
0
100
AcDbLine
 62
7
  6
CONTINUOUS
 10
78.9129020792
 20
105.5835133827
 11
78.9129020792
 21
97.7578386574
  0
LINE
  5
304
100
AcDbEntity
  8
0
100
AcDbLine
 62
7
  6
CONTINUOUS
 10
78.9129020792
 20
91.4707700446
 11
78.9129020792
 21
83.6450953191
  0
LINE
  5
305
100
AcDbEntity
  8
0
100
AcDbLine
 62
7
  6
CONTINUOUS
 10
41.7347794564
 20
31.0855067882
 11
39.9793624072
 21
30.072022332
  0
LINE
  5
306
100
AcDbEntity
  8
0
100
AcDbLine
 62
7
  6
CONTINUOUS
 10
59.2586120759
 20
39.7616357311
 11
65.9300732325
 21
43.6133826339
  0
LINE
  5
307
100
AcDbEntity
  8
0
100
AcDbLine
 62
7
  6
CONTINUOUS
 10
20.9751946514
 20
17.3489220274
 11
19.7084622487
 21
16.6175780993
  0
LINE
  5
308
100
AcDbEntity
  8
0
100
AcDbLine
 62
7
  6
CONTINUOUS
 10
21.1226887257
 20
16.7400621998
 11
20.3095055162
 21
16.2705734573
  0
LINE
  5
309
100
AcDbEntity
  8
0
100
AcDbLine
 62
7
  6
CONTINUOUS
 10
15.0132645078
 20
12.5023687181
 11
16.3143355682
 21
13.2535379612
  0
LINE
  5
30A
100
AcDbEntity
  8
0
100
AcDbLine
 62
7
  6
CONTINUOUS
 10
38.2110678118
 20
28.8475952367
 11
36.7736829962
 21
28.0182313763
  0
LINE
  5
30B
100
AcDbEntity
  8
0
100
AcDbLine
 62
7
  6
CONTINUOUS
 10
39.7285515289
 20
102.4095058522
 11
40.5449418483
 21
101.9381733445
  0
LINE
  5
30C
100
AcDbEntity
  8
0
100
AcDbLine
 62
7
  6
CONTINUOUS
 10
42.8307043364
 20
100.8226379886
 11
44.26960908
 21
99.9919047412
  0
LINE
  5
30D
100
AcDbEntity
  8
0
100
AcDbLine
 62
7
  6
CONTINUOUS
 10
73.6357690722
 20
83.8965281665
 11
72.0094167043
 21
84.8354819019
  0
LINE
  5
30E
100
AcDbEntity
  8
0
100
AcDbLine
 62
7
  6
CONTINUOUS
 10
71.5038374608
 20
85.1927067536
 11
71.0244175315
 21
85.4694937171
  0
LINE
  5
30F
100
AcDbEntity
  8
0
100
AcDbLine
 62
7
  6
CONTINUOUS
 10
74.9580532483
 20
84.104723091
 11
74.4772103261
 21
84.3823316012
  0
LINE
  5
310
100
AcDbEntity
  8
0
100
AcDbLine
 62
7
  6
CONTINUOUS
 10
76.3015505386
 20
85.1170971024
 11
77.4435114604
 21
84.4578005721
  0
LINE
  5
311
100
AcDbEntity
  8
0
100
AcDbLine
 62
7
  6
CONTINUOUS
 10
77.4986826289
 20
84.4615768282
 11
78.9129020792
 21
83.6450953191
  0
LINE
  5
312
100
AcDbEntity
  8
0
100
AcDbLine
 62
7
  6
CONTINUOUS
 10
79.3065672637
 20
97.9851200009
 11
79.3065672637
 21
91.6980513881
  0
LINE
  5
313
100
AcDbEntity
  8
0
100
AcDbLine
 62
7
  6
CONTINUOUS
 10
80.9790424218
 20
88.5811375219
 11
80.9790424218
 21
59.7586021969
  0
LINE
  5
314
100
AcDbEntity
  8
0
100
AcDbLine
 62
7
  6
CONTINUOUS
 10
81.8982774101
 20
88.54030323
 11
81.8982774101
 21
89.111854922
  0
LINE
  5
315
100
AcDbEntity
  8
0
100
AcDbLine
 62
7
  6
CONTINUOUS
 10
64.5158537822
 20
38.536794637
 11
59.2586120759
 21
35.5015428407
  0
LINE
  5
316
100
AcDbEntity
  8
0
100
AcDbLine
 62
7
  6
CONTINUOUS
 10
20.9751946514
 20
13.2010897484
 11
19.7084622487
 21
12.4697458203
  0
LINE
  5
317
100
AcDbEntity
  8
0
100
AcDbLine
 62
7
  6
CONTINUOUS
 10
21.1226887255
 20
12.5922299213
 11
20.3095055156
 21
12.1227411787
  0
LINE
  5
318
100
AcDbEntity
  8
0
100
AcDbLine
 62
7
  6
CONTINUOUS
 10
65.9300732325
 20
37.7203131279
 11
59.2586120759
 21
33.8685662251
  0
LINE
  5
319
100
AcDbEntity
  8
0
100
AcDbLine
 62
7
  6
CONTINUOUS
 10
31.3049728336
 20
16.9277560827
 11
28.2714973721
 21
15.1763886627
  0
LINE
  5
31A
100
AcDbEntity
  8
0
100
AcDbLine
 62
7
  6
CONTINUOUS
 10
28.2715038489
 20
14.2782552632
 11
27.4229810109
 21
13.7883632985
  0
LINE
  5
31B
100
AcDbEntity
  8
0
100
AcDbLine
 62
7
  6
CONTINUOUS
 10
21.617658507
 20
10.1917323028
 11
27.4229810106
 21
13.5434168061
  0
LINE
  5
31C
100
AcDbEntity
  8
0
100
AcDbLine
 62
7
  6
CONTINUOUS
 10
32.294926449
 20
16.3562190262
 11
32.908420066
 21
16.7104176169
  0
LINE
  5
31D
100
AcDbEntity
  8
0
100
AcDbLine
 62
7
  6
CONTINUOUS
 10
44.7398550669
 20
106.0338941946
 11
41.8980186053
 21
107.6182977579
  0
LINE
  5
31E
100
AcDbEntity
  8
0
100
AcDbLine
 62
7
  6
CONTINUOUS
 10
45.0350358498
 20
106.6942116882
 11
42.8951942692
 21
107.9082458735
  0
LINE
  5
31F
100
AcDbEntity
  8
0
100
AcDbLine
 62
7
  6
CONTINUOUS
 10
64.5035112388
 20
93.2353306564
 11
65.9177306891
 21
92.4188491474
  0
LINE
  5
320
100
AcDbEntity
  8
0
100
AcDbLine
 62
7
  6
CONTINUOUS
 10
82.2518293285
 20
87.6829721651
 11
80.9790424218
 21
88.4177994043
  0
LINE
  5
321
100
AcDbEntity
  8
0
100
AcDbLine
 62
7
  6
CONTINUOUS
 10
83.8074577706
 20
112.5454552459
 11
83.8074577706
 21
90.2141141377
  0
LINE
  5
322
100
AcDbEntity
  8
0
100
AcDbLine
 62
7
  6
CONTINUOUS
 10
83.8074577706
 20
61.3345704024
 11
83.8074577706
 21
39.0602377042
  0
LINE
  5
323
100
AcDbEntity
  8
0
100
AcDbLine
 62
7
  6
CONTINUOUS
 10
45.879995033
 20
21.5212278656
 11
47.7011487525
 21
22.5726651796
  0
LINE
  5
324
100
AcDbEntity
  8
0
100
AcDbLine
 62
7
  6
CONTINUOUS
 10
76.9925638704
 20
39.483970636
 11
78.8137175899
 21
40.53540795
  0
LINE
  5
325
100
AcDbEntity
  8
0
100
AcDbLine
 62
7
  6
CONTINUOUS
 10
77.3994981396
 20
38.3508258321
 11
76.9925638704
 21
38.1158836246
  0
LINE
  5
326
100
AcDbEntity
  8
0
100
AcDbLine
 62
7
  6
CONTINUOUS
 10
46.2869293022
 20
20.3880830618
 11
45.879995033
 21
20.1531408543
  0
LINE
  5
327
100
AcDbEntity
  8
0
100
AcDbLine
 62
7
  6
CONTINUOUS
 10
78.8137175899
 20
37.5343443231
 11
76.9925638704
 21
36.4829070091
  0
LINE
  5
328
100
AcDbEntity
  8
0
100
AcDbLine
 62
7
  6
CONTINUOUS
 10
47.7011487525
 20
19.5716015527
 11
45.879995033
 21
18.5201642388
  0
LINE
  5
329
100
AcDbEntity
  8
0
100
AcDbLine
 62
7
  6
CONTINUOUS
 10
81.8982774101
 20
88.5403032299
 11
81.403292049
 21
88.8260766963
  0
LINE
  5
32A
100
AcDbEntity
  8
0
100
AcDbLine
 62
7
  6
CONTINUOUS
 10
77.4986826289
 20
92.2872515536
 11
78.9129020792
 21
91.4707700446
  0
LINE
  5
32B
100
AcDbEntity
  8
0
100
AcDbLine
 62
7
  6
CONTINUOUS
 10
77.8923478134
 20
92.5145328972
 11
79.3065672637
 21
91.6980513881
  0
LINE
  5
32C
100
AcDbEntity
  8
0
100
AcDbLine
 62
7
  6
CONTINUOUS
 10
49.6957327099
 20
111.8345151362
 11
51.7985494802
 21
110.5991047944
  0
LINE
  5
32D
100
AcDbEntity
  8
0
100
AcDbLine
 62
7
  6
CONTINUOUS
 10
81.8982774101
 20
88.54030323
 11
82.2518293286
 21
87.6829721651
  0
LINE
  5
32E
100
AcDbEntity
  8
0
100
AcDbLine
 62
7
  6
CONTINUOUS
 10
83.8074577706
 20
39.0602377042
 11
39.9670198634
 21
13.7491001642
  0
LINE
  5
32F
100
AcDbEntity
  8
0
100
AcDbLine
 62
7
  6
CONTINUOUS
 10
34.7270470698
 20
10.8294333199
 11
39.9670198634
 21
13.7491001642
  0
LINE
  5
330
100
AcDbEntity
  8
0
100
AcDbLine
 62
7
  6
CONTINUOUS
 10
68.9138818167
 20
101.2218103924
 11
70.3281012669
 21
100.4053288834
  0
LINE
  5
331
100
AcDbEntity
  8
0
100
AcDbLine
 62
7
  6
CONTINUOUS
 10
73.6357690723
 20
99.2386085841
 11
72.0094167045
 21
100.1775623195
  0
LINE
  5
332
100
AcDbEntity
  8
0
100
AcDbLine
 62
7
  6
CONTINUOUS
 10
74.9580532479
 20
100.0020251522
 11
73.33170088
 21
100.9409788876
  0
LINE
  5
333
100
AcDbEntity
  8
0
100
AcDbLine
 62
7
  6
CONTINUOUS
 10
77.4986826289
 20
98.5743201664
 11
78.9129020792
 21
97.7578386574
  0
LINE
  5
334
100
AcDbEntity
  8
0
100
AcDbLine
 62
7
  6
CONTINUOUS
 10
74.9580532479
 20
100.5572467958
 11
73.33170088
 21
101.4962005312
  0
LINE
  5
335
100
AcDbEntity
  8
0
100
AcDbLine
 62
7
  6
CONTINUOUS
 10
76.3015505382
 20
101.332910688
 11
74.6751981703
 21
102.2718644234
  0
LINE
  5
336
100
AcDbEntity
  8
0
100
AcDbLine
 62
7
  6
CONTINUOUS
 10
53.6033023308
 20
111.1511773122
 11
52.248530338
 21
111.9611279879
  0
LINE
  5
337
100
AcDbEntity
  8
0
100
AcDbLine
 62
7
  6
CONTINUOUS
 10
52.248530338
 20
113.5941328222
 11
54.9928607065
 21
111.9534344257
  0
LINE
  5
338
100
AcDbEntity
  8
0
100
AcDbLine
 62
7
  6
CONTINUOUS
 10
75.7464604847
 20
103.5639688112
 11
75.5806925587
 21
103.6596728028
  0
LINE
  5
339
100
AcDbEntity
  8
0
100
AcDbLine
 62
7
  6
CONTINUOUS
 10
65.45803911
 20
112.2249775012
 11
64.0191343664
 21
113.0557107485
  0
LINE
  5
33A
100
AcDbEntity
  8
0
100
AcDbLine
 62
7
  6
CONTINUOUS
 10
62.0869237969
 20
114.3753681814
 11
61.2705334776
 21
114.8467006891
  0
LINE
  5
33B
100
AcDbEntity
  8
0
100
AcDbLine
 62
7
  6
CONTINUOUS
 10
68.2864424761
 20
113.8864226937
 11
68.3111033309
 21
113.8721850646
  0
LINE
  5
33C
100
AcDbEntity
  8
0
100
AcDbLine
 62
7
  6
CONTINUOUS
 10
65.1842896686
 20
117.1062953916
 11
66.000679988
 21
116.6349628839
  0
LINE
  5
33D
100
AcDbEntity
  8
0
100
AcDbLine
 62
7
  6
CONTINUOUS
 10
68.2864424761
 20
115.519427528
 11
69.7253472197
 21
114.6886942806
  0
LINE
  5
33E
100
AcDbEntity
  8
0
100
AcDbLine
 62
7
  6
CONTINUOUS
 10
66.8368479188
 20
119.0772937208
 11
74.1907890604
 21
114.8315898738
  0
LINE
  5
33F
100
AcDbEntity
  8
0
100
AcDbLine
 62
7
  6
CONTINUOUS
 10
83.8074577706
 20
112.5454552459
 11
77.0192044092
 21
116.4645664893
  0
LINE
  5
340
100
AcDbEntity
  8
0
100
AcDbLine
 62
7
  6
CONTINUOUS
 10
69.6652632682
 20
120.710270336
 11
67.1196682571
 21
122.1799370526
  0
SPLINE
  5
341
100
AcDbEntity
  8
0
100
AcDbSpline
 62
7
  6
CONTINUOUS
 70
0
 71
3
 72
11
 73
7
 74
0
 42
0.0000001
 43
0.0000001
 44
0.0000000001
 40
0.0
 40
0.0
 40
0.0
 40
0.0
 40
0.2372523194
 40
0.4999990183
 40
0.7627462526
 40
1.0
 40
1.0
 40
1.0
 40
1.0
 10
20.3095047758
 20
30.5920262812
 30
0.0
 10
20.4249587118
 20
30.5253705494
 30
0.0
 10
20.6434451243
 20
30.3415134146
 30
0.0
 10
20.8983511714
 20
29.9930277352
 30
0.0
 10
21.0726978162
 20
29.5980298795
 30
0.0
 10
21.1226816995
 20
29.3168859166
 30
0.0
 10
21.1226816995
 20
29.1835712067
 30
0.0
  0
SPLINE
  5
342
100
AcDbEntity
  8
0
100
AcDbSpline
 62
7
  6
CONTINUOUS
 70
0
 71
3
 72
11
 73
7
 74
0
 42
0.0000001
 43
0.0000001
 44
0.0000000001
 40
0.0
 40
0.0
 40
0.0
 40
0.0
 40
0.2895401978
 40
0.5491171512
 40
0.782255066
 40
1.0
 40
1.0
 40
1.0
 40
1.0
 10
21.1226816995
 20
29.1835712067
 30
0.0
 10
21.1226816995
 20
29.1253367901
 30
0.0
 10
21.1137898422
 20
29.0145267938
 30
0.0
 10
21.0689938126
 20
28.8622543253
 30
0.0
 10
20.9934313774
 20
28.7386509601
 30
0.0
 10
20.9223979222
 20
28.6790702119
 30
0.0
 10
20.8844707689
 20
28.6571730993
 30
0.0
  0
SPLINE
  5
343
100
AcDbEntity
  8
0
100
AcDbSpline
 62
7
  6
CONTINUOUS
 70
0
 71
3
 72
11
 73
7
 74
0
 42
0.0000001
 43
0.0000001
 44
0.0000000001
 40
0.0
 40
0.0
 40
0.0
 40
0.0
 40
0.2372523194
 40
0.4999990183
 40
0.7627462526
 40
1.0
 40
1.0
 40
1.0
 40
1.0
 10
20.3095047758
 20
22.2963617232
 30
0.0
 10
20.4249587118
 20
22.2297059914
 30
0.0
 10
20.6434451243
 20
22.0458488566
 30
0.0
 10
20.8983511714
 20
21.6973631772
 30
0.0
 10
21.0726978162
 20
21.3023653214
 30
0.0
 10
21.1226816995
 20
21.0212213586
 30
0.0
 10
21.1226816995
 20
20.8879066487
 30
0.0
  0
SPLINE
  5
344
100
AcDbEntity
  8
0
100
AcDbSpline
 62
7
  6
CONTINUOUS
 70
0
 71
3
 72
11
 73
7
 74
0
 42
0.0000001
 43
0.0000001
 44
0.0000000001
 40
0.0
 40
0.0
 40
0.0
 40
0.0
 40
0.2895401978
 40
0.5491171512
 40
0.782255066
 40
1.0
 40
1.0
 40
1.0
 40
1.0
 10
21.1226816995
 20
20.8879066487
 30
0.0
 10
21.1226816995
 20
20.829672232
 30
0.0
 10
21.1137898422
 20
20.7188622358
 30
0.0
 10
21.0689938126
 20
20.5665897673
 30
0.0
 10
20.9934313774
 20
20.4429864021
 30
0.0
 10
20.9223979222
 20
20.3834056538
 30
0.0
 10
20.8844707689
 20
20.3615085413
 30
0.0
  0
SPLINE
  5
345
100
AcDbEntity
  8
0
100
AcDbSpline
 62
7
  6
CONTINUOUS
 70
0
 71
3
 72
11
 73
7
 74
0
 42
0.0000001
 43
0.0000001
 44
0.0000000001
 40
0.0
 40
0.0
 40
0.0
 40
0.0
 40
0.2895401978
 40
0.5491171512
 40
0.782255066
 40
1.0
 40
1.0
 40
1.0
 40
1.0
 10
21.1226816995
 20
25.0357389277
 30
0.0
 10
21.1226816995
 20
24.9775045111
 30
0.0
 10
21.1137898422
 20
24.8666945148
 30
0.0
 10
21.0689938126
 20
24.7144220463
 30
0.0
 10
20.9934313774
 20
24.5908186811
 30
0.0
 10
20.9223979222
 20
24.5312379329
 30
0.0
 10
20.8844707689
 20
24.5093408203
 30
0.0
  0
SPLINE
  5
346
100
AcDbEntity
  8
0
100
AcDbSpline
 62
7
  6
CONTINUOUS
 70
0
 71
3
 72
11
 73
7
 74
0
 42
0.0000001
 43
0.0000001
 44
0.0000000001
 40
0.0
 40
0.0
 40
0.0
 40
0.0
 40
0.2372523194
 40
0.4999990183
 40
0.7627462526
 40
1.0
 40
1.0
 40
1.0
 40
1.0
 10
20.3095047758
 20
26.4441940022
 30
0.0
 10
20.4249587118
 20
26.3775382704
 30
0.0
 10
20.6434451243
 20
26.1936811356
 30
0.0
 10
20.8983511714
 20
25.8451954562
 30
0.0
 10
21.0726978162
 20
25.4501976005
 30
0.0
 10
21.1226816995
 20
25.1690536376
 30
0.0
 10
21.1226816995
 20
25.0357389277
 30
0.0
  0
SPLINE
  5
347
100
AcDbEntity
  8
0
100
AcDbSpline
 62
7
  6
CONTINUOUS
 70
0
 71
3
 72
11
 73
7
 74
0
 42
0.0000001
 43
0.0000001
 44
0.0000000001
 40
0.0
 40
0.0
 40
0.0
 40
0.0
 40
0.2372523801
 40
0.4999990737
 40
0.7627462798
 40
1.0
 40
1.0
 40
1.0
 40
1.0
 10
20.3095055156
 20
14.0006967381
 30
0.0
 10
20.4249594232
 20
13.9340410227
 30
0.0
 10
20.6434455565
 20
13.7501837046
 30
0.0
 10
20.8983514251
 20
13.4016981844
 30
0.0
 10
21.0726978721
 20
13.006700505
 30
0.0
 10
21.1226816995
 20
12.7255567183
 30
0.0
 10
21.1226816995
 20
12.5922420907
 30
0.0
  0
SPLINE
  5
348
100
AcDbEntity
  8
0
100
AcDbSpline
 62
7
  6
CONTINUOUS
 70
0
 71
3
 72
11
 73
7
 74
0
 42
0.0000001
 43
0.0000001
 44
0.0000000001
 40
0.0
 40
0.0
 40
0.0
 40
0.0
 40
0.2895401978
 40
0.5491171512
 40
0.782255066
 40
1.0
 40
1.0
 40
1.0
 40
1.0
 10
21.1226816995
 20
12.5922420907
 30
0.0
 10
21.1226816995
 20
12.534007674
 30
0.0
 10
21.1137898422
 20
12.4231976778
 30
0.0
 10
21.0689938126
 20
12.2709252093
 30
0.0
 10
20.9934313774
 20
12.1473218441
 30
0.0
 10
20.9223979222
 20
12.0877410958
 30
0.0
 10
20.8844707689
 20
12.0658439833
 30
0.0
  0
SPLINE
  5
349
100
AcDbEntity
  8
0
100
AcDbSpline
 62
7
  6
CONTINUOUS
 70
0
 71
3
 72
11
 73
7
 74
0
 42
0.0000001
 43
0.0000001
 44
0.0000000001
 40
0.0
 40
0.0
 40
0.0
 40
0.0
 40
0.2895401978
 40
0.5491171512
 40
0.782255066
 40
1.0
 40
1.0
 40
1.0
 40
1.0
 10
21.1226816995
 20
16.7400743697
 30
0.0
 10
21.1226816995
 20
16.681839953
 30
0.0
 10
21.1137898422
 20
16.5710299568
 30
0.0
 10
21.0689938126
 20
16.4187574883
 30
0.0
 10
20.9934313774
 20
16.2951541231
 30
0.0
 10
20.9223979222
 20
16.2355733748
 30
0.0
 10
20.8844707689
 20
16.2136762623
 30
0.0
  0
SPLINE
  5
34A
100
AcDbEntity
  8
0
100
AcDbSpline
 62
7
  6
CONTINUOUS
 70
0
 71
3
 72
11
 73
7
 74
0
 42
0.0000001
 43
0.0000001
 44
0.0000000001
 40
0.0
 40
0.0
 40
0.0
 40
0.0
 40
0.2372523801
 40
0.4999990737
 40
0.7627462799
 40
1.0
 40
1.0
 40
1.0
 40
1.0
 10
20.3095055156
 20
18.1485290171
 30
0.0
 10
20.4249594232
 20
18.0818733017
 30
0.0
 10
20.6434455565
 20
17.8980159836
 30
0.0
 10
20.8983514251
 20
17.5495304634
 30
0.0
 10
21.0726978721
 20
17.154532784
 30
0.0
 10
21.1226816995
 20
16.8733889973
 30
0.0
 10
21.1226816995
 20
16.7400743697
 30
0.0
  0
SPLINE
  5
34B
100
AcDbEntity
  8
0
100
AcDbSpline
 62
7
  6
CONTINUOUS
 70
0
 71
3
 72
11
 73
7
 74
0
 42
0.0000001
 43
0.0000001
 44
0.0000000001
 40
0.0
 40
0.0
 40
0.0
 40
0.0
 40
0.2895401978
 40
0.5491171512
 40
0.782255066
 40
1.0
 40
1.0
 40
1.0
 40
1.0
 10
21.1226816995
 20
37.4792357648
 30
0.0
 10
21.1226816995
 20
37.4210013481
 30
0.0
 10
21.1137898422
 20
37.3101913519
 30
0.0
 10
21.0689938126
 20
37.1579188834
 30
0.0
 10
20.9934313774
 20
37.0343155182
 30
0.0
 10
20.9223979222
 20
36.9747347699
 30
0.0
 10
20.8844707689
 20
36.9528376574
 30
0.0
  0
SPLINE
  5
34C
100
AcDbEntity
  8
0
100
AcDbSpline
 62
7
  6
CONTINUOUS
 70
0
 71
3
 72
11
 73
7
 74
0
 42
0.0000001
 43
0.0000001
 44
0.0000000001
 40
0.0
 40
0.0
 40
0.0
 40
0.0
 40
0.2372523194
 40
0.4999990183
 40
0.7627462526
 40
1.0
 40
1.0
 40
1.0
 40
1.0
 10
20.3095047758
 20
38.8876908393
 30
0.0
 10
20.4249587118
 20
38.8210351074
 30
0.0
 10
20.6434451243
 20
38.6371779727
 30
0.0
 10
20.8983511714
 20
38.2886922932
 30
0.0
 10
21.0726978162
 20
37.8936944375
 30
0.0
 10
21.1226816995
 20
37.6125504747
 30
0.0
 10
21.1226816995
 20
37.4792357648
 30
0.0
  0
SPLINE
  5
34D
100
AcDbEntity
  8
0
100
AcDbSpline
 62
7
  6
CONTINUOUS
 70
0
 71
3
 72
11
 73
7
 74
0
 42
0.0000001
 43
0.0000001
 44
0.0000000001
 40
0.0
 40
0.0
 40
0.0
 40
0.0
 40
0.2895401978
 40
0.5491171512
 40
0.782255066
 40
1.0
 40
1.0
 40
1.0
 40
1.0
 10
21.1226816995
 20
45.7749003228
 30
0.0
 10
21.1226816995
 20
45.7166659062
 30
0.0
 10
21.1137898422
 20
45.6058559099
 30
0.0
 10
21.0689938126
 20
45.4535834414
 30
0.0
 10
20.9934313774
 20
45.3299800762
 30
0.0
 10
20.9223979222
 20
45.2703993279
 30
0.0
 10
20.8844707689
 20
45.2485022154
 30
0.0
  0
SPLINE
  5
34E
100
AcDbEntity
  8
0
100
AcDbSpline
 62
7
  6
CONTINUOUS
 70
0
 71
3
 72
11
 73
7
 74
0
 42
0.0000001
 43
0.0000001
 44
0.0000000001
 40
0.0
 40
0.0
 40
0.0
 40
0.0
 40
0.2372523194
 40
0.4999990183
 40
0.7627462526
 40
1.0
 40
1.0
 40
1.0
 40
1.0
 10
20.3095047758
 20
47.1833553973
 30
0.0
 10
20.4249587118
 20
47.1166996655
 30
0.0
 10
20.6434451243
 20
46.9328425307
 30
0.0
 10
20.8983511714
 20
46.5843568513
 30
0.0
 10
21.0726978162
 20
46.1893589955
 30
0.0
 10
21.1226816995
 20
45.9082150327
 30
0.0
 10
21.1226816995
 20
45.7749003228
 30
0.0
  0
SPLINE
  5
34F
100
AcDbEntity
  8
0
100
AcDbSpline
 62
7
  6
CONTINUOUS
 70
0
 71
3
 72
11
 73
7
 74
0
 42
0.0000001
 43
0.0000001
 44
0.0000000001
 40
0.0
 40
0.0
 40
0.0
 40
0.0
 40
0.2372523194
 40
0.4999990183
 40
0.7627462526
 40
1.0
 40
1.0
 40
1.0
 40
1.0
 10
20.3095047758
 20
43.0355231183
 30
0.0
 10
20.4249587118
 20
42.9688673865
 30
0.0
 10
20.6434451243
 20
42.7850102517
 30
0.0
 10
20.8983511714
 20
42.4365245723
 30
0.0
 10
21.0726978162
 20
42.0415267165
 30
0.0
 10
21.1226816995
 20
41.7603827537
 30
0.0
 10
21.1226816995
 20
41.6270680438
 30
0.0
  0
SPLINE
  5
350
100
AcDbEntity
  8
0
100
AcDbSpline
 62
7
  6
CONTINUOUS
 70
0
 71
3
 72
11
 73
7
 74
0
 42
0.0000001
 43
0.0000001
 44
0.0000000001
 40
0.0
 40
0.0
 40
0.0
 40
0.0
 40
0.2895401978
 40
0.5491171512
 40
0.782255066
 40
1.0
 40
1.0
 40
1.0
 40
1.0
 10
21.1226816995
 20
41.6270680438
 30
0.0
 10
21.1226816995
 20
41.5688336271
 30
0.0
 10
21.1137898422
 20
41.4580236309
 30
0.0
 10
21.0689938126
 20
41.3057511624
 30
0.0
 10
20.9934313774
 20
41.1821477972
 30
0.0
 10
20.9223979222
 20
41.1225670489
 30
0.0
 10
20.8844707689
 20
41.1006699364
 30
0.0
  0
SPLINE
  5
351
100
AcDbEntity
  8
0
100
AcDbSpline
 62
7
  6
CONTINUOUS
 70
0
 71
3
 72
11
 73
7
 74
0
 42
0.0000001
 43
0.0000001
 44
0.0000000001
 40
0.0
 40
0.0
 40
0.0
 40
0.0
 40
0.2372523194
 40
0.4999990183
 40
0.7627462526
 40
1.0
 40
1.0
 40
1.0
 40
1.0
 10
20.3095047757
 20
55.4790199554
 30
0.0
 10
20.4249587118
 20
55.4123642236
 30
0.0
 10
20.6434451242
 20
55.2285070888
 30
0.0
 10
20.8983511714
 20
54.8800214094
 30
0.0
 10
21.0726978162
 20
54.4850235536
 30
0.0
 10
21.1226816995
 20
54.2038795907
 30
0.0
 10
21.1226816995
 20
54.0705648808
 30
0.0
  0
SPLINE
  5
352
100
AcDbEntity
  8
0
100
AcDbSpline
 62
7
  6
CONTINUOUS
 70
0
 71
3
 72
11
 73
7
 74
0
 42
0.0000001
 43
0.0000001
 44
0.0000000001
 40
0.0
 40
0.0
 40
0.0
 40
0.0
 40
0.2895401978
 40
0.5491171512
 40
0.782255066
 40
1.0
 40
1.0
 40
1.0
 40
1.0
 10
21.1226816995
 20
54.0705648808
 30
0.0
 10
21.1226816995
 20
54.0123304642
 30
0.0
 10
21.1137898422
 20
53.901520468
 30
0.0
 10
21.0689938126
 20
53.7492479994
 30
0.0
 10
20.9934313774
 20
53.6256446342
 30
0.0
 10
20.9223979222
 20
53.566063886
 30
0.0
 10
20.8844707689
 20
53.5441667734
 30
0.0
  0
SPLINE
  5
353
100
AcDbEntity
  8
0
100
AcDbSpline
 62
7
  6
CONTINUOUS
 70
0
 71
3
 72
11
 73
7
 74
0
 42
0.0000001
 43
0.0000001
 44
0.0000000001
 40
0.0
 40
0.0
 40
0.0
 40
0.0
 40
0.2372523194
 40
0.4999990183
 40
0.7627462526
 40
1.0
 40
1.0
 40
1.0
 40
1.0
 10
20.3095047757
 20
51.3311876764
 30
0.0
 10
20.4249587118
 20
51.2645319446
 30
0.0
 10
20.6434451242
 20
51.0806748098
 30
0.0
 10
20.8983511714
 20
50.7321891303
 30
0.0
 10
21.0726978162
 20
50.3371912746
 30
0.0
 10
21.1226816995
 20
50.0560473117
 30
0.0
 10
21.1226816995
 20
49.9227326018
 30
0.0
  0
SPLINE
  5
354
100
AcDbEntity
  8
0
100
AcDbSpline
 62
7
  6
CONTINUOUS
 70
0
 71
3
 72
11
 73
7
 74
0
 42
0.0000001
 43
0.0000001
 44
0.0000000001
 40
0.0
 40
0.0
 40
0.0
 40
0.0
 40
0.2895401978
 40
0.5491171512
 40
0.782255066
 40
1.0
 40
1.0
 40
1.0
 40
1.0
 10
21.1226816995
 20
49.9227326018
 30
0.0
 10
21.1226816995
 20
49.8644981852
 30
0.0
 10
21.1137898422
 20
49.7536881889
 30
0.0
 10
21.0689938126
 20
49.6014157204
 30
0.0
 10
20.9934313774
 20
49.4778123552
 30
0.0
 10
20.9223979222
 20
49.418231607
 30
0.0
 10
20.8844707689
 20
49.3963344944
 30
0.0
  0
SPLINE
  5
355
100
AcDbEntity
  8
0
100
AcDbSpline
 62
7
  6
CONTINUOUS
 70
0
 71
3
 72
11
 73
7
 74
0
 42
0.0000001
 43
0.0000001
 44
0.0000000001
 40
0.0
 40
0.0
 40
0.0
 40
0.0
 40
0.2372523194
 40
0.4999990183
 40
0.7627462526
 40
1.0
 40
1.0
 40
1.0
 40
1.0
 10
20.3095047758
 20
34.7398585602
 30
0.0
 10
20.4249587118
 20
34.6732028284
 30
0.0
 10
20.6434451243
 20
34.4893456937
 30
0.0
 10
20.8983511714
 20
34.1408600142
 30
0.0
 10
21.0726978162
 20
33.7458621585
 30
0.0
 10
21.1226816995
 20
33.4647181956
 30
0.0
 10
21.1226816995
 20
33.3314034857
 30
0.0
  0
SPLINE
  5
356
100
AcDbEntity
  8
0
100
AcDbSpline
 62
7
  6
CONTINUOUS
 70
0
 71
3
 72
11
 73
7
 74
0
 42
0.0000001
 43
0.0000001
 44
0.0000000001
 40
0.0
 40
0.0
 40
0.0
 40
0.0
 40
0.2895401978
 40
0.5491171512
 40
0.782255066
 40
1.0
 40
1.0
 40
1.0
 40
1.0
 10
21.1226816995
 20
33.3314034857
 30
0.0
 10
21.1226816995
 20
33.2731690691
 30
0.0
 10
21.1137898422
 20
33.1623590729
 30
0.0
 10
21.0689938126
 20
33.0100866043
 30
0.0
 10
20.9934313774
 20
32.8864832391
 30
0.0
 10
20.9223979222
 20
32.8269024909
 30
0.0
 10
20.8844707689
 20
32.8050053783
 30
0.0
  0
SPLINE
  5
357
100
AcDbEntity
  8
0
100
AcDbSpline
 62
7
  6
CONTINUOUS
 70
0
 71
3
 72
13
 73
9
 74
0
 42
0.0000001
 43
0.0000001
 44
0.0000000001
 40
0.0
 40
0.0
 40
0.0
 40
0.0
 40
0.098771045
 40
0.2013443424
 40
0.310845077
 40
0.4293682333
 40
0.6959809414
 40
1.0
 40
1.0
 40
1.0
 40
1.0
 10
11.9909422772
 20
39.7990197307
 30
0.0
 10
12.0384377037
 20
39.8264665112
 30
0.0
 10
12.1427206926
 20
39.8703864254
 30
0.0
 10
12.3145785109
 20
39.897923871
 30
0.0
 10
12.4991387995
 20
39.8878721172
 30
0.0
 10
12.7673454888
 20
39.8229074503
 30
0.0
 10
13.1121984937
 20
39.6455022339
 30
0.0
 10
13.3564550333
 20
39.4402330721
 30
0.0
 10
13.4759272707
 20
39.3209201385
 30
0.0
  0
SPLINE
  5
358
100
AcDbEntity
  8
0
100
AcDbSpline
 62
7
  6
CONTINUOUS
 70
0
 71
3
 72
13
 73
9
 74
0
 42
0.0000001
 43
0.0000001
 44
0.0000000001
 40
0.0
 40
0.0
 40
0.0
 40
0.0
 40
0.098771045
 40
0.2013443424
 40
0.310845077
 40
0.4293682333
 40
0.6959809414
 40
1.0
 40
1.0
 40
1.0
 40
1.0
 10
11.9909422772
 20
43.9468520097
 30
0.0
 10
12.0384377037
 20
43.9742987902
 30
0.0
 10
12.1427206926
 20
44.0182187045
 30
0.0
 10
12.3145785109
 20
44.0457561501
 30
0.0
 10
12.4991387995
 20
44.0357043962
 30
0.0
 10
12.7673454888
 20
43.9707397294
 30
0.0
 10
13.1121984937
 20
43.7933345129
 30
0.0
 10
13.3564550333
 20
43.5880653511
 30
0.0
 10
13.4759272707
 20
43.4687524175
 30
0.0
  0
SPLINE
  5
359
100
AcDbEntity
  8
0
100
AcDbSpline
 62
7
  6
CONTINUOUS
 70
0
 71
3
 72
13
 73
9
 74
0
 42
0.0000001
 43
0.0000001
 44
0.0000000001
 40
0.0
 40
0.0
 40
0.0
 40
0.0
 40
0.098771045
 40
0.2013443424
 40
0.310845077
 40
0.4293682333
 40
0.6959809414
 40
1.0
 40
1.0
 40
1.0
 40
1.0
 10
11.9909422772
 20
52.2425165677
 30
0.0
 10
12.0384377037
 20
52.2699633483
 30
0.0
 10
12.1427206926
 20
52.3138832625
 30
0.0
 10
12.3145785109
 20
52.3414207081
 30
0.0
 10
12.4991387995
 20
52.3313689543
 30
0.0
 10
12.7673454888
 20
52.2664042874
 30
0.0
 10
13.1121984937
 20
52.0889990709
 30
0.0
 10
13.3564550333
 20
51.8837299091
 30
0.0
 10
13.4759272707
 20
51.7644169756
 30
0.0
  0
SPLINE
  5
35A
100
AcDbEntity
  8
0
100
AcDbSpline
 62
7
  6
CONTINUOUS
 70
0
 71
3
 72
11
 73
7
 74
0
 42
0.0000001
 43
0.0000001
 44
0.0000000001
 40
0.0
 40
0.0
 40
0.0
 40
0.0
 40
0.2367285468
 40
0.4989100111
 40
0.7616834297
 40
1.0
 40
1.0
 40
1.0
 40
1.0
 10
17.6223996522
 20
93.0074046455
 30
0.0
 10
17.6223996522
 20
93.0761358017
 30
0.0
 10
17.6478996738
 20
93.2210859761
 30
0.0
 10
17.7370248615
 20
93.425231933
 30
0.0
 10
17.8677649397
 20
93.6061529412
 30
0.0
 10
17.9798603704
 20
93.7024131055
 30
0.0
 10
18.0392575564
 20
93.737903068
 30
0.0
  0
SPLINE
  5
35B
100
AcDbEntity
  8
0
100
AcDbSpline
 62
7
  6
CONTINUOUS
 70
0
 71
3
 72
13
 73
9
 74
0
 42
0.0000001
 43
0.0000001
 44
0.0000000001
 40
0.0
 40
0.0
 40
0.0
 40
0.0
 40
0.098771045
 40
0.2013443424
 40
0.310845077
 40
0.4293682333
 40
0.6959809414
 40
1.0
 40
1.0
 40
1.0
 40
1.0
 10
11.9909422772
 20
56.3903488468
 30
0.0
 10
12.0384377037
 20
56.4177956273
 30
0.0
 10
12.1427206926
 20
56.4617155415
 30
0.0
 10
12.3145785109
 20
56.4892529871
 30
0.0
 10
12.4991387995
 20
56.4792012333
 30
0.0
 10
12.7673454888
 20
56.4142365664
 30
0.0
 10
13.1121984937
 20
56.2368313499
 30
0.0
 10
13.3564550333
 20
56.0315621881
 30
0.0
 10
13.4759272707
 20
55.9122492546
 30
0.0
  0
SPLINE
  5
35C
100
AcDbEntity
  8
0
100
AcDbSpline
 62
7
  6
CONTINUOUS
 70
0
 71
3
 72
14
 73
10
 74
0
 42
0.0000001
 43
0.0000001
 44
0.0000000001
 40
0.0
 40
0.0
 40
0.0
 40
0.0
 40
0.0909822486
 40
0.1882902021
 40
0.2963463628
 40
0.4170310032
 40
0.5500875892
 40
0.6937182262
 40
1.0
 40
1.0
 40
1.0
 40
1.0
 10
11.9909422772
 20
60.5381811258
 30
0.0
 10
12.0562812886
 20
60.5759394035
 30
0.0
 10
12.2062418365
 20
60.6306304164
 30
0.0
 10
12.4552345801
 20
60.6380043435
 30
0.0
 10
12.7208719062
 20
60.5754717462
 30
0.0
 10
12.9941287184
 20
60.4474472641
 30
0.0
 10
13.2663290015
 20
60.2592529833
 30
0.0
 10
13.6223799712
 20
59.9305194386
 30
0.0
 10
13.8476114755
 20
59.6273250381
 30
0.0
 10
13.976424699
 20
59.4083620387
 30
0.0
  0
SPLINE
  5
35D
100
AcDbEntity
  8
0
100
AcDbSpline
 62
7
  6
CONTINUOUS
 70
0
 71
3
 72
13
 73
9
 74
0
 42
0.0000001
 43
0.0000001
 44
0.0000000001
 40
0.0
 40
0.0
 40
0.0
 40
0.0
 40
0.098771045
 40
0.2013443424
 40
0.310845077
 40
0.4293682333
 40
0.6959809414
 40
1.0
 40
1.0
 40
1.0
 40
1.0
 10
11.9909422772
 20
48.0946842887
 30
0.0
 10
12.0384377037
 20
48.1221310692
 30
0.0
 10
12.1427206926
 20
48.1660509835
 30
0.0
 10
12.3145785109
 20
48.1935884291
 30
0.0
 10
12.4991387995
 20
48.1835366752
 30
0.0
 10
12.7673454888
 20
48.1185720084
 30
0.0
 10
13.1121984937
 20
47.9411667919
 30
0.0
 10
13.3564550333
 20
47.7358976301
 30
0.0
 10
13.4759272707
 20
47.6165846965
 30
0.0
  0
SPLINE
  5
35E
100
AcDbEntity
  8
0
100
AcDbSpline
 62
7
  6
CONTINUOUS
 70
0
 71
3
 72
13
 73
9
 74
0
 42
0.0000001
 43
0.0000001
 44
0.0000000001
 40
0.0
 40
0.0
 40
0.0
 40
0.0
 40
0.098771045
 40
0.2013443424
 40
0.310845077
 40
0.4293682333
 40
0.6959809414
 40
1.0
 40
1.0
 40
1.0
 40
1.0
 10
11.9909422772
 20
19.0598583356
 30
0.0
 10
12.0384377037
 20
19.0873051161
 30
0.0
 10
12.1427206926
 20
19.1312250304
 30
0.0
 10
12.3145785109
 20
19.1587624759
 30
0.0
 10
12.4991387995
 20
19.1487107221
 30
0.0
 10
12.7673454888
 20
19.0837460553
 30
0.0
 10
13.1121984937
 20
18.9063408388
 30
0.0
 10
13.3564550333
 20
18.701071677
 30
0.0
 10
13.4759272707
 20
18.5817587434
 30
0.0
  0
SPLINE
  5
35F
100
AcDbEntity
  8
0
100
AcDbSpline
 62
7
  6
CONTINUOUS
 70
0
 71
3
 72
13
 73
9
 74
0
 42
0.0000001
 43
0.0000001
 44
0.0000000001
 40
0.0
 40
0.0
 40
0.0
 40
0.0
 40
0.098771045
 40
0.2013443424
 40
0.310845077
 40
0.4293682333
 40
0.6959809414
 40
1.0
 40
1.0
 40
1.0
 40
1.0
 10
11.9909422772
 20
27.3555228936
 30
0.0
 10
12.0384377037
 20
27.3829696742
 30
0.0
 10
12.1427206926
 20
27.4268895884
 30
0.0
 10
12.3145785109
 20
27.454427034
 30
0.0
 10
12.4991387995
 20
27.4443752801
 30
0.0
 10
12.7673454888
 20
27.3794106133
 30
0.0
 10
13.1121984937
 20
27.2020053968
 30
0.0
 10
13.3564550333
 20
26.996736235
 30
0.0
 10
13.4759272707
 20
26.8774233014
 30
0.0
  0
SPLINE
  5
360
100
AcDbEntity
  8
0
100
AcDbSpline
 62
7
  6
CONTINUOUS
 70
0
 71
3
 72
13
 73
9
 74
0
 42
0.0000001
 43
0.0000001
 44
0.0000000001
 40
0.0
 40
0.0
 40
0.0
 40
0.0
 40
0.098771045
 40
0.2013443424
 40
0.310845077
 40
0.4293682333
 40
0.6959809414
 40
1.0
 40
1.0
 40
1.0
 40
1.0
 10
11.9909422772
 20
35.6511874517
 30
0.0
 10
12.0384377037
 20
35.6786342322
 30
0.0
 10
12.1427206926
 20
35.7225541464
 30
0.0
 10
12.3145785109
 20
35.750091592
 30
0.0
 10
12.4991387995
 20
35.7400398382
 30
0.0
 10
12.7673454888
 20
35.6750751713
 30
0.0
 10
13.1121984937
 20
35.4976699548
 30
0.0
 10
13.3564550333
 20
35.292400793
 30
0.0
 10
13.4759272707
 20
35.1730878595
 30
0.0
  0
SPLINE
  5
361
100
AcDbEntity
  8
0
100
AcDbSpline
 62
7
  6
CONTINUOUS
 70
0
 71
3
 72
13
 73
9
 74
0
 42
0.0000001
 43
0.0000001
 44
0.0000000001
 40
0.0
 40
0.0
 40
0.0
 40
0.0
 40
0.098771045
 40
0.2013443424
 40
0.310845077
 40
0.4293682333
 40
0.6959809414
 40
1.0
 40
1.0
 40
1.0
 40
1.0
 10
11.9909422772
 20
31.5033551727
 30
0.0
 10
12.0384377037
 20
31.5308019532
 30
0.0
 10
12.1427206926
 20
31.5747218674
 30
0.0
 10
12.3145785109
 20
31.602259313
 30
0.0
 10
12.4991387995
 20
31.5922075592
 30
0.0
 10
12.7673454888
 20
31.5272428923
 30
0.0
 10
13.1121984937
 20
31.3498376758
 30
0.0
 10
13.3564550333
 20
31.144568514
 30
0.0
 10
13.4759272707
 20
31.0252555805
 30
0.0
  0
SPLINE
  5
362
100
AcDbEntity
  8
0
100
AcDbSpline
 62
7
  6
CONTINUOUS
 70
0
 71
3
 72
13
 73
9
 74
0
 42
0.0000001
 43
0.0000001
 44
0.0000000001
 40
0.0
 40
0.0
 40
0.0
 40
0.0
 40
0.098771045
 40
0.2013443424
 40
0.310845077
 40
0.4293682333
 40
0.6959809414
 40
1.0
 40
1.0
 40
1.0
 40
1.0
 10
11.9909422772
 20
23.2076906146
 30
0.0
 10
12.0384377037
 20
23.2351373951
 30
0.0
 10
12.1427206926
 20
23.2790573094
 30
0.0
 10
12.3145785109
 20
23.306594755
 30
0.0
 10
12.4991387995
 20
23.2965430011
 30
0.0
 10
12.7673454888
 20
23.2315783343
 30
0.0
 10
13.1121984937
 20
23.0541731178
 30
0.0
 10
13.3564550333
 20
22.848903956
 30
0.0
 10
13.4759272707
 20
22.7295910224
 30
0.0
  0
SPLINE
  5
363
100
AcDbEntity
  8
0
100
AcDbSpline
 62
7
  6
CONTINUOUS
 70
0
 71
3
 72
11
 73
7
 74
0
 42
0.0000001
 43
0.0000001
 44
0.0000000001
 40
0.0
 40
0.0
 40
0.0
 40
0.0
 40
0.2177231375
 40
0.4508717887
 40
0.7104673698
 40
1.0
 40
1.0
 40
1.0
 40
1.0
 10
80.354080256
 20
39.6107802254
 30
0.0
 10
80.3128579364
 20
39.6345772904
 30
0.0
 10
80.2356642626
 20
39.6993558434
 30
0.0
 10
80.1535184859
 20
39.8336985027
 30
0.0
 10
80.1048288601
 20
39.9992208952
 30
0.0
 10
80.0951626252
 20
40.1196686379
 30
0.0
 10
80.0951626252
 20
40.1829655649
 30
0.0
  0
SPLINE
  5
364
100
AcDbEntity
  8
0
100
AcDbSpline
 62
7
  6
CONTINUOUS
 70
0
 71
3
 72
11
 73
7
 74
0
 42
0.0000001
 43
0.0000001
 44
0.0000000001
 40
0.0
 40
0.0
 40
0.0
 40
0.0
 40
0.2177231375
 40
0.4508717887
 40
0.7104673698
 40
1.0
 40
1.0
 40
1.0
 40
1.0
 10
80.354080256
 20
106.5639784301
 30
0.0
 10
80.3128579364
 20
106.5877754951
 30
0.0
 10
80.2356642626
 20
106.652554048
 30
0.0
 10
80.1535184859
 20
106.7868967073
 30
0.0
 10
80.1048288601
 20
106.9524190998
 30
0.0
 10
80.0951626252
 20
107.0728668425
 30
0.0
 10
80.0951626252
 20
107.1361637696
 30
0.0
  0
SPLINE
  5
365
100
AcDbEntity
  8
0
100
AcDbSpline
 62
7
  6
CONTINUOUS
 70
0
 71
3
 72
11
 73
7
 74
0
 42
0.0000001
 43
0.0000001
 44
0.0000000001
 40
0.0
 40
0.0
 40
0.0
 40
0.0
 40
0.2177231375
 40
0.4508717887
 40
0.7104673698
 40
1.0
 40
1.0
 40
1.0
 40
1.0
 10
53.4666804336
 20
91.0204686749
 30
0.0
 10
53.4243068528
 20
91.0449303468
 30
0.0
 10
53.3449573061
 20
91.1115180419
 30
0.0
 10
53.2605173535
 20
91.2496126369
 30
0.0
 10
53.2104679188
 20
91.4197577561
 30
0.0
 10
53.2005317243
 20
91.5435693758
 30
0.0
 10
53.2005317243
 20
91.608634066
 30
0.0
  0
SPLINE
  5
366
100
AcDbEntity
  8
0
100
AcDbSpline
 62
7
  6
CONTINUOUS
 70
0
 71
3
 72
11
 73
7
 74
0
 42
0.0000001
 43
0.0000001
 44
0.0000000001
 40
0.0
 40
0.0
 40
0.0
 40
0.0
 40
0.2177231375
 40
0.4508717887
 40
0.7104673698
 40
1.0
 40
1.0
 40
1.0
 40
1.0
 10
53.4666804336
 20
24.0672704703
 30
0.0
 10
53.4243068528
 20
24.0917321421
 30
0.0
 10
53.3449573062
 20
24.1583198371
 30
0.0
 10
53.2605173538
 20
24.2964144318
 30
0.0
 10
53.2104679189
 20
24.4665595506
 30
0.0
 10
53.2005317245
 20
24.5903711702
 30
0.0
 10
53.2005317245
 20
24.6554358603
 30
0.0
  0
SPLINE
  5
367
100
AcDbEntity
  8
0
100
AcDbSpline
 62
7
  6
CONTINUOUS
 70
0
 71
3
 72
17
 73
13
 74
0
 42
0.0000001
 43
0.0000001
 44
0.0000000001
 40
0.0
 40
0.0
 40
0.0
 40
0.0
 40
0.1286849204
 40
0.270303802
 40
0.4174438805
 40
0.5617821442
 40
0.6954492858
 40
0.8127130377
 40
0.8646795618
 40
0.9125091497
 40
0.9571393989
 40
1.0
 40
1.0
 40
1.0
 40
1.0
 10
53.2005317245
 20
24.6554358603
 30
0.0
 10
53.2005317245
 20
24.7652588971
 30
0.0
 10
53.2312789124
 20
24.9962023077
 30
0.0
 10
53.3459264291
 20
25.3352868397
 30
0.0
 10
53.5226758129
 20
25.6619044425
 30
0.0
 10
53.7471883833
 20
25.9492984706
 30
0.0
 10
54.001206477
 20
26.1742708632
 30
0.0
 10
54.2311308644
 20
26.2999451623
 30
0.0
 10
54.4109706016
 20
26.3478633748
 30
0.0
 10
54.5347525554
 20
26.3569073722
 30
0.0
 10
54.6500301023
 20
26.3400935727
 30
0.0
 10
54.7198341231
 20
26.3110029932
 30
0.0
 10
54.7515127814
 20
26.2927153496
 30
0.0
  0
SPLINE
  5
368
100
AcDbEntity
  8
0
100
AcDbSpline
 62
7
  6
CONTINUOUS
 70
0
 71
3
 72
17
 73
13
 74
0
 42
0.0000001
 43
0.0000001
 44
0.0000000001
 40
0.0
 40
0.0
 40
0.0
 40
0.0
 40
0.1286865535
 40
0.2703065218
 40
0.4174612681
 40
0.5617989266
 40
0.6954528234
 40
0.8127091351
 40
0.8646746914
 40
0.9125055669
 40
0.957137259
 40
1.0
 40
1.0
 40
1.0
 40
1.0
 10
53.2005317243
 20
91.608634066
 30
0.0
 10
53.2005317243
 20
91.7184584708
 30
0.0
 10
53.2312804059
 20
91.9494038633
 30
0.0
 10
53.3459305958
 20
92.2885034318
 30
0.0
 10
53.5226961604
 20
92.6151272994
 30
0.0
 10
53.7472108697
 20
92.902520244
 30
0.0
 10
54.0012181513
 20
93.1274763258
 30
0.0
 10
54.2311254719
 20
93.2531437103
 30
0.0
 10
54.4109597664
 20
93.3010569573
 30
0.0
 10
54.5347427434
 20
93.3101069504
 30
0.0
 10
54.6500246494
 20
93.2932912953
 30
0.0
 10
54.719831214
 20
93.2641996932
 30
0.0
 10
54.7515120265
 20
93.2459121456
 30
0.0
  0
SPLINE
  5
369
100
AcDbEntity
  8
0
100
AcDbSpline
 62
7
  6
CONTINUOUS
 70
0
 71
3
 72
17
 73
13
 74
0
 42
0.0000001
 43
0.0000001
 44
0.0000000001
 40
0.0
 40
0.0
 40
0.0
 40
0.0
 40
0.1286865535
 40
0.2703065218
 40
0.4174612681
 40
0.5617989266
 40
0.6954528234
 40
0.8127091351
 40
0.8646746914
 40
0.9125055669
 40
0.957137259
 40
1.0
 40
1.0
 40
1.0
 40
1.0
 10
80.0951626252
 20
107.1361637696
 30
0.0
 10
80.0951626252
 20
107.2430043204
 30
0.0
 10
80.1250758862
 20
107.4676750844
 30
0.0
 10
80.2366111088
 20
107.7975615494
 30
0.0
 10
80.4085740738
 20
108.1153112698
 30
0.0
 10
80.6269888719
 20
108.3948959446
 30
0.0
 10
80.8740949493
 20
108.6137401235
 30
0.0
 10
81.0977558452
 20
108.735993211
 30
0.0
 10
81.2727041649
 20
108.7826046878
 30
0.0
 10
81.393124043
 20
108.7914087988
 30
0.0
 10
81.5052738184
 20
108.7750500136
 30
0.0
 10
81.5731837863
 20
108.7467488104
 30
0.0
 10
81.6040038529
 20
108.728958123
 30
0.0
  0
SPLINE
  5
36A
100
AcDbEntity
  8
0
100
AcDbSpline
 62
7
  6
CONTINUOUS
 70
0
 71
3
 72
17
 73
13
 74
0
 42
0.0000001
 43
0.0000001
 44
0.0000000001
 40
0.0
 40
0.0
 40
0.0
 40
0.0
 40
0.1286865535
 40
0.2703065218
 40
0.4174612681
 40
0.5617989266
 40
0.6954528234
 40
0.8127091351
 40
0.8646746914
 40
0.9125055669
 40
0.957137259
 40
1.0
 40
1.0
 40
1.0
 40
1.0
 10
80.0951626252
 20
40.1829655649
 30
0.0
 10
80.0951626252
 20
40.2898061157
 30
0.0
 10
80.1250758862
 20
40.5144768798
 30
0.0
 10
80.2366111088
 20
40.8443633448
 30
0.0
 10
80.4085740738
 20
41.1621130652
 30
0.0
 10
80.6269888719
 20
41.44169774
 30
0.0
 10
80.8740949493
 20
41.6605419189
 30
0.0
 10
81.0977558452
 20
41.7827950064
 30
0.0
 10
81.2727041649
 20
41.8294064832
 30
0.0
 10
81.393124043
 20
41.8382105942
 30
0.0
 10
81.5052738184
 20
41.821851809
 30
0.0
 10
81.5731837863
 20
41.7935506058
 30
0.0
 10
81.6040038529
 20
41.7757599184
 30
0.0
  0
SPLINE
  5
36B
100
AcDbEntity
  8
0
100
AcDbSpline
 62
7
  6
CONTINUOUS
 70
0
 71
3
 72
11
 73
7
 74
0
 42
0.0000001
 43
0.0000001
 44
0.0000000001
 40
0.0
 40
0.0
 40
0.0
 40
0.0
 40
0.2383165703
 40
0.5010899889
 40
0.7632714532
 40
1.0
 40
1.0
 40
1.0
 40
1.0
 10
34.7270470698
 20
84.1034212614
 30
0.0
 10
34.6676498838
 20
84.0679312988
 30
0.0
 10
34.5555544532
 20
83.9716711345
 30
0.0
 10
34.424814375
 20
83.7907501264
 30
0.0
 10
34.3356891873
 20
83.5866041694
 30
0.0
 10
34.3101891656
 20
83.441653995
 30
0.0
 10
34.3101891656
 20
83.3729228389
 30
0.0
  0
SPLINE
  5
36C
100
AcDbEntity
  8
0
100
AcDbSpline
 62
7
  6
CONTINUOUS
 70
0
 71
3
 72
11
 73
7
 74
0
 42
0.0000001
 43
0.0000001
 44
0.0000000001
 40
0.0
 40
0.0
 40
0.0
 40
0.0
 40
0.2177460211
 40
0.4508843679
 40
0.7104607696
 40
1.0
 40
1.0
 40
1.0
 40
1.0
 10
20.8844707689
 20
32.8050053783
 30
0.0
 10
20.8465444397
 20
32.7831087415
 30
0.0
 10
20.7594313596
 20
32.7513831779
 30
0.0
 10
20.6146102377
 20
32.7477452769
 30
0.0
 10
20.4603444345
 20
32.7850846164
 30
0.0
 10
20.3599367691
 20
32.8327867346
 30
0.0
 10
20.3095055156
 20
32.8619025737
 30
0.0
  0
SPLINE
  5
36D
100
AcDbEntity
  8
0
100
AcDbSpline
 62
7
  6
CONTINUOUS
 70
0
 71
3
 72
11
 73
7
 74
0
 42
0.0000001
 43
0.0000001
 44
0.0000000001
 40
0.0
 40
0.0
 40
0.0
 40
0.0
 40
0.2177460211
 40
0.4508843679
 40
0.7104607696
 40
1.0
 40
1.0
 40
1.0
 40
1.0
 10
20.8844707689
 20
28.6571730993
 30
0.0
 10
20.8465444397
 20
28.6352764625
 30
0.0
 10
20.7594313596
 20
28.6035508989
 30
0.0
 10
20.6146102377
 20
28.5999129979
 30
0.0
 10
20.4603444345
 20
28.6372523374
 30
0.0
 10
20.3599367691
 20
28.6849544556
 30
0.0
 10
20.3095055156
 20
28.7140702947
 30
0.0
  0
SPLINE
  5
36E
100
AcDbEntity
  8
0
100
AcDbSpline
 62
7
  6
CONTINUOUS
 70
0
 71
3
 72
17
 73
13
 74
0
 42
0.0000001
 43
0.0000001
 44
0.0000000001
 40
0.0
 40
0.0
 40
0.0
 40
0.0
 40
0.1286849204
 40
0.2703038021
 40
0.4174438807
 40
0.5617821443
 40
0.6954492859
 40
0.8127130378
 40
0.8646795618
 40
0.9125091497
 40
0.9571393989
 40
1.0
 40
1.0
 40
1.0
 40
1.0
 10
55.0176614908
 20
25.7045499576
 30
0.0
 10
55.0176614908
 20
25.5947269208
 30
0.0
 10
54.9869143026
 20
25.3637835102
 30
0.0
 10
54.8722667856
 20
25.0246989786
 30
0.0
 10
54.6955174016
 20
24.6980813761
 30
0.0
 10
54.4710048311
 20
24.4106873483
 30
0.0
 10
54.2169867375
 20
24.1857149562
 30
0.0
 10
53.9870623502
 20
24.0600406573
 30
0.0
 10
53.8072226131
 20
24.012122445
 30
0.0
 10
53.6834406594
 20
24.0030784476
 30
0.0
 10
53.5681631127
 20
24.0198922472
 30
0.0
 10
53.4983590919
 20
24.0489828267
 30
0.0
 10
53.4666804336
 20
24.0672704703
 30
0.0
  0
SPLINE
  5
36F
100
AcDbEntity
  8
0
100
AcDbSpline
 62
7
  6
CONTINUOUS
 70
0
 71
3
 72
17
 73
13
 74
0
 42
0.0000001
 43
0.0000001
 44
0.0000000001
 40
0.0
 40
0.0
 40
0.0
 40
0.0
 40
0.1286849204
 40
0.270303802
 40
0.4174438806
 40
0.5617821443
 40
0.6954492858
 40
0.8127130378
 40
0.8646795618
 40
0.9125091497
 40
0.9571393989
 40
1.0
 40
1.0
 40
1.0
 40
1.0
 10
55.0176614909
 20
92.6577481635
 30
0.0
 10
55.0176614909
 20
92.5479251267
 30
0.0
 10
54.9869143029
 20
92.3169817161
 30
0.0
 10
54.872266786
 20
91.9778971842
 30
0.0
 10
54.6955174021
 20
91.6512795815
 30
0.0
 10
54.4710048316
 20
91.3638855535
 30
0.0
 10
54.2169867379
 20
91.1389131611
 30
0.0
 10
53.9870623505
 20
91.0132388621
 30
0.0
 10
53.8072226133
 20
90.9653206497
 30
0.0
 10
53.6834406595
 20
90.9562766523
 30
0.0
 10
53.5681631127
 20
90.9730904518
 30
0.0
 10
53.4983590919
 20
91.0021810313
 30
0.0
 10
53.4666804336
 20
91.0204686749
 30
0.0
  0
SPLINE
  5
370
100
AcDbEntity
  8
0
100
AcDbSpline
 62
7
  6
CONTINUOUS
 70
0
 71
3
 72
17
 73
13
 74
0
 42
0.0000001
 43
0.0000001
 44
0.0000000001
 40
0.0
 40
0.0
 40
0.0
 40
0.0
 40
0.1286849204
 40
0.270303802
 40
0.4174438806
 40
0.5617821443
 40
0.6954492858
 40
0.8127130378
 40
0.8646795618
 40
0.9125091497
 40
0.9571393989
 40
1.0
 40
1.0
 40
1.0
 40
1.0
 10
81.8629222183
 20
108.1567741542
 30
0.0
 10
81.8629222183
 20
108.0499349343
 30
0.0
 10
81.8330104103
 20
107.8252660982
 30
0.0
 10
81.7214777881
 20
107.4953942612
 30
0.0
 10
81.5495305641
 20
107.1776506355
 30
0.0
 10
81.3311178467
 20
106.8980649068
 30
0.0
 10
81.0840012509
 20
106.6792048605
 30
0.0
 10
80.860323752
 20
106.5569450463
 30
0.0
 10
80.6853701375
 20
106.510328739
 30
0.0
 10
80.5649512548
 20
106.5015304608
 30
0.0
 10
80.4528057201
 20
106.5178874409
 30
0.0
 10
80.3848982268
 20
106.5461876492
 30
0.0
 10
80.354080256
 20
106.5639784301
 30
0.0
  0
SPLINE
  5
371
100
AcDbEntity
  8
0
100
AcDbSpline
 62
7
  6
CONTINUOUS
 70
0
 71
3
 72
17
 73
13
 74
0
 42
0.0000001
 43
0.0000001
 44
0.0000000001
 40
0.0
 40
0.0
 40
0.0
 40
0.0
 40
0.1286849204
 40
0.270303802
 40
0.4174438806
 40
0.5617821443
 40
0.6954492858
 40
0.8127130378
 40
0.8646795618
 40
0.9125091497
 40
0.9571393989
 40
1.0
 40
1.0
 40
1.0
 40
1.0
 10
81.8629222183
 20
41.2035759496
 30
0.0
 10
81.8629222183
 20
41.0967367296
 30
0.0
 10
81.8330104103
 20
40.8720678936
 30
0.0
 10
81.7214777881
 20
40.5421960566
 30
0.0
 10
81.5495305641
 20
40.2244524309
 30
0.0
 10
81.3311178467
 20
39.9448667022
 30
0.0
 10
81.0840012509
 20
39.7260066559
 30
0.0
 10
80.860323752
 20
39.6037468417
 30
0.0
 10
80.6853701375
 20
39.5571305344
 30
0.0
 10
80.5649512548
 20
39.5483322562
 30
0.0
 10
80.4528057201
 20
39.5646892363
 30
0.0
 10
80.3848982268
 20
39.5929894446
 30
0.0
 10
80.354080256
 20
39.6107802254
 30
0.0
  0
SPLINE
  5
372
100
AcDbEntity
  8
0
100
AcDbSpline
 62
7
  6
CONTINUOUS
 70
0
 71
3
 72
15
 73
11
 74
0
 42
0.0000001
 43
0.0000001
 44
0.0000000001
 40
0.0
 40
0.0
 40
0.0
 40
0.0
 40
0.0998368969
 40
0.2135898845
 40
0.3396170134
 40
0.474260304
 40
0.6127318858
 40
0.7497497633
 40
0.8803041751
 40
1.0
 40
1.0
 40
1.0
 40
1.0
 10
13.4755537869
 20
36.2531088644
 30
0.0
 10
13.3619336414
 20
36.2708749857
 30
0.0
 10
13.1247156562
 20
36.3483809924
 30
0.0
 10
12.7882405413
 20
36.5523959725
 30
0.0
 10
12.4637263239
 20
36.8395303768
 30
0.0
 10
12.1687137513
 20
37.1942278911
 30
0.0
 10
11.9191390877
 20
37.5970769463
 30
0.0
 10
11.7286247731
 20
38.0259544315
 30
0.0
 10
11.6079263873
 20
38.4570349001
 30
0.0
 10
11.57670041
 20
38.7456028161
 30
0.0
 10
11.57670041
 20
38.8834787927
 30
0.0
  0
SPLINE
  5
373
100
AcDbEntity
  8
0
100
AcDbSpline
 62
7
  6
CONTINUOUS
 70
0
 71
3
 72
15
 73
11
 74
0
 42
0.0000001
 43
0.0000001
 44
0.0000000001
 40
0.0
 40
0.0
 40
0.0
 40
0.0
 40
0.0998368969
 40
0.2135898845
 40
0.3396170134
 40
0.474260304
 40
0.6127318858
 40
0.7497497633
 40
0.8803041751
 40
1.0
 40
1.0
 40
1.0
 40
1.0
 10
13.4755537869
 20
40.4009411434
 30
0.0
 10
13.3619336414
 20
40.4187072647
 30
0.0
 10
13.1247156562
 20
40.4962132715
 30
0.0
 10
12.7882405413
 20
40.7002282515
 30
0.0
 10
12.4637263239
 20
40.9873626558
 30
0.0
 10
12.1687137513
 20
41.3420601701
 30
0.0
 10
11.9191390877
 20
41.7449092253
 30
0.0
 10
11.7286247731
 20
42.1737867105
 30
0.0
 10
11.6079263873
 20
42.6048671791
 30
0.0
 10
11.57670041
 20
42.8934350951
 30
0.0
 10
11.57670041
 20
43.0313110717
 30
0.0
  0
SPLINE
  5
374
100
AcDbEntity
  8
0
100
AcDbSpline
 62
7
  6
CONTINUOUS
 70
0
 71
3
 72
15
 73
11
 74
0
 42
0.0000001
 43
0.0000001
 44
0.0000000001
 40
0.0
 40
0.0
 40
0.0
 40
0.0
 40
0.0998368969
 40
0.2135898845
 40
0.3396170134
 40
0.474260304
 40
0.6127318858
 40
0.7497497633
 40
0.8803041751
 40
1.0
 40
1.0
 40
1.0
 40
1.0
 10
13.4755537869
 20
48.6966057015
 30
0.0
 10
13.3619336414
 20
48.7143718228
 30
0.0
 10
13.1247156562
 20
48.7918778295
 30
0.0
 10
12.7882405413
 20
48.9958928096
 30
0.0
 10
12.4637263239
 20
49.2830272138
 30
0.0
 10
12.1687137513
 20
49.6377247282
 30
0.0
 10
11.9191390877
 20
50.0405737833
 30
0.0
 10
11.7286247731
 20
50.4694512686
 30
0.0
 10
11.6079263873
 20
50.9005317372
 30
0.0
 10
11.57670041
 20
51.1890996531
 30
0.0
 10
11.57670041
 20
51.3269756297
 30
0.0
  0
SPLINE
  5
375
100
AcDbEntity
  8
0
100
AcDbSpline
 62
7
  6
CONTINUOUS
 70
0
 71
3
 72
11
 73
7
 74
0
 42
0.0000001
 43
0.0000001
 44
0.0000000001
 40
0.0
 40
0.0
 40
0.0
 40
0.0
 40
0.2177460211
 40
0.4508843679
 40
0.7104607696
 40
1.0
 40
1.0
 40
1.0
 40
1.0
 10
20.8844707689
 20
49.3963344944
 30
0.0
 10
20.8465444397
 20
49.3744378576
 30
0.0
 10
20.7594313596
 20
49.342712294
 30
0.0
 10
20.6146102377
 20
49.339074393
 30
0.0
 10
20.4603444345
 20
49.3764137325
 30
0.0
 10
20.3599367691
 20
49.4241158507
 30
0.0
 10
20.3095055156
 20
49.4532316898
 30
0.0
  0
SPLINE
  5
376
100
AcDbEntity
  8
0
100
AcDbSpline
 62
7
  6
CONTINUOUS
 70
0
 71
3
 72
11
 73
7
 74
0
 42
0.0000001
 43
0.0000001
 44
0.0000000001
 40
0.0
 40
0.0
 40
0.0
 40
0.0
 40
0.2177460211
 40
0.4508843679
 40
0.7104607696
 40
1.0
 40
1.0
 40
1.0
 40
1.0
 10
20.8844707689
 20
45.2485022154
 30
0.0
 10
20.8465444397
 20
45.2266055786
 30
0.0
 10
20.7594313596
 20
45.194880015
 30
0.0
 10
20.6146102377
 20
45.191242114
 30
0.0
 10
20.4603444345
 20
45.2285814535
 30
0.0
 10
20.3599367691
 20
45.2762835717
 30
0.0
 10
20.3095055156
 20
45.3053994108
 30
0.0
  0
SPLINE
  5
377
100
AcDbEntity
  8
0
100
AcDbSpline
 62
7
  6
CONTINUOUS
 70
0
 71
3
 72
11
 73
7
 74
0
 42
0.0000001
 43
0.0000001
 44
0.0000000001
 40
0.0
 40
0.0
 40
0.0
 40
0.0
 40
0.2177460211
 40
0.4508843679
 40
0.7104607696
 40
1.0
 40
1.0
 40
1.0
 40
1.0
 10
20.8844707689
 20
36.9528376574
 30
0.0
 10
20.8465444397
 20
36.9309410205
 30
0.0
 10
20.7594313596
 20
36.8992154569
 30
0.0
 10
20.6146102377
 20
36.8955775559
 30
0.0
 10
20.4603444345
 20
36.9329168954
 30
0.0
 10
20.3599367691
 20
36.9806190137
 30
0.0
 10
20.3095055156
 20
37.0097348528
 30
0.0
  0
SPLINE
  5
378
100
AcDbEntity
  8
0
100
AcDbSpline
 62
7
  6
CONTINUOUS
 70
0
 71
3
 72
15
 73
11
 74
0
 42
0.0000001
 43
0.0000001
 44
0.0000000001
 40
0.0
 40
0.0
 40
0.0
 40
0.0
 40
0.0998368969
 40
0.2135898845
 40
0.3396170134
 40
0.474260304
 40
0.6127318858
 40
0.7497497633
 40
0.8803041751
 40
1.0
 40
1.0
 40
1.0
 40
1.0
 10
13.4755537869
 20
52.8444379805
 30
0.0
 10
13.3619336414
 20
52.8622041018
 30
0.0
 10
13.1247156562
 20
52.9397101085
 30
0.0
 10
12.7882405413
 20
53.1437250886
 30
0.0
 10
12.4637263239
 20
53.4308594928
 30
0.0
 10
12.1687137513
 20
53.7855570072
 30
0.0
 10
11.9191390877
 20
54.1884060624
 30
0.0
 10
11.7286247731
 20
54.6172835476
 30
0.0
 10
11.6079263873
 20
55.0483640162
 30
0.0
 10
11.57670041
 20
55.3369319322
 30
0.0
 10
11.57670041
 20
55.4748079087
 30
0.0
  0
SPLINE
  5
379
100
AcDbEntity
  8
0
100
AcDbSpline
 62
7
  6
CONTINUOUS
 70
0
 71
3
 72
11
 73
7
 74
0
 42
0.0000001
 43
0.0000001
 44
0.0000000001
 40
0.0
 40
0.0
 40
0.0
 40
0.0
 40
0.2177460211
 40
0.4508843679
 40
0.7104607696
 40
1.0
 40
1.0
 40
1.0
 40
1.0
 10
20.8844707689
 20
12.0658439833
 30
0.0
 10
20.8465444397
 20
12.0439473464
 30
0.0
 10
20.7594313596
 20
12.0122217828
 30
0.0
 10
20.6146102377
 20
12.0085838818
 30
0.0
 10
20.4603444345
 20
12.0459232213
 30
0.0
 10
20.3599367691
 20
12.0936253395
 30
0.0
 10
20.3095055156
 20
12.1227411787
 30
0.0
  0
SPLINE
  5
37A
100
AcDbEntity
  8
0
100
AcDbSpline
 62
7
  6
CONTINUOUS
 70
0
 71
3
 72
11
 73
7
 74
0
 42
0.0000001
 43
0.0000001
 44
0.0000000001
 40
0.0
 40
0.0
 40
0.0
 40
0.0
 40
0.2177460211
 40
0.4508843679
 40
0.7104607696
 40
1.0
 40
1.0
 40
1.0
 40
1.0
 10
20.8844707689
 20
53.5441667734
 30
0.0
 10
20.8465444397
 20
53.5222701366
 30
0.0
 10
20.7594313596
 20
53.490544573
 30
0.0
 10
20.6146102377
 20
53.486906672
 30
0.0
 10
20.4603444345
 20
53.5242460115
 30
0.0
 10
20.3599367691
 20
53.5719481297
 30
0.0
 10
20.3095055156
 20
53.6010639688
 30
0.0
  0
SPLINE
  5
37B
100
AcDbEntity
  8
0
100
AcDbSpline
 62
7
  6
CONTINUOUS
 70
0
 71
3
 72
15
 73
11
 74
0
 42
0.0000001
 43
0.0000001
 44
0.0000000001
 40
0.0
 40
0.0
 40
0.0
 40
0.0
 40
0.0998368969
 40
0.2135898845
 40
0.3396170134
 40
0.474260304
 40
0.6127318858
 40
0.7497497633
 40
0.8803041751
 40
1.0
 40
1.0
 40
1.0
 40
1.0
 10
13.4755537869
 20
56.9922702595
 30
0.0
 10
13.3619336414
 20
57.0100363808
 30
0.0
 10
13.1247156562
 20
57.0875423875
 30
0.0
 10
12.7882405413
 20
57.2915573676
 30
0.0
 10
12.4637263239
 20
57.5786917719
 30
0.0
 10
12.1687137513
 20
57.9333892862
 30
0.0
 10
11.9191390877
 20
58.3362383414
 30
0.0
 10
11.7286247731
 20
58.7651158266
 30
0.0
 10
11.6079263873
 20
59.1961962952
 30
0.0
 10
11.57670041
 20
59.4847642112
 30
0.0
 10
11.57670041
 20
59.6226401877
 30
0.0
  0
SPLINE
  5
37C
100
AcDbEntity
  8
0
100
AcDbSpline
 62
7
  6
CONTINUOUS
 70
0
 71
3
 72
15
 73
11
 74
0
 42
0.0000001
 43
0.0000001
 44
0.0000000001
 40
0.0
 40
0.0
 40
0.0
 40
0.0
 40
0.0998368969
 40
0.2135898845
 40
0.3396170134
 40
0.474260304
 40
0.6127318858
 40
0.7497497633
 40
0.8803041751
 40
1.0
 40
1.0
 40
1.0
 40
1.0
 10
13.4755537869
 20
44.5487734224
 30
0.0
 10
13.3619336414
 20
44.5665395438
 30
0.0
 10
13.1247156562
 20
44.6440455505
 30
0.0
 10
12.7882405413
 20
44.8480605305
 30
0.0
 10
12.4637263239
 20
45.1351949348
 30
0.0
 10
12.1687137513
 20
45.4898924491
 30
0.0
 10
11.9191390877
 20
45.8927415043
 30
0.0
 10
11.7286247731
 20
46.3216189896
 30
0.0
 10
11.6079263873
 20
46.7526994581
 30
0.0
 10
11.57670041
 20
47.0412673741
 30
0.0
 10
11.57670041
 20
47.1791433507
 30
0.0
  0
SPLINE
  5
37D
100
AcDbEntity
  8
0
100
AcDbSpline
 62
7
  6
CONTINUOUS
 70
0
 71
3
 72
11
 73
7
 74
0
 42
0.0000001
 43
0.0000001
 44
0.0000000001
 40
0.0
 40
0.0
 40
0.0
 40
0.0
 40
0.2177231993
 40
0.4508753011
 40
0.7104743705
 40
1.0
 40
1.0
 40
1.0
 40
1.0
 10
81.6040038529
 20
41.7757599184
 30
0.0
 10
81.645226885
 20
41.7519641852
 30
0.0
 10
81.7224202975
 20
41.6871838401
 30
0.0
 10
81.8045677101
 20
41.5528408364
 30
0.0
 10
81.8532548883
 20
41.3873177923
 30
0.0
 10
81.8629222183
 20
41.2668712634
 30
0.0
 10
81.8629222183
 20
41.2035759496
 30
0.0
  0
SPLINE
  5
37E
100
AcDbEntity
  8
0
100
AcDbSpline
 62
7
  6
CONTINUOUS
 70
0
 71
3
 72
11
 73
7
 74
0
 42
0.0000001
 43
0.0000001
 44
0.0000000001
 40
0.0
 40
0.0
 40
0.0
 40
0.0
 40
0.2177231993
 40
0.4508753011
 40
0.7104743705
 40
1.0
 40
1.0
 40
1.0
 40
1.0
 10
81.6040038529
 20
108.728958123
 30
0.0
 10
81.645226885
 20
108.7051623899
 30
0.0
 10
81.7224202975
 20
108.6403820447
 30
0.0
 10
81.8045677101
 20
108.506039041
 30
0.0
 10
81.8532548883
 20
108.3405159969
 30
0.0
 10
81.8629222183
 20
108.220069468
 30
0.0
 10
81.8629222183
 20
108.1567741542
 30
0.0
  0
SPLINE
  5
37F
100
AcDbEntity
  8
0
100
AcDbSpline
 62
7
  6
CONTINUOUS
 70
0
 71
3
 72
11
 73
7
 74
0
 42
0.0000001
 43
0.0000001
 44
0.0000000001
 40
0.0
 40
0.0
 40
0.0
 40
0.0
 40
0.2177460211
 40
0.4508843679
 40
0.7104607696
 40
1.0
 40
1.0
 40
1.0
 40
1.0
 10
20.8844707689
 20
24.5093408203
 30
0.0
 10
20.8465444397
 20
24.4874441835
 30
0.0
 10
20.7594313596
 20
24.4557186199
 30
0.0
 10
20.6146102377
 20
24.4520807189
 30
0.0
 10
20.4603444345
 20
24.4894200584
 30
0.0
 10
20.3599367691
 20
24.5371221766
 30
0.0
 10
20.3095055156
 20
24.5662380157
 30
0.0
  0
SPLINE
  5
380
100
AcDbEntity
  8
0
100
AcDbSpline
 62
7
  6
CONTINUOUS
 70
0
 71
3
 72
15
 73
11
 74
0
 42
0.0000001
 43
0.0000001
 44
0.0000000001
 40
0.0
 40
0.0
 40
0.0
 40
0.0
 40
0.0998368969
 40
0.2135898845
 40
0.3396170134
 40
0.474260304
 40
0.6127318858
 40
0.7497497633
 40
0.8803041751
 40
1.0
 40
1.0
 40
1.0
 40
1.0
 10
13.4755537869
 20
15.5139474693
 30
0.0
 10
13.3619336414
 20
15.5317135906
 30
0.0
 10
13.1247156562
 20
15.6092195974
 30
0.0
 10
12.7882405413
 20
15.8132345774
 30
0.0
 10
12.4637263239
 20
16.1003689817
 30
0.0
 10
12.1687137513
 20
16.455066496
 30
0.0
 10
11.9191390877
 20
16.8579155512
 30
0.0
 10
11.7286247731
 20
17.2867930364
 30
0.0
 10
11.6079263873
 20
17.717873505
 30
0.0
 10
11.57670041
 20
18.006441421
 30
0.0
 10
11.57670041
 20
18.1443173976
 30
0.0
  0
SPLINE
  5
381
100
AcDbEntity
  8
0
100
AcDbSpline
 62
7
  6
CONTINUOUS
 70
0
 71
3
 72
11
 73
7
 74
0
 42
0.0000001
 43
0.0000001
 44
0.0000000001
 40
0.0
 40
0.0
 40
0.0
 40
0.0
 40
0.2177460211
 40
0.4508843679
 40
0.7104607696
 40
1.0
 40
1.0
 40
1.0
 40
1.0
 10
20.8844707689
 20
20.3615085413
 30
0.0
 10
20.8465444397
 20
20.3396119044
 30
0.0
 10
20.7594313596
 20
20.3078863408
 30
0.0
 10
20.6146102377
 20
20.3042484398
 30
0.0
 10
20.4603444345
 20
20.3415877794
 30
0.0
 10
20.3599367691
 20
20.3892898976
 30
0.0
 10
20.3095055156
 20
20.4184057367
 30
0.0
  0
SPLINE
  5
382
100
AcDbEntity
  8
0
100
AcDbSpline
 62
7
  6
CONTINUOUS
 70
0
 71
3
 72
15
 73
11
 74
0
 42
0.0000001
 43
0.0000001
 44
0.0000000001
 40
0.0
 40
0.0
 40
0.0
 40
0.0
 40
0.0998368969
 40
0.2135898845
 40
0.3396170134
 40
0.474260304
 40
0.6127318858
 40
0.7497497633
 40
0.8803041751
 40
1.0
 40
1.0
 40
1.0
 40
1.0
 10
13.4755537869
 20
23.8096120273
 30
0.0
 10
13.3619336414
 20
23.8273781487
 30
0.0
 10
13.1247156562
 20
23.9048841554
 30
0.0
 10
12.7882405413
 20
24.1088991354
 30
0.0
 10
12.4637263239
 20
24.3960335397
 30
0.0
 10
12.1687137513
 20
24.7507310541
 30
0.0
 10
11.9191390877
 20
25.1535801092
 30
0.0
 10
11.7286247731
 20
25.5824575945
 30
0.0
 10
11.6079263873
 20
26.0135380631
 30
0.0
 10
11.57670041
 20
26.302105979
 30
0.0
 10
11.57670041
 20
26.4399819556
 30
0.0
  0
SPLINE
  5
383
100
AcDbEntity
  8
0
100
AcDbSpline
 62
7
  6
CONTINUOUS
 70
0
 71
3
 72
11
 73
7
 74
0
 42
0.0000001
 43
0.0000001
 44
0.0000000001
 40
0.0
 40
0.0
 40
0.0
 40
0.0
 40
0.2177231993
 40
0.4508753011
 40
0.7104743705
 40
1.0
 40
1.0
 40
1.0
 40
1.0
 10
54.7515120265
 20
93.2459121456
 30
0.0
 10
54.7938863398
 20
93.2214518428
 30
0.0
 10
54.8732356179
 20
93.1548623054
 30
0.0
 10
54.957677252
 20
93.0167673564
 30
0.0
 10
55.0077241708
 20
92.8466215675
 30
0.0
 10
55.0176614909
 20
92.7228111955
 30
0.0
 10
55.0176614909
 20
92.6577481635
 30
0.0
  0
SPLINE
  5
384
100
AcDbEntity
  8
0
100
AcDbSpline
 62
7
  6
CONTINUOUS
 70
0
 71
3
 72
15
 73
11
 74
0
 42
0.0000001
 43
0.0000001
 44
0.0000000001
 40
0.0
 40
0.0
 40
0.0
 40
0.0
 40
0.0998368969
 40
0.2135898845
 40
0.3396170134
 40
0.474260304
 40
0.6127318858
 40
0.7497497633
 40
0.8803041751
 40
1.0
 40
1.0
 40
1.0
 40
1.0
 10
13.4755537869
 20
32.1052765854
 30
0.0
 10
13.3619336414
 20
32.1230427067
 30
0.0
 10
13.1247156562
 20
32.2005487134
 30
0.0
 10
12.7882405413
 20
32.4045636935
 30
0.0
 10
12.4637263239
 20
32.6916980977
 30
0.0
 10
12.1687137513
 20
33.0463956121
 30
0.0
 10
11.9191390877
 20
33.4492446673
 30
0.0
 10
11.7286247731
 20
33.8781221525
 30
0.0
 10
11.6079263873
 20
34.3092026211
 30
0.0
 10
11.57670041
 20
34.5977705371
 30
0.0
 10
11.57670041
 20
34.7356465136
 30
0.0
  0
SPLINE
  5
385
100
AcDbEntity
  8
0
100
AcDbSpline
 62
7
  6
CONTINUOUS
 70
0
 71
3
 72
11
 73
7
 74
0
 42
0.0000001
 43
0.0000001
 44
0.0000000001
 40
0.0
 40
0.0
 40
0.0
 40
0.0
 40
0.2896413964
 40
0.5491107671
 40
0.7822355978
 40
1.0
 40
1.0
 40
1.0
 40
1.0
 10
11.57670041
 20
22.2921496766
 30
0.0
 10
11.57670041
 20
22.3934641084
 30
0.0
 10
11.5921002411
 20
22.5861881386
 30
0.0
 10
11.6701029904
 20
22.850984762
 30
0.0
 10
11.8014983312
 20
23.0659048782
 30
0.0
 10
11.9249902622
 20
23.1695780927
 30
0.0
 10
11.9909422772
 20
23.2076906146
 30
0.0
  0
SPLINE
  5
386
100
AcDbEntity
  8
0
100
AcDbSpline
 62
7
  6
CONTINUOUS
 70
0
 71
3
 72
11
 73
7
 74
0
 42
0.0000001
 43
0.0000001
 44
0.0000000001
 40
0.0
 40
0.0
 40
0.0
 40
0.0
 40
0.2177231375
 40
0.4508717886
 40
0.7104673698
 40
1.0
 40
1.0
 40
1.0
 40
1.0
 10
54.7515127814
 20
26.2927153496
 30
0.0
 10
54.7938863623
 20
26.2682536777
 30
0.0
 10
54.8732359091
 20
26.2016659824
 30
0.0
 10
54.9576758616
 20
26.0635713872
 30
0.0
 10
55.0077252964
 20
25.8934262678
 30
0.0
 10
55.0176614908
 20
25.7696146479
 30
0.0
 10
55.0176614908
 20
25.7045499576
 30
0.0
  0
SPLINE
  5
387
100
AcDbEntity
  8
0
100
AcDbSpline
 62
7
  6
CONTINUOUS
 70
0
 71
3
 72
11
 73
7
 74
0
 42
0.0000001
 43
0.0000001
 44
0.0000000001
 40
0.0
 40
0.0
 40
0.0
 40
0.0
 40
0.2896413964
 40
0.5491107671
 40
0.7822355978
 40
1.0
 40
1.0
 40
1.0
 40
1.0
 10
11.57670041
 20
30.5878142346
 30
0.0
 10
11.57670041
 20
30.6891286664
 30
0.0
 10
11.5921002411
 20
30.8818526966
 30
0.0
 10
11.6701029904
 20
31.1466493201
 30
0.0
 10
11.8014983312
 20
31.3615694362
 30
0.0
 10
11.9249902622
 20
31.4652426508
 30
0.0
 10
11.9909422772
 20
31.5033551727
 30
0.0
  0
SPLINE
  5
388
100
AcDbEntity
  8
0
100
AcDbSpline
 62
7
  6
CONTINUOUS
 70
0
 71
3
 72
11
 73
7
 74
0
 42
0.0000001
 43
0.0000001
 44
0.0000000001
 40
0.0
 40
0.0
 40
0.0
 40
0.0
 40
0.2896413964
 40
0.5491107671
 40
0.7822355978
 40
1.0
 40
1.0
 40
1.0
 40
1.0
 10
11.57670041
 20
34.7356465136
 30
0.0
 10
11.57670041
 20
34.8369609454
 30
0.0
 10
11.5921002411
 20
35.0296849757
 30
0.0
 10
11.6701029904
 20
35.2944815991
 30
0.0
 10
11.8014983312
 20
35.5094017152
 30
0.0
 10
11.9249902622
 20
35.6130749298
 30
0.0
 10
11.9909422772
 20
35.6511874517
 30
0.0
  0
SPLINE
  5
389
100
AcDbEntity
  8
0
100
AcDbSpline
 62
7
  6
CONTINUOUS
 70
0
 71
3
 72
15
 73
11
 74
0
 42
0.0000001
 43
0.0000001
 44
0.0000000001
 40
0.0
 40
0.0
 40
0.0
 40
0.0
 40
0.0998368969
 40
0.2135898845
 40
0.3396170134
 40
0.474260304
 40
0.6127318858
 40
0.7497497633
 40
0.8803041751
 40
1.0
 40
1.0
 40
1.0
 40
1.0
 10
13.4755537869
 20
27.9574443064
 30
0.0
 10
13.3619336414
 20
27.9752104277
 30
0.0
 10
13.1247156562
 20
28.0527164344
 30
0.0
 10
12.7882405413
 20
28.2567314145
 30
0.0
 10
12.4637263239
 20
28.5438658187
 30
0.0
 10
12.1687137513
 20
28.8985633331
 30
0.0
 10
11.9191390877
 20
29.3014123883
 30
0.0
 10
11.7286247731
 20
29.7302898735
 30
0.0
 10
11.6079263873
 20
30.1613703421
 30
0.0
 10
11.57670041
 20
30.4499382581
 30
0.0
 10
11.57670041
 20
30.5878142346
 30
0.0
  0
SPLINE
  5
38A
100
AcDbEntity
  8
0
100
AcDbSpline
 62
7
  6
CONTINUOUS
 70
0
 71
3
 72
11
 73
7
 74
0
 42
0.0000001
 43
0.0000001
 44
0.0000000001
 40
0.0
 40
0.0
 40
0.0
 40
0.0
 40
0.2896413964
 40
0.5491107671
 40
0.7822355978
 40
1.0
 40
1.0
 40
1.0
 40
1.0
 10
11.57670041
 20
26.4399819556
 30
0.0
 10
11.57670041
 20
26.5412963874
 30
0.0
 10
11.5921002411
 20
26.7340204176
 30
0.0
 10
11.6701029904
 20
26.998817041
 30
0.0
 10
11.8014983312
 20
27.2137371572
 30
0.0
 10
11.9249902622
 20
27.3174103717
 30
0.0
 10
11.9909422772
 20
27.3555228936
 30
0.0
  0
SPLINE
  5
38B
100
AcDbEntity
  8
0
100
AcDbSpline
 62
7
  6
CONTINUOUS
 70
0
 71
3
 72
15
 73
11
 74
0
 42
0.0000001
 43
0.0000001
 44
0.0000000001
 40
0.0
 40
0.0
 40
0.0
 40
0.0
 40
0.0998368969
 40
0.2135898845
 40
0.3396170134
 40
0.474260304
 40
0.6127318858
 40
0.7497497633
 40
0.8803041751
 40
1.0
 40
1.0
 40
1.0
 40
1.0
 10
13.4755537869
 20
19.6617797483
 30
0.0
 10
13.3619336414
 20
19.6795458696
 30
0.0
 10
13.1247156562
 20
19.7570518764
 30
0.0
 10
12.7882405413
 20
19.9610668564
 30
0.0
 10
12.4637263239
 20
20.2482012607
 30
0.0
 10
12.1687137513
 20
20.602898775
 30
0.0
 10
11.9191390877
 20
21.0057478302
 30
0.0
 10
11.7286247731
 20
21.4346253155
 30
0.0
 10
11.6079263873
 20
21.865705784
 30
0.0
 10
11.57670041
 20
22.1542737
 30
0.0
 10
11.57670041
 20
22.2921496766
 30
0.0
  0
SPLINE
  5
38C
100
AcDbEntity
  8
0
100
AcDbSpline
 62
7
  6
CONTINUOUS
 70
0
 71
3
 72
11
 73
7
 74
0
 42
0.0000001
 43
0.0000001
 44
0.0000000001
 40
0.0
 40
0.0
 40
0.0
 40
0.0
 40
0.2896413964
 40
0.5491107671
 40
0.7822355978
 40
1.0
 40
1.0
 40
1.0
 40
1.0
 10
11.57670041
 20
18.1443173976
 30
0.0
 10
11.57670041
 20
18.2456318294
 30
0.0
 10
11.5921002411
 20
18.4383558596
 30
0.0
 10
11.6701029904
 20
18.703152483
 30
0.0
 10
11.8014983312
 20
18.9180725991
 30
0.0
 10
11.9249902622
 20
19.0217458137
 30
0.0
 10
11.9909422772
 20
19.0598583356
 30
0.0
  0
SPLINE
  5
38D
100
AcDbEntity
  8
0
100
AcDbSpline
 62
7
  6
CONTINUOUS
 70
0
 71
3
 72
11
 73
7
 74
0
 42
0.0000001
 43
0.0000001
 44
0.0000000001
 40
0.0
 40
0.0
 40
0.0
 40
0.0
 40
0.2177460211
 40
0.4508843679
 40
0.7104607696
 40
1.0
 40
1.0
 40
1.0
 40
1.0
 10
20.8844707689
 20
16.2136762623
 30
0.0
 10
20.8465444397
 20
16.1917796254
 30
0.0
 10
20.7594313596
 20
16.1600540618
 30
0.0
 10
20.6146102377
 20
16.1564161608
 30
0.0
 10
20.4603444345
 20
16.1937555004
 30
0.0
 10
20.3599367691
 20
16.2414576186
 30
0.0
 10
20.3095055156
 20
16.2705734577
 30
0.0
  0
SPLINE
  5
38E
100
AcDbEntity
  8
0
100
AcDbSpline
 62
7
  6
CONTINUOUS
 70
0
 71
3
 72
11
 73
7
 74
0
 42
0.0000001
 43
0.0000001
 44
0.0000000001
 40
0.0
 40
0.0
 40
0.0
 40
0.0
 40
0.2896413964
 40
0.5491107671
 40
0.7822355978
 40
1.0
 40
1.0
 40
1.0
 40
1.0
 10
11.57670041
 20
47.1791433507
 30
0.0
 10
11.57670041
 20
47.2804577825
 30
0.0
 10
11.5921002411
 20
47.4731818127
 30
0.0
 10
11.6701029904
 20
47.7379784361
 30
0.0
 10
11.8014983312
 20
47.9528985523
 30
0.0
 10
11.9249902622
 20
48.0565717668
 30
0.0
 10
11.9909422772
 20
48.0946842887
 30
0.0
  0
SPLINE
  5
38F
100
AcDbEntity
  8
0
100
AcDbSpline
 62
7
  6
CONTINUOUS
 70
0
 71
3
 72
11
 73
7
 74
0
 42
0.0000001
 43
0.0000001
 44
0.0000000001
 40
0.0
 40
0.0
 40
0.0
 40
0.0
 40
0.2896413964
 40
0.5491107671
 40
0.7822355978
 40
1.0
 40
1.0
 40
1.0
 40
1.0
 10
11.57670041
 20
59.6226401877
 30
0.0
 10
11.57670041
 20
59.7239546195
 30
0.0
 10
11.5921002411
 20
59.9166786498
 30
0.0
 10
11.6701029904
 20
60.1814752732
 30
0.0
 10
11.8014983312
 20
60.3963953893
 30
0.0
 10
11.9249902622
 20
60.5000686039
 30
0.0
 10
11.9909422772
 20
60.5381811258
 30
0.0
  0
SPLINE
  5
390
100
AcDbEntity
  8
0
100
AcDbSpline
 62
7
  6
CONTINUOUS
 70
0
 71
3
 72
11
 73
7
 74
0
 42
0.0000001
 43
0.0000001
 44
0.0000000001
 40
0.0
 40
0.0
 40
0.0
 40
0.0
 40
0.2896413964
 40
0.5491107671
 40
0.7822355978
 40
1.0
 40
1.0
 40
1.0
 40
1.0
 10
11.57670041
 20
55.4748079087
 30
0.0
 10
11.57670041
 20
55.5761223405
 30
0.0
 10
11.5921002411
 20
55.7688463708
 30
0.0
 10
11.6701029904
 20
56.0336429942
 30
0.0
 10
11.8014983312
 20
56.2485631103
 30
0.0
 10
11.9249902622
 20
56.3522363249
 30
0.0
 10
11.9909422772
 20
56.3903488468
 30
0.0
  0
SPLINE
  5
391
100
AcDbEntity
  8
0
100
AcDbSpline
 62
7
  6
CONTINUOUS
 70
0
 71
3
 72
11
 73
7
 74
0
 42
0.0000001
 43
0.0000001
 44
0.0000000001
 40
0.0
 40
0.0
 40
0.0
 40
0.0
 40
0.2896413964
 40
0.5491107671
 40
0.7822355978
 40
1.0
 40
1.0
 40
1.0
 40
1.0
 10
11.57670041
 20
51.3269756297
 30
0.0
 10
11.57670041
 20
51.4282900615
 30
0.0
 10
11.5921002411
 20
51.6210140917
 30
0.0
 10
11.6701029904
 20
51.8858107152
 30
0.0
 10
11.8014983312
 20
52.1007308313
 30
0.0
 10
11.9249902622
 20
52.2044040458
 30
0.0
 10
11.9909422772
 20
52.2425165677
 30
0.0
  0
SPLINE
  5
392
100
AcDbEntity
  8
0
100
AcDbSpline
 62
7
  6
CONTINUOUS
 70
0
 71
3
 72
11
 73
7
 74
0
 42
0.0000001
 43
0.0000001
 44
0.0000000001
 40
0.0
 40
0.0
 40
0.0
 40
0.0
 40
0.2896413964
 40
0.5491107671
 40
0.7822355978
 40
1.0
 40
1.0
 40
1.0
 40
1.0
 10
11.57670041
 20
43.0313110717
 30
0.0
 10
11.57670041
 20
43.1326255035
 30
0.0
 10
11.5921002411
 20
43.3253495337
 30
0.0
 10
11.6701029904
 20
43.5901461571
 30
0.0
 10
11.8014983312
 20
43.8050662733
 30
0.0
 10
11.9249902622
 20
43.9087394878
 30
0.0
 10
11.9909422772
 20
43.9468520097
 30
0.0
  0
SPLINE
  5
393
100
AcDbEntity
  8
0
100
AcDbSpline
 62
7
  6
CONTINUOUS
 70
0
 71
3
 72
11
 73
7
 74
0
 42
0.0000001
 43
0.0000001
 44
0.0000000001
 40
0.0
 40
0.0
 40
0.0
 40
0.0
 40
0.2896413964
 40
0.5491107671
 40
0.7822355978
 40
1.0
 40
1.0
 40
1.0
 40
1.0
 10
11.57670041
 20
38.8834787927
 30
0.0
 10
11.57670041
 20
38.9847932244
 30
0.0
 10
11.5921002411
 20
39.1775172547
 30
0.0
 10
11.6701029904
 20
39.4423138781
 30
0.0
 10
11.8014983312
 20
39.6572339942
 30
0.0
 10
11.9249902622
 20
39.7609072088
 30
0.0
 10
11.9909422772
 20
39.7990197307
 30
0.0
  0
SPLINE
  5
394
100
AcDbEntity
  8
0
100
AcDbSpline
 62
7
  6
CONTINUOUS
 70
0
 71
3
 72
11
 73
7
 74
0
 42
0.0000001
 43
0.0000001
 44
0.0000000001
 40
0.0
 40
0.0
 40
0.0
 40
0.0
 40
0.2177460211
 40
0.4508843679
 40
0.7104607696
 40
1.0
 40
1.0
 40
1.0
 40
1.0
 10
20.8844707689
 20
41.1006699364
 30
0.0
 10
20.8465444397
 20
41.0787732995
 30
0.0
 10
20.7594313596
 20
41.0470477359
 30
0.0
 10
20.6146102377
 20
41.0434098349
 30
0.0
 10
20.4603444345
 20
41.0807491745
 30
0.0
 10
20.3599367691
 20
41.1284512927
 30
0.0
 10
20.3095055156
 20
41.1575671318
 30
0.0
  0
ELLIPSE
  5
395
100
AcDbEntity
  8
0
100
AcDbEllipse
 62
7
  6
CONTINUOUS
 10
18.1528718983
 20
72.9658828975
 30
0.0
 11
-1.4999932728
 21
2.5980800953
 31
0.0
 40
0.5775326816
 41
0.7855591038
 42
2.3560508411
  0
ELLIPSE
  5
396
100
AcDbEntity
  8
0
100
AcDbEllipse
 62
7
  6
CONTINUOUS
 10
31.4460716409
 20
82.3555432931
 30
0.0
 11
-1.4999932728
 21
2.5980800953
 31
0.0
 40
0.5775326816
 41
-2.3560174357
 42
-0.7855580658
  0
ELLIPSE
  5
397
100
AcDbEntity
  8
0
100
AcDbEllipse
 62
7
  6
CONTINUOUS
 10
31.4460716409
 20
67.9858470089
 30
0.0
 11
-1.5004502438
 21
2.5988715422
 31
0.0
 40
0.5771809715
 41
-3.1415926562
 42
-2.356354401
  0
ELLIPSE
  5
398
100
AcDbEntity
  8
0
100
AcDbEllipse
 62
7
  6
CONTINUOUS
 10
20.4865171769
 20
88.6829018691
 30
0.0
 11
-1.5004502438
 21
2.5988715422
 31
0.0
 40
0.5771809715
 41
-0.7852193506
 42
-0.0000000026
  0
ELLIPSE
  5
399
100
AcDbEntity
  8
0
100
AcDbEllipse
 62
7
  6
CONTINUOUS
 10
29.1124263623
 20
66.6385243215
 30
0.0
 11
-1.5004502438
 21
2.5988715422
 31
0.0
 40
0.5771809715
 41
2.3563554196
 42
3.9268471607
  0
ELLIPSE
  5
39A
100
AcDbEntity
  8
0
100
AcDbEllipse
 62
7
  6
CONTINUOUS
 10
18.1528718983
 20
87.3355791817
 30
0.0
 11
-1.5004502438
 21
2.5988715422
 31
0.0
 40
0.5771809715
 41
-0.7852372349
 42
0.7852545033
  0
ELLIPSE
  5
39B
100
AcDbEntity
  8
0
100
AcDbEllipse
 62
7
  6
CONTINUOUS
 10
29.1124263623
 20
81.0082206057
 30
0.0
 11
-1.4999932728
 21
2.5980800953
 31
0.0
 40
0.5775326816
 41
-2.3560335533
 42
-0.7855418114
  0
ENDSEC
  0
SECTION
  2
OBJECTS
  0
DICTIONARY
  5
C
100
AcDbDictionary
280
0
281
1
  3
ACAD_GROUP
350
D
  3
ACAD_MLINESTYLE
350
17
  3
ACAD_LAYOUT
350
1A
  3
ACAD_PLOTSETTINGS
350
19
  3
ACAD_PLOTSTYLENAME
350
E
  0
DICTIONARY
  5
D
102
{ACAD_REACTORS
330
C
102
}
100
AcDbDictionary
280
0
281
1
  0
ACDBDICTIONARYWDFLT
  5
E
102
{ACAD_REACTORS
330
C
102
}
100
AcDbDictionary
281
1
  3
Normal
350
F
100
AcDbDictionaryWithDefault
340
F
  0
DICTIONARY
  5
17
102
{ACAD_REACTORS
330
C
102
}
100
AcDbDictionary
280
0
281
1
  3
Standard
350
18
  0
DICTIONARY
  5
19
102
{ACAD_REACTORS
330
C
102
}
100
AcDbDictionary
281
1
  0
DICTIONARY
  5
1A
102
{ACAD_REACTORS
330
C
102
}
100
AcDbDictionary
281
1
  3
Model
350
39C
  3
Layout1
350
39D
  0
ACDBPLACEHOLDER
  5
F
102
{ACAD_REACTORS
330
E
102
}
  0
MLINESTYLE
  5
18
102
{ACAD_REACTORS
330
17
102
}
100
AcDbMlineStyle
  2
STANDARD
 70
0
  3

 62
256
 51
90.0
 52
90.0
 71
2
 49
0.5
 62
256
  6
BYLAYER
 49
-0.5
 62
256
  6
BYLAYER
  0
LAYOUT
  5
39C
102
{ACAD_REACTORS
330
1A
102
}
100
AcDbPlotSettings
  1

  2
none_device
  4

  6

 40
0.0
 41
0.0
 42
0.0
 43
0.0
 44
210.0
 45
297.0
 46
0.0
 47
0.0
 48
0.0
 49
0.0
140
0.0
141
0.0
142
1.0
143
1.0
 70
1024
 72
1
 73
0
 74
0
  7

 75
0
147
1.0
148
0.0
149
0.0
100
AcDbLayout
  1
Model
 70
0
 71
0
 10
0.0
 20
0.0
 11
210.0
 21
297.0
 12
0.0
 22
0.0
 32
0.0
 14
0.0
 24
0.0
 34
0.0
 15
0.0
 25
0.0
 35
0.0
146
0.0
 13
0.0
 23
0.0
 33
0.0
 16
1.0
 26
0.0
 36
0.0
 17
0.0
 27
1.0
 37
0.0
 76
0
330
210
345
0
346
0
  0
LAYOUT
  5
39D
102
{ACAD_REACTORS
330
1A
102
}
100
AcDbPlotSettings
  1

  2
none_device
  4

  6

 40
0.0
 41
0.0
 42
0.0
 43
0.0
 44
210.0
 45
297.0
 46
0.0
 47
0.0
 48
0.0
 49
0.0
140
0.0
141
0.0
142
1.0
143
1.0
 70
0
 72
1
 73
0
 74
0
  7

 75
0
147
1.0
148
0.0
149
0.0
100
AcDbLayout
  1
Layout1
 70
0
 71
1
 10
0.0
 20
0.0
 11
210.0
 21
297.0
 12
0.0
 22
0.0
 32
0.0
 14
0.0
 24
0.0
 34
0.0
 15
0.0
 25
0.0
 35
0.0
146
0.0
 13
0.0
 23
0.0
 33
0.0
 16
1.0
 26
0.0
 36
0.0
 17
0.0
 27
1.0
 37
0.0
 76
0
330
211
345
0
346
0
  0
ENDSEC
  0
EOF
