999
DXF file: C:\Users\sesa63760\Dev\_Creo\CAD\MCADPD0003959_3D-CAD\drw0001_1.dxf
999
Pro/ENGINEER 2019471 by Parametric Technology Corporation
  0
SECTION
  2
HEADER
  9
$ACADVER
  1
AC1024
  9
$DWGCODEPAGE
  3
ANSI_1252
  9
$EXTMAX
 10
77.2206243659
 20
109.212025889
 30
0.0
  9
$EXTMIN
 10
0.0
 20
0.0
 30
0.0
  9
$LIMMIN
 10
0.0
 20
0.0
  9
$LIMMAX
 10
77.2206243659
 20
109.212025889
  9
$VIEWCTR
 10
38.610312183
 20
54.6060129445
  9
$VIEWSIZE
 40
109.212025889
  9
$CLAYER
  8
0
  9
$LTSCALE
 40
7.119006132
  9
$CELTYPE
  6
BYLAYER
  9
$DIMSCALE
 40
1.0
  9
$DIMASZ
 40
0.9192931472
  9
$DIMEXO
 40
1.0
  9
$DIMDLI
 40
4.9185860549
  9
$DIMEXE
 40
1.0
  9
$DIMCEN
 40
1.1649282761
  9
$DIMLFAC
 40
1.0
  9
$DIMBLK
  1
_FILLED
  9
$DIMALT
 70
0
  9
$DIMALTF
 40
0.0393700787
  9
$DIMTXT
 40
1.2870104061
  9
$DIMTOL
 70
1
  9
$DIMLIM
 70
0
  9
$DIMTFAC
 40
1.0
  9
$DIMTP
 40
0.01
  9
$DIMTM
 40
0.01
  9
$DIMGAP
 40
0.625
  9
$DIMDSEP
 70
46
  9
$AUNITS
 70
0
  9
$PDMODE
 70
3
  9
$PDSIZE
 40
0.3125
  9
$HANDSEED
  5
2F0
  9
$TILEMODE
 70
1
  9
$MEASUREMENT
 70
1
  9
$INSUNITS
 70
4
  0
ENDSEC
  0
SECTION
  2
CLASSES
  0
CLASS
  1
ACDBDICTIONARYWDFLT
  2
AcDbDictionaryWithDefault
  3
AutoCAD 2000
 90
0
 91
1
280
0
281
0
  0
CLASS
  1
ACDBPLACEHOLDER
  2
AcDbPlaceHolder
  3
AutoCAD 2000
 90
0
 91
1
280
0
281
0
  0
CLASS
  1
LAYOUT
  2
AcDbLayout
  3
AutoCAD 2000
 90
0
 91
0
280
0
281
0
  0
ENDSEC
  0
SECTION
  2
TABLES
  0
TABLE
  2
VPORT
  5
8
100
AcDbSymbolTable
 70
2
  0
VPORT
  5
1F4
100
AcDbSymbolTableRecord
100
AcDbViewportTableRecord
  2
*ACTIVE
 70
0
 10
0.0
 20
0.0
 11
1.0
 21
1.0
 12
38.610312183
 22
54.6060129445
 13
0.0
 23
0.0
 14
1.0
 24
1.0
 15
0.0
 25
0.0
 16
0.0
 26
0.0
 36
1.0
 17
0.0
 27
0.0
 37
0.0
 40
109.212025889
 41
0.7070707071
 42
50.0
 43
0.0
 44
0.0
 50
0.0
 51
0.0
 71
0
 72
100
 73
1
 74
1
 75
0
 76
0
 77
0
 78
0
  0
ENDTAB
  0
TABLE
  2
LTYPE
  5
5
100
AcDbSymbolTable
 70
6
  0
LTYPE
  5
14
100
AcDbSymbolTableRecord
100
AcDbLinetypeTableRecord
  2
BYBLOCK
 70
0
  3

 72
65
 73
0
 40
0.0
  0
LTYPE
  5
15
100
AcDbSymbolTableRecord
100
AcDbLinetypeTableRecord
  2
BYLAYER
 70
0
  3

 72
65
 73
0
 40
0.0
  0
LTYPE
  5
16
100
AcDbSymbolTableRecord
100
AcDbLinetypeTableRecord
  2
CONTINUOUS
 70
64
  3
Solid line
 72
65
 73
0
 40
0.0
  0
LTYPE
  5
1F5
100
AcDbSymbolTableRecord
100
AcDbLinetypeTableRecord
  2
CENTER
 70
64
  3
____ _ ____ _ ____ _ ____ _ ____ _ ____ _ ____
 72
65
 73
4
 40
0.6
 49
0.375
 74
0
 49
-0.075
 74
0
 49
0.075
 74
0
 49
-0.075
 74
0
  0
LTYPE
  5
1F6
100
AcDbSymbolTableRecord
100
AcDbLinetypeTableRecord
  2
HIDDEN
 70
64
  3
- - - - - - - - - - - - - - - - - - - -
 72
65
 73
2
 40
0.2
 49
0.1
 74
0
 49
-0.1
 74
0
  0
LTYPE
  5
1F7
100
AcDbSymbolTableRecord
100
AcDbLinetypeTableRecord
  2
PHANTOM
 70
64
  3
_____ _ _ _____ _ _ _____ _ _ _____
 72
65
 73
6
 40
0.8
 49
0.45
 74
0
 49
-0.05
 74
0
 49
0.1
 74
0
 49
-0.05
 74
0
 49
0.1
 74
0
 49
-0.05
 74
0
  0
LTYPE
  5
1F8
100
AcDbSymbolTableRecord
100
AcDbLinetypeTableRecord
  2
DOT
 70
64
  3
. . . . . . . . . . . . . . . . . . . .
 72
65
 73
2
 40
0.2
 49
0.1
 74
0
 49
-0.1
 74
0
  0
LTYPE
  5
1F9
100
AcDbSymbolTableRecord
100
AcDbLinetypeTableRecord
  2
DASHED
 70
64
  3
- - - - - - - - - - - - - - - - - - - -
 72
65
 73
2
 40
0.2
 49
0.1
 74
0
 49
-0.1
 74
0
  0
ENDTAB
  0
TABLE
  2
LAYER
  5
2
100
AcDbSymbolTable
 70
36
  0
LAYER
  5
10
100
AcDbSymbolTableRecord
100
AcDbLayerTableRecord
  2
0
 70
0
 62
7
  6
CONTINUOUS
370
-3
390
F
  0
LAYER
  5
1FA
100
AcDbSymbolTableRecord
100
AcDbLayerTableRecord
  2
DEFAULT_1
 70
0
 62
7
  6
CENTER
370
-3
390
F
  0
LAYER
  5
1FB
100
AcDbSymbolTableRecord
100
AcDbLayerTableRecord
  2
DEFAULT_2
 70
0
 62
7
  6
HIDDEN
370
-3
390
F
  0
LAYER
  5
1FC
100
AcDbSymbolTableRecord
100
AcDbLayerTableRecord
  2
DEFAULT_3
 70
0
 62
7
  6
PHANTOM
370
-3
390
F
  0
LAYER
  5
1FD
100
AcDbSymbolTableRecord
100
AcDbLayerTableRecord
  2
00_COMPONENTS
 70
0
 62
7
  6
CONTINUOUS
370
-3
390
F
  0
LAYER
  5
1FE
100
AcDbSymbolTableRecord
100
AcDbLayerTableRecord
  2
01_1_DEFAULT_DATUMS
 70
0
 62
7
  6
CONTINUOUS
370
-3
390
F
  0
LAYER
  5
1FF
100
AcDbSymbolTableRecord
100
AcDbLayerTableRecord
  2
01_PLANES
 70
0
 62
7
  6
CONTINUOUS
370
-3
390
F
  0
LAYER
  5
200
100
AcDbSymbolTableRecord
100
AcDbLayerTableRecord
  2
02_COORD_SYS
 70
0
 62
7
  6
CONTINUOUS
370
-3
390
F
  0
LAYER
  5
201
100
AcDbSymbolTableRecord
100
AcDbLayerTableRecord
  2
03_AXES
 70
0
 62
7
  6
CONTINUOUS
370
-3
390
F
  0
LAYER
  5
202
100
AcDbSymbolTableRecord
100
AcDbLayerTableRecord
  2
04_POINTS
 70
0
 62
7
  6
CONTINUOUS
370
-3
390
F
  0
LAYER
  5
203
100
AcDbSymbolTableRecord
100
AcDbLayerTableRecord
  2
05_CURVES
 70
0
 62
7
  6
CONTINUOUS
370
-3
390
F
  0
LAYER
  5
204
100
AcDbSymbolTableRecord
100
AcDbLayerTableRecord
  2
06_SURFS
 70
0
 62
7
  6
CONTINUOUS
370
-3
390
F
  0
LAYER
  5
205
100
AcDbSymbolTableRecord
100
AcDbLayerTableRecord
  2
07_COSMETICS
 70
0
 62
7
  6
CONTINUOUS
370
-3
390
F
  0
LAYER
  5
206
100
AcDbSymbolTableRecord
100
AcDbLayerTableRecord
  2
10_NOTES
 70
0
 62
7
  6
CONTINUOUS
370
-3
390
F
  0
LAYER
  5
207
100
AcDbSymbolTableRecord
100
AcDbLayerTableRecord
  2
11_NOTES_PUB
 70
0
 62
7
  6
CONTINUOUS
370
-3
390
F
  0
LAYER
  5
208
100
AcDbSymbolTableRecord
100
AcDbLayerTableRecord
  2
13_REF_GTOL
 70
0
 62
7
  6
CONTINUOUS
370
-3
390
F
  0
LAYER
  5
209
100
AcDbSymbolTableRecord
100
AcDbLayerTableRecord
  2
16_MISC
 70
0
 62
7
  6
CONTINUOUS
370
-3
390
F
  0
LAYER
  5
20A
100
AcDbSymbolTableRecord
100
AcDbLayerTableRecord
  2
17_NO_PRINT
 70
0
 62
7
  6
CONTINUOUS
370
-3
390
F
  0
LAYER
  5
20B
100
AcDbSymbolTableRecord
100
AcDbLayerTableRecord
  2
18_DATUM_CAMS_JOINTS
 70
0
 62
7
  6
CONTINUOUS
370
-3
390
F
  0
LAYER
  5
20C
100
AcDbSymbolTableRecord
100
AcDbLayerTableRecord
  2
19_DATUM_FUNCTIONAL
 70
0
 62
7
  6
CONTINUOUS
370
-3
390
F
  0
LAYER
  5
20D
100
AcDbSymbolTableRecord
100
AcDbLayerTableRecord
  2
20_DATUM_KINEMATIC_SCHEME
 70
0
 62
7
  6
CONTINUOUS
370
-3
390
F
  0
ENDTAB
  0
TABLE
  2
STYLE
  5
3
100
AcDbSymbolTable
 70
1
  0
STYLE
  5
11
100
AcDbSymbolTableRecord
100
AcDbTextStyleTableRecord
  2
STANDARD
 70
0
 40
0.0
 41
1.0
 50
0.0
 71
0
 42
0.2
  3
ARIAL.TTF
  4

  0
STYLE
  5
20E
100
AcDbSymbolTableRecord
100
AcDbTextStyleTableRecord
  2
TEXTSTYLE_1
 70
0
 40
0.0
 41
0.8
 50
0.0
 71
0
 42
0.2
  3
gdt
  4

  0
ENDTAB
  0
TABLE
  2
VIEW
  5
6
100
AcDbSymbolTable
 70
0
  0
ENDTAB
  0
TABLE
  2
UCS
  5
7
100
AcDbSymbolTable
 70
0
  0
ENDTAB
  0
TABLE
  2
APPID
  5
9
100
AcDbSymbolTable
 70
1
  0
APPID
  5
20F
100
AcDbSymbolTableRecord
100
AcDbRegAppTableRecord
  2
ACAD
 70
0
  0
ENDTAB
  0
TABLE
  2
BLOCK_RECORD
  5
1
100
AcDbSymbolTable
 70
0
  0
BLOCK_RECORD
  5
210
100
AcDbSymbolTableRecord
100
AcDbBlockTableRecord
  2
*Model_Space
  0
BLOCK_RECORD
  5
211
100
AcDbSymbolTableRecord
100
AcDbBlockTableRecord
  2
*Paper_Space
  0
BLOCK_RECORD
  5
212
100
AcDbSymbolTableRecord
100
AcDbBlockTableRecord
  2
_FILLED
  0
ENDTAB
  0
TABLE
  2
DIMSTYLE
  5
A
100
AcDbSymbolTable
 70
1
100
AcDbDimStyleTable
 71
0
  0
DIMSTYLE
105
213
100
AcDbSymbolTableRecord
100
AcDbDimStyleTableRecord
  2
STANDARD
 70
0
  3

  4

 40
1.0
 41
0.9192931472
 42
1.0
 43
0.38
 44
1.0
 45
0.0
 46
0.0
 47
0.01
 48
0.01
140
1.2870104061
141
0.09
142
0.0
143
25.4
144
1.0
145
0.0
146
1.0
147
0.625
 71
1
 72
0
 73
0
 74
0
 75
0
 76
0
 77
1
 78
8
 79
2
170
0
171
1
172
0
173
0
174
0
175
0
176
0
177
0
178
0
270
2
179
2
271
2
272
2
273
2
274
2
275
0
280
0
281
0
282
0
283
1
284
8
285
0
286
0
287
3
288
0
340
11
278
46
341
212
342
212
343
212
344
212
  0
ENDTAB
  0
ENDSEC
  0
SECTION
  2
BLOCKS
  0
BLOCK
  5
20
100
AcDbEntity
  8
0
100
AcDbBlockBegin
  2
*Model_Space
 70
0
 10
0.0
 20
0.0
 30
0.0
  3
*Model_Space
  1

  0
ENDBLK
  5
21
100
AcDbEntity
  8
0
100
AcDbBlockEnd
  0
BLOCK
  5
1C
100
AcDbEntity
  8
0
100
AcDbBlockBegin
  2
*Paper_Space
 70
0
 10
0.0
 20
0.0
 30
0.0
  3
*Paper_Space
  1

  0
ENDBLK
  5
1D
100
AcDbEntity
  8
0
100
AcDbBlockEnd
  0
BLOCK
  5
214
100
AcDbEntity
  8
0
100
AcDbBlockBegin
  2
_FILLED
 70
64
 10
0.0
 20
0.0
  3
_FILLED
  1

  0
SOLID
  5
215
100
AcDbEntity
  8
0
  6
BYBLOCK
 62
0
100
AcDbTrace
 10
0.0
 20
0.0
 11
-1.0
 21
0.25
 12
-1.0
 22
-0.25
 13
-1.0
 23
-0.25
  0
ENDBLK
  5
216
100
AcDbEntity
  8
0
  6
BYBLOCK
 62
0
100
AcDbBlockEnd
  0
ENDSEC
  0
SECTION
  2
ENTITIES
  0
LINE
  5
217
100
AcDbEntity
  8
0
100
AcDbLine
 62
7
  6
BYLAYER
 10
9.665584708
 20
71.6294278628
 11
8.9584808708
 21
70.4046812918
  0
LINE
  5
218
100
AcDbEntity
  8
0
100
AcDbLine
 62
7
  6
BYLAYER
 10
8.9584808708
 20
41.726013693
 11
8.9584808708
 21
70.4046812918
  0
LINE
  5
219
100
AcDbEntity
  8
0
100
AcDbLine
 62
7
  6
BYLAYER
 10
9.665584708
 20
71.6294278628
 11
34.770007356
 21
86.1233865192
  0
LINE
  5
21A
100
AcDbEntity
  8
0
100
AcDbLine
 62
7
  6
BYLAYER
 10
23.4995334534
 20
79.0040479882
 11
28.8028122325
 21
82.0658791422
  0
LINE
  5
21B
100
AcDbEntity
  8
0
100
AcDbLine
 62
7
  6
BYLAYER
 10
41.4855223397
 20
23.3551726849
 11
40.7784185024
 21
23.3551797396
  0
LINE
  5
21C
100
AcDbEntity
  8
0
100
AcDbLine
 62
7
  6
BYLAYER
 10
12.1004522236
 20
49.8568728646
 11
12.1004522236
 21
46.4695309369
  0
LINE
  5
21D
100
AcDbEntity
  8
0
100
AcDbLine
 62
7
  6
BYLAYER
 10
12.2277319741
 20
46.5430180361
 11
12.2277319741
 21
49.6364190937
  0
LINE
  5
21E
100
AcDbEntity
  8
0
100
AcDbLine
 62
7
  6
BYLAYER
 10
31.8080079566
 20
83.1885531149
 11
34.4596473462
 21
84.7194686919
  0
LINE
  5
21F
100
AcDbEntity
  8
0
100
AcDbLine
 62
7
  6
BYLAYER
 10
24.5601936252
 20
78.3916737249
 11
28.8028166485
 21
80.8411386481
  0
LINE
  5
220
100
AcDbEntity
  8
0
100
AcDbLine
 62
7
  6
BYLAYER
 10
8.9584808708
 20
41.726013693
 11
40.7784185024
 21
23.3551797396
  0
LINE
  5
221
100
AcDbEntity
  8
0
100
AcDbLine
 62
7
  6
BYLAYER
 10
15.7970097337
 20
52.4077218914
 11
15.7970097337
 21
47.7227126722
  0
LINE
  5
222
100
AcDbEntity
  8
0
100
AcDbLine
 62
7
  6
BYLAYER
 10
15.7970097337
 20
44.3353707444
 11
15.7970097337
 21
41.5721632644
  0
LINE
  5
223
100
AcDbEntity
  8
0
100
AcDbLine
 62
7
  6
BYLAYER
 10
15.9242894842
 20
41.6456503637
 11
15.9242894842
 21
44.4088578437
  0
LINE
  5
224
100
AcDbEntity
  8
0
100
AcDbLine
 62
7
  6
BYLAYER
 10
15.9242894842
 20
47.5022589013
 11
15.9242894842
 21
52.1872681205
  0
LINE
  5
225
100
AcDbEntity
  8
0
100
AcDbLine
 62
7
  6
BYLAYER
 10
28.8028166485
 20
77.3710033753
 11
27.5654754692
 21
76.6566283766
  0
LINE
  5
226
100
AcDbEntity
  8
0
100
AcDbLine
 62
7
  6
BYLAYER
 10
40.7784185024
 20
27.149466472
 11
37.0103014881
 21
29.3249406288
  0
LINE
  5
227
100
AcDbEntity
  8
0
100
AcDbLine
 62
7
  6
BYLAYER
 10
30.1717726252
 20
33.2730777898
 11
26.4036556109
 21
35.4485519466
  0
LINE
  5
228
100
AcDbEntity
  8
0
100
AcDbLine
 62
7
  6
BYLAYER
 10
19.565126748
 20
39.3966891076
 11
15.7970097337
 21
41.5721632644
  0
LINE
  5
229
100
AcDbEntity
  8
0
100
AcDbLine
 62
7
  6
BYLAYER
 10
40.7784185024
 20
27.2964369071
 11
37.1375812386
 21
29.3984277281
  0
LINE
  5
22A
100
AcDbEntity
  8
0
100
AcDbLine
 62
7
  6
BYLAYER
 10
30.1717726252
 20
33.4200482249
 11
26.5309353614
 21
35.5220390459
  0
LINE
  5
22B
100
AcDbEntity
  8
0
100
AcDbLine
 62
7
  6
BYLAYER
 10
19.565126748
 20
39.5436595427
 11
15.9242894842
 21
41.6456503637
  0
LINE
  5
22C
100
AcDbEntity
  8
0
100
AcDbLine
 62
7
  6
BYLAYER
 10
16.7587426227
 20
61.6152485529
 11
16.7337220791
 21
61.5858846392
  0
LINE
  5
22D
100
AcDbEntity
  8
0
100
AcDbLine
 62
7
  6
BYLAYER
 10
42.0653442269
 20
28.0394393854
 11
42.1926261769
 21
27.9659547798
  0
LINE
  5
22E
100
AcDbEntity
  8
0
100
AcDbLine
 62
7
  6
BYLAYER
 10
12.1004522236
 20
46.4695309369
 11
15.7970097337
 21
44.3353707444
  0
LINE
  5
22F
100
AcDbEntity
  8
0
100
AcDbLine
 62
7
  6
BYLAYER
 10
22.7070981008
 20
40.3459196191
 11
26.4036556109
 21
38.2117594266
  0
LINE
  5
230
100
AcDbEntity
  8
0
100
AcDbLine
 62
7
  6
BYLAYER
 10
33.313743978
 20
34.2223083012
 11
37.0103014881
 21
32.0881481088
  0
LINE
  5
231
100
AcDbEntity
  8
0
100
AcDbLine
 62
7
  6
BYLAYER
 10
37.1375812386
 20
32.1616352081
 11
33.4410237285
 21
34.2957954005
  0
LINE
  5
232
100
AcDbEntity
  8
0
100
AcDbLine
 62
7
  6
BYLAYER
 10
26.5309353614
 20
38.2852465259
 11
22.8343778513
 21
40.4194067183
  0
LINE
  5
233
100
AcDbEntity
  8
0
100
AcDbLine
 62
7
  6
BYLAYER
 10
15.9242894842
 20
44.4088578437
 11
12.2277319741
 21
46.5430180361
  0
LINE
  5
234
100
AcDbEntity
  8
0
100
AcDbLine
 62
7
  6
BYLAYER
 10
19.565126748
 20
39.3966891076
 11
19.565126748
 21
39.5436595427
  0
LINE
  5
235
100
AcDbEntity
  8
0
100
AcDbLine
 62
7
  6
BYLAYER
 10
19.565126748
 20
50.0852772996
 11
19.565126748
 21
50.2322477346
  0
LINE
  5
236
100
AcDbEntity
  8
0
100
AcDbLine
 62
7
  6
BYLAYER
 10
42.9449640479
 20
79.8205796377
 11
40.2933246584
 21
78.2896640607
  0
LINE
  5
237
100
AcDbEntity
  8
0
100
AcDbLine
 62
7
  6
BYLAYER
 10
38.348793522
 20
76.5546289562
 11
33.0455147429
 21
73.4927978022
  0
LINE
  5
238
100
AcDbEntity
  8
0
100
AcDbLine
 62
7
  6
BYLAYER
 10
34.1061793306
 20
72.8804366704
 11
39.4094581097
 21
75.9422678244
  0
LINE
  5
239
100
AcDbEntity
  8
0
100
AcDbLine
 62
7
  6
BYLAYER
 10
16.3472876899
 20
62.2725641147
 11
16.1722002947
 21
62.1714782456
  0
LINE
  5
23A
100
AcDbEntity
  8
0
100
AcDbLine
 62
7
  6
BYLAYER
 10
16.4514942998
 20
62.11589413
 11
16.0803018741
 21
61.9015828773
  0
LINE
  5
23B
100
AcDbEntity
  8
0
100
AcDbLine
 62
7
  6
BYLAYER
 10
42.4146538338
 20
77.0649417971
 11
45.0662932234
 21
78.5958573741
  0
LINE
  5
23C
100
AcDbEntity
  8
0
100
AcDbLine
 62
7
  6
BYLAYER
 10
16.3599838158
 20
61.8462308908
 11
16.555699346
 21
61.9592264963
  0
LINE
  5
23D
100
AcDbEntity
  8
0
100
AcDbLine
 62
7
  6
BYLAYER
 10
35.1668395024
 20
72.2680624071
 11
39.4094625257
 21
74.7175273303
  0
LINE
  5
23E
100
AcDbEntity
  8
0
100
AcDbLine
 62
7
  6
BYLAYER
 10
12.2277319741
 20
49.6364190937
 11
15.9242894842
 21
47.5022589013
  0
LINE
  5
23F
100
AcDbEntity
  8
0
100
AcDbLine
 62
7
  6
BYLAYER
 10
22.8343778513
 20
43.5128077759
 11
26.5309353614
 21
41.3786475835
  0
LINE
  5
240
100
AcDbEntity
  8
0
100
AcDbLine
 62
7
  6
BYLAYER
 10
33.4410237285
 20
37.3891964581
 11
37.1375812386
 21
35.2550362656
  0
LINE
  5
241
100
AcDbEntity
  8
0
100
AcDbLine
 62
7
  6
BYLAYER
 10
37.0103014881
 20
35.4754900365
 11
33.313743978
 21
37.6096502289
  0
LINE
  5
242
100
AcDbEntity
  8
0
100
AcDbLine
 62
7
  6
BYLAYER
 10
26.4036556109
 20
41.5991013543
 11
22.7070981008
 21
43.7332615468
  0
LINE
  5
243
100
AcDbEntity
  8
0
100
AcDbLine
 62
7
  6
BYLAYER
 10
15.7970097337
 20
47.7227126722
 11
12.1004522236
 21
49.8568728646
  0
LINE
  5
244
100
AcDbEntity
  8
0
100
AcDbLine
 62
7
  6
BYLAYER
 10
22.7070981008
 20
43.7332615468
 11
22.7070981008
 21
40.3459196191
  0
LINE
  5
245
100
AcDbEntity
  8
0
100
AcDbLine
 62
7
  6
BYLAYER
 10
22.8343778513
 20
40.4194067183
 11
22.8343778513
 21
43.5128077759
  0
LINE
  5
246
100
AcDbEntity
  8
0
100
AcDbLine
 62
7
  6
BYLAYER
 10
39.4094625257
 20
71.2473920575
 11
38.1721213464
 21
70.5330170588
  0
LINE
  5
247
100
AcDbEntity
  8
0
100
AcDbLine
 62
7
  6
BYLAYER
 10
26.4036556109
 20
46.2841105736
 11
26.4036556109
 21
41.5991013543
  0
LINE
  5
248
100
AcDbEntity
  8
0
100
AcDbLine
 62
7
  6
BYLAYER
 10
26.4036556109
 20
38.2117594266
 11
26.4036556109
 21
35.4485519466
  0
LINE
  5
249
100
AcDbEntity
  8
0
100
AcDbLine
 62
7
  6
BYLAYER
 10
26.5309353614
 20
35.5220390459
 11
26.5309353614
 21
38.2852465259
  0
LINE
  5
24A
100
AcDbEntity
  8
0
100
AcDbLine
 62
7
  6
BYLAYER
 10
26.5309353614
 20
41.3786475835
 11
26.5309353614
 21
46.0636568027
  0
LINE
  5
24B
100
AcDbEntity
  8
0
100
AcDbLine
 62
7
  6
BYLAYER
 10
40.7784185024
 20
37.8380546639
 11
37.1375812386
 21
39.9400454849
  0
LINE
  5
24C
100
AcDbEntity
  8
0
100
AcDbLine
 62
7
  6
BYLAYER
 10
30.1717726252
 20
43.9616659817
 11
26.5309353614
 21
46.0636568027
  0
LINE
  5
24D
100
AcDbEntity
  8
0
100
AcDbLine
 62
7
  6
BYLAYER
 10
19.565126748
 20
50.0852772996
 11
15.9242894842
 21
52.1872681205
  0
LINE
  5
24E
100
AcDbEntity
  8
0
100
AcDbLine
 62
7
  6
BYLAYER
 10
40.7784185024
 20
37.985025099
 11
37.0103014881
 21
40.1604992558
  0
LINE
  5
24F
100
AcDbEntity
  8
0
100
AcDbLine
 62
7
  6
BYLAYER
 10
30.1717726252
 20
44.1086364168
 11
26.4036556109
 21
46.2841105736
  0
LINE
  5
250
100
AcDbEntity
  8
0
100
AcDbLine
 62
7
  6
BYLAYER
 10
19.565126748
 20
50.2322477346
 11
15.7970097337
 21
52.4077218914
  0
LINE
  5
251
100
AcDbEntity
  8
0
100
AcDbLine
 62
7
  6
BYLAYER
 10
42.0653442269
 20
38.7280275773
 11
42.1926261769
 21
38.6545429717
  0
LINE
  5
252
100
AcDbEntity
  8
0
100
AcDbLine
 62
7
  6
BYLAYER
 10
28.8028166485
 20
77.3710033753
 11
28.8028122325
 21
82.0658791422
  0
LINE
  5
253
100
AcDbEntity
  8
0
100
AcDbLine
 62
7
  6
BYLAYER
 10
30.1717726252
 20
33.2730777898
 11
30.1717726252
 21
33.4200482249
  0
LINE
  5
254
100
AcDbEntity
  8
0
100
AcDbLine
 62
7
  6
BYLAYER
 10
30.1717726252
 20
43.9616659817
 11
30.1717726252
 21
44.1086364168
  0
LINE
  5
255
100
AcDbEntity
  8
0
100
AcDbLine
 62
7
  6
BYLAYER
 10
27.3653883216
 20
55.4916370258
 11
27.3403679563
 21
55.4622733214
  0
LINE
  5
256
100
AcDbEntity
  8
0
100
AcDbLine
 62
7
  6
BYLAYER
 10
15.9242894842
 20
52.1872681205
 11
16.0515714342
 21
52.2607539499
  0
LINE
  5
257
100
AcDbEntity
  8
0
100
AcDbLine
 62
7
  6
BYLAYER
 10
53.5516099251
 20
73.6969683199
 11
50.8999705356
 21
72.1660527428
  0
LINE
  5
258
100
AcDbEntity
  8
0
100
AcDbLine
 62
7
  6
BYLAYER
 10
12.2277319741
 20
49.6364190937
 11
12.3550139241
 21
49.7099049231
  0
LINE
  5
259
100
AcDbEntity
  8
0
100
AcDbLine
 62
7
  6
BYLAYER
 10
48.9554393992
 20
70.4310176384
 11
43.6521606201
 21
67.3691864844
  0
LINE
  5
25A
100
AcDbEntity
  8
0
100
AcDbLine
 62
7
  6
BYLAYER
 10
33.313743978
 20
37.6096502289
 11
33.313743978
 21
34.2223083012
  0
LINE
  5
25B
100
AcDbEntity
  8
0
100
AcDbLine
 62
7
  6
BYLAYER
 10
33.4410237285
 20
34.2957954005
 11
33.4410237285
 21
37.3891964581
  0
LINE
  5
25C
100
AcDbEntity
  8
0
100
AcDbLine
 62
7
  6
BYLAYER
 10
44.7128252078
 20
66.7568253526
 11
50.0161039869
 21
69.8186565066
  0
LINE
  5
25D
100
AcDbEntity
  8
0
100
AcDbLine
 62
7
  6
BYLAYER
 10
26.9539335671
 20
56.1489527969
 11
26.7788461719
 21
56.0478669278
  0
LINE
  5
25E
100
AcDbEntity
  8
0
100
AcDbLine
 62
7
  6
BYLAYER
 10
27.0581401771
 20
55.9922828122
 11
26.6869477513
 21
55.7779715595
  0
LINE
  5
25F
100
AcDbEntity
  8
0
100
AcDbLine
 62
7
  6
BYLAYER
 10
53.021299711
 20
70.9413304793
 11
55.6729391006
 21
72.4722460563
  0
LINE
  5
260
100
AcDbEntity
  8
0
100
AcDbLine
 62
7
  6
BYLAYER
 10
26.966629693
 20
55.7226195729
 11
27.1623452232
 21
55.8356151785
  0
LINE
  5
261
100
AcDbEntity
  8
0
100
AcDbLine
 62
7
  6
BYLAYER
 10
45.7734853796
 20
66.1444510893
 11
50.0161084029
 21
68.5939160125
  0
LINE
  5
262
100
AcDbEntity
  8
0
100
AcDbLine
 62
7
  6
BYLAYER
 10
12.1004522236
 20
46.4695309369
 11
12.2277330738
 21
46.5430161314
  0
LINE
  5
263
100
AcDbEntity
  8
0
100
AcDbLine
 62
7
  6
BYLAYER
 10
15.7970097337
 20
47.7227126722
 11
15.9242894842
 21
47.7961972317
  0
LINE
  5
264
100
AcDbEntity
  8
0
100
AcDbLine
 62
7
  6
BYLAYER
 10
34.4596473462
 20
84.7194686919
 11
34.4596473462
 21
81.6576630329
  0
LINE
  5
265
100
AcDbEntity
  8
0
100
AcDbLine
 62
7
  6
BYLAYER
 10
50.0161084029
 20
65.1237807397
 11
48.7787672236
 21
64.409405741
  0
LINE
  5
266
100
AcDbEntity
  8
0
100
AcDbLine
 62
7
  6
BYLAYER
 10
15.7970097337
 20
44.3353707444
 11
15.9242905839
 21
44.4088559389
  0
LINE
  5
267
100
AcDbEntity
  8
0
100
AcDbLine
 62
7
  6
BYLAYER
 10
37.3282655083
 20
50.3746151081
 11
37.3848095079
 21
50.3851138745
  0
LINE
  5
268
100
AcDbEntity
  8
0
100
AcDbLine
 62
7
  6
BYLAYER
 10
37.0103014881
 20
40.1604992558
 11
37.0103014881
 21
35.4754900365
  0
LINE
  5
269
100
AcDbEntity
  8
0
100
AcDbLine
 62
7
  6
BYLAYER
 10
37.0103014881
 20
32.0881481088
 11
37.0103014881
 21
29.3249406288
  0
LINE
  5
26A
100
AcDbEntity
  8
0
100
AcDbLine
 62
7
  6
BYLAYER
 10
37.1375812386
 20
29.3984277281
 11
37.1375812386
 21
32.1616352081
  0
LINE
  5
26B
100
AcDbEntity
  8
0
100
AcDbLine
 62
7
  6
BYLAYER
 10
37.1375812386
 20
35.2550362656
 11
37.1375812386
 21
39.9400454849
  0
LINE
  5
26C
100
AcDbEntity
  8
0
100
AcDbLine
 62
7
  6
BYLAYER
 10
39.4094625257
 20
71.2473920575
 11
39.4094581097
 21
75.9422678244
  0
LINE
  5
26D
100
AcDbEntity
  8
0
100
AcDbLine
 62
7
  6
BYLAYER
 10
15.7970097337
 20
41.5721632644
 11
15.9242905839
 21
41.6456484589
  0
LINE
  5
26E
100
AcDbEntity
  8
0
100
AcDbLine
 62
7
  6
BYLAYER
 10
40.7784185024
 20
52.0338473384
 11
8.9584808708
 21
70.4046812918
  0
LINE
  5
26F
100
AcDbEntity
  8
0
100
AcDbLine
 62
7
  6
BYLAYER
 10
9.665584708
 20
71.6294278628
 11
41.4855223397
 21
53.2585939094
  0
LINE
  5
270
100
AcDbEntity
  8
0
100
AcDbLine
 62
7
  6
BYLAYER
 10
40.7784185024
 20
23.3551797396
 11
40.7784185024
 21
27.149466472
  0
LINE
  5
271
100
AcDbEntity
  8
0
100
AcDbLine
 62
7
  6
BYLAYER
 10
40.7784185024
 20
27.2964369071
 11
40.7784185024
 21
37.8380546639
  0
LINE
  5
272
100
AcDbEntity
  8
0
100
AcDbLine
 62
7
  6
BYLAYER
 10
40.7784185024
 20
37.985025099
 11
40.7784185024
 21
52.0338473384
  0
LINE
  5
273
100
AcDbEntity
  8
0
100
AcDbLine
 62
7
  6
BYLAYER
 10
42.1926261769
 20
38.8015134068
 11
42.1926261769
 21
38.6545429717
  0
LINE
  5
274
100
AcDbEntity
  8
0
100
AcDbLine
 62
7
  6
BYLAYER
 10
42.1926261769
 20
28.1129252149
 11
42.1926261769
 21
27.9659547798
  0
LINE
  5
275
100
AcDbEntity
  8
0
100
AcDbLine
 62
7
  6
BYLAYER
 10
40.7784185024
 20
52.0338473384
 11
41.4855223397
 21
53.2585939094
  0
LINE
  5
276
100
AcDbEntity
  8
0
100
AcDbLine
 62
7
  6
BYLAYER
 10
37.9720341988
 20
49.368025708
 11
37.9470138335
 21
49.3386620036
  0
LINE
  5
277
100
AcDbEntity
  8
0
100
AcDbLine
 62
7
  6
BYLAYER
 10
26.5309353614
 20
46.0636568027
 11
26.6582173114
 21
46.1371426321
  0
LINE
  5
278
100
AcDbEntity
  8
0
100
AcDbLine
 62
7
  6
BYLAYER
 10
64.1582558024
 20
67.5733570021
 11
61.5066164128
 21
66.042441425
  0
LINE
  5
279
100
AcDbEntity
  8
0
100
AcDbLine
 62
7
  6
BYLAYER
 10
22.8343778513
 20
43.5128077759
 11
22.9616598013
 21
43.5862936053
  0
LINE
  5
27A
100
AcDbEntity
  8
0
100
AcDbLine
 62
7
  6
BYLAYER
 10
59.5620852764
 20
64.3074063206
 11
54.2588064973
 21
61.2455751666
  0
LINE
  5
27B
100
AcDbEntity
  8
0
100
AcDbLine
 62
7
  6
BYLAYER
 10
41.4855223397
 20
53.2585939094
 11
66.5899449876
 21
67.7525525658
  0
LINE
  5
27C
100
AcDbEntity
  8
0
100
AcDbLine
 62
7
  6
BYLAYER
 10
37.5605794443
 20
50.0253414791
 11
37.3854920491
 21
49.92425561
  0
LINE
  5
27D
100
AcDbEntity
  8
0
100
AcDbLine
 62
7
  6
BYLAYER
 10
45.0662932234
 20
78.5958573741
 11
45.0662932234
 21
75.5340517151
  0
LINE
  5
27E
100
AcDbEntity
  8
0
100
AcDbLine
 62
7
  6
BYLAYER
 10
37.6647860543
 20
49.8686714944
 11
37.2935936285
 21
49.6543602417
  0
LINE
  5
27F
100
AcDbEntity
  8
0
100
AcDbLine
 62
7
  6
BYLAYER
 10
37.5732755702
 20
49.5990082551
 11
37.7689911005
 21
49.7120038607
  0
LINE
  5
280
100
AcDbEntity
  8
0
100
AcDbLine
 62
7
  6
BYLAYER
 10
22.7070981008
 20
40.3459196191
 11
22.834378951
 21
40.4194048136
  0
LINE
  5
281
100
AcDbEntity
  8
0
100
AcDbLine
 62
7
  6
BYLAYER
 10
26.4036556109
 20
41.5991013543
 11
26.5309353614
 21
41.6725859139
  0
LINE
  5
282
100
AcDbEntity
  8
0
100
AcDbLine
 62
7
  6
BYLAYER
 10
26.7216196311
 20
56.4982264259
 11
26.7781636307
 21
56.5087251923
  0
LINE
  5
283
100
AcDbEntity
  8
0
100
AcDbLine
 62
7
  6
BYLAYER
 10
26.4036556109
 20
38.2117594266
 11
26.5309364611
 21
38.2852446211
  0
LINE
  5
284
100
AcDbEntity
  8
0
100
AcDbLine
 62
7
  6
BYLAYER
 10
50.0161084029
 20
65.1237807397
 11
50.0161039869
 21
69.8186565066
  0
LINE
  5
285
100
AcDbEntity
  8
0
100
AcDbLine
 62
7
  6
BYLAYER
 10
50.6778722234
 20
28.6623466853
 11
50.6778722234
 21
29.1522481355
  0
LINE
  5
286
100
AcDbEntity
  8
0
100
AcDbLine
 62
7
  6
BYLAYER
 10
26.4036556109
 20
35.4485519466
 11
26.5309364611
 21
35.5220371411
  0
LINE
  5
287
100
AcDbEntity
  8
0
100
AcDbLine
 62
7
  6
BYLAYER
 10
37.1375812386
 20
39.9400454849
 11
37.2648631886
 21
40.0135313143
  0
LINE
  5
288
100
AcDbEntity
  8
0
100
AcDbLine
 62
7
  6
BYLAYER
 10
16.1149737539
 20
62.6218377437
 11
16.1715174753
 21
62.6323364585
  0
LINE
  5
289
100
AcDbEntity
  8
0
100
AcDbLine
 62
7
  6
BYLAYER
 10
33.4410237285
 20
37.3891964581
 11
33.5683056785
 21
37.4626822875
  0
LINE
  5
28A
100
AcDbEntity
  8
0
100
AcDbLine
 62
7
  6
BYLAYER
 10
33.313743978
 20
34.2223083012
 11
33.4410248282
 21
34.2957934957
  0
LINE
  5
28B
100
AcDbEntity
  8
0
100
AcDbLine
 62
7
  6
BYLAYER
 10
54.2588064973
 20
61.2455751666
 11
44.7128252078
 21
66.7568253526
  0
LINE
  5
28C
100
AcDbEntity
  8
0
100
AcDbLine
 62
7
  6
BYLAYER
 10
43.6521606201
 20
67.3691864844
 11
34.1061793306
 21
72.8804366704
  0
LINE
  5
28D
100
AcDbEntity
  8
0
100
AcDbLine
 62
7
  6
BYLAYER
 10
33.0455147429
 20
73.4927978022
 11
23.4995334534
 21
79.0040479882
  0
LINE
  5
28E
100
AcDbEntity
  8
0
100
AcDbLine
 62
7
  6
BYLAYER
 10
55.4961476766
 20
61.9599501653
 11
50.0161084029
 21
65.1237807397
  0
LINE
  5
28F
100
AcDbEntity
  8
0
100
AcDbLine
 62
7
  6
BYLAYER
 10
44.8895017994
 20
68.0835614831
 11
39.4094625257
 21
71.2473920575
  0
LINE
  5
290
100
AcDbEntity
  8
0
100
AcDbLine
 62
7
  6
BYLAYER
 10
34.2828559222
 20
74.2071728009
 11
28.8028166485
 21
77.3710033753
  0
LINE
  5
291
100
AcDbEntity
  8
0
100
AcDbLine
 62
7
  6
BYLAYER
 10
55.6729391006
 20
72.4722460563
 11
55.6729391006
 21
69.4104403973
  0
LINE
  5
292
100
AcDbEntity
  8
0
100
AcDbLine
 62
7
  6
BYLAYER
 10
56.8650307991
 20
32.7243844819
 11
56.8650307991
 21
33.5357435947
  0
LINE
  5
293
100
AcDbEntity
  8
0
100
AcDbLine
 62
7
  6
BYLAYER
 10
40.7784185024
 20
37.985025099
 11
42.1926261769
 21
38.8015134068
  0
LINE
  5
294
100
AcDbEntity
  8
0
100
AcDbLine
 62
7
  6
BYLAYER
 10
40.7784185024
 20
37.8380546639
 11
42.1926261769
 21
38.6545429717
  0
LINE
  5
295
100
AcDbEntity
  8
0
100
AcDbLine
 62
7
  6
BYLAYER
 10
37.0103014881
 20
35.4754900365
 11
37.1375812386
 21
35.5489745961
  0
LINE
  5
296
100
AcDbEntity
  8
0
100
AcDbLine
 62
7
  6
BYLAYER
 10
28.8028166485
 20
80.8411386481
 11
37.2881333502
 21
75.9422495939
  0
LINE
  5
297
100
AcDbEntity
  8
0
100
AcDbLine
 62
7
  6
BYLAYER
 10
39.4094625257
 20
74.7175273303
 11
47.8947792274
 21
69.818638276
  0
LINE
  5
298
100
AcDbEntity
  8
0
100
AcDbLine
 62
7
  6
BYLAYER
 10
50.0161084029
 20
68.5939160125
 11
58.5014251046
 21
63.6950269582
  0
LINE
  5
299
100
AcDbEntity
  8
0
100
AcDbLine
 62
7
  6
BYLAYER
 10
37.0103014881
 20
32.0881481088
 11
37.1375823384
 21
32.1616333033
  0
LINE
  5
29A
100
AcDbEntity
  8
0
100
AcDbLine
 62
7
  6
BYLAYER
 10
28.8028122325
 20
82.0658791422
 11
38.348793522
 21
76.5546289562
  0
LINE
  5
29B
100
AcDbEntity
  8
0
100
AcDbLine
 62
7
  6
BYLAYER
 10
39.4094581097
 20
75.9422678244
 11
48.9554393992
 21
70.4310176384
  0
LINE
  5
29C
100
AcDbEntity
  8
0
100
AcDbLine
 62
7
  6
BYLAYER
 10
50.0161039869
 20
69.8186565066
 11
59.5620852764
 21
64.3074063206
  0
LINE
  5
29D
100
AcDbEntity
  8
0
100
AcDbLine
 62
7
  6
BYLAYER
 10
37.0103014881
 20
29.3249406288
 11
37.1375823384
 21
29.3984258233
  0
LINE
  5
29E
100
AcDbEntity
  8
0
100
AcDbLine
 62
7
  6
BYLAYER
 10
66.5899449876
 20
67.7525525658
 11
67.3832231052
 21
67.4001328347
  0
LINE
  5
29F
100
AcDbEntity
  8
0
100
AcDbLine
 62
7
  6
BYLAYER
 10
61.5066164128
 20
66.042441425
 11
53.021299711
 21
70.9413304793
  0
LINE
  5
2A0
100
AcDbEntity
  8
0
100
AcDbLine
 62
7
  6
BYLAYER
 10
50.8999705356
 20
72.1660527428
 11
42.4146538338
 21
77.0649417971
  0
LINE
  5
2A1
100
AcDbEntity
  8
0
100
AcDbLine
 62
7
  6
BYLAYER
 10
40.2933246584
 20
78.2896640607
 11
31.8080079566
 21
83.1885531149
  0
LINE
  5
2A2
100
AcDbEntity
  8
0
100
AcDbLine
 62
7
  6
BYLAYER
 10
64.1582558024
 20
67.5733570021
 11
55.6729391006
 21
72.4722460563
  0
LINE
  5
2A3
100
AcDbEntity
  8
0
100
AcDbLine
 62
7
  6
BYLAYER
 10
53.5516099251
 20
73.6969683199
 11
45.0662932234
 21
78.5958573741
  0
LINE
  5
2A4
100
AcDbEntity
  8
0
100
AcDbLine
 62
7
  6
BYLAYER
 10
42.9449640479
 20
79.8205796377
 11
34.4596473462
 21
84.7194686919
  0
LINE
  5
2A5
100
AcDbEntity
  8
0
100
AcDbLine
 62
7
  6
BYLAYER
 10
40.7784185024
 20
27.2964369071
 11
42.1926261769
 21
28.1129252149
  0
LINE
  5
2A6
100
AcDbEntity
  8
0
100
AcDbLine
 62
7
  6
BYLAYER
 10
40.7784185024
 20
27.149466472
 11
42.1926261769
 21
27.9659547798
  0
LINE
  5
2A7
100
AcDbEntity
  8
0
100
AcDbLine
 62
7
  6
BYLAYER
 10
66.5899449876
 20
67.7525525658
 11
34.770007356
 21
86.1233865192
  0
LINE
  5
2A8
100
AcDbEntity
  8
0
100
AcDbLine
 62
7
  6
BYLAYER
 10
35.5632854736
 20
85.7709667881
 11
67.3832231052
 21
67.4001328347
  0
LINE
  5
2A9
100
AcDbEntity
  8
0
100
AcDbLine
 62
7
  6
BYLAYER
 10
69.4615434134
 20
49.0547147687
 11
57.2394147604
 21
34.4723563723
  0
LINE
  5
2AA
100
AcDbEntity
  8
0
100
AcDbLine
 62
7
  6
BYLAYER
 10
50.6778722234
 20
29.1522481355
 11
56.8650307991
 21
32.7243844819
  0
LINE
  5
2AB
100
AcDbEntity
  8
0
100
AcDbLine
 62
7
  6
BYLAYER
 10
50.6778722234
 20
28.6623466853
 11
41.4855223397
 21
23.3551726849
  0
LINE
  5
2AC
100
AcDbEntity
  8
0
100
AcDbLine
 62
7
  6
BYLAYER
 10
35.5632854736
 20
85.7709667881
 11
34.770007356
 21
86.1233865192
  0
LINE
  5
2AD
100
AcDbEntity
  8
0
100
AcDbLine
 62
7
  6
BYLAYER
 10
67.3832231052
 20
67.4001328347
 11
69.4615434134
 21
49.0547147687
  0
ARC
  5
2AE
100
AcDbEntity
  8
0
100
AcDbCircle
 62
7
  6
BYLAYER
 10
19.3529549701
 20
63.7910498299
 40
4.0
100
AcDbArc
 50
184.7376631058
 51
235.8357394994
  0
ARC
  5
2AF
100
AcDbEntity
  8
0
100
AcDbCircle
 62
7
  6
BYLAYER
 10
29.9596008473
 20
57.667438512
 40
4.0
100
AcDbArc
 50
184.7376631058
 51
235.8357394994
  0
ARC
  5
2B0
100
AcDbEntity
  8
0
100
AcDbCircle
 62
7
  6
BYLAYER
 10
40.5662467245
 20
51.5438271942
 40
4.0
100
AcDbArc
 50
184.7376631058
 51
235.8357394994
  0
SPLINE
  5
2B1
100
AcDbEntity
  8
0
100
AcDbSpline
 62
7
  6
BYLAYER
 70
0
 71
3
 72
14
 73
10
 74
0
 42
0.0000001
 43
0.0000001
 44
0.0000000001
 40
0.0
 40
0.0
 40
0.0
 40
0.0
 40
0.2892436837
 40
0.422565285
 40
0.5485135198
 40
0.6678899429
 40
0.7818640955
 40
0.8919542859
 40
1.0
 40
1.0
 40
1.0
 40
1.0
 10
35.8993613989
 20
51.7888244804
 30
0.0
 10
35.7413580411
 20
51.8800456978
 30
0.0
 10
35.4987294667
 20
51.9954907343
 30
0.0
 10
35.16602018
 20
52.0925426867
 30
0.0
 10
34.9298438729
 20
52.1321504611
 30
0.0
 10
34.7026281511
 20
52.1400361958
 30
0.0
 10
34.4864914014
 20
52.1158939206
 30
0.0
 10
34.283704882
 20
52.0598872509
 30
0.0
 10
34.1584028892
 20
52.0011664425
 30
0.0
 10
34.0993819526
 20
51.9670902421
 30
0.0
  0
SPLINE
  5
2B2
100
AcDbEntity
  8
0
100
AcDbSpline
 62
7
  6
BYLAYER
 70
0
 71
3
 72
14
 73
10
 74
0
 42
0.0000001
 43
0.0000001
 44
0.0000000001
 40
0.0
 40
0.0
 40
0.0
 40
0.0
 40
0.2892436837
 40
0.422565285
 40
0.5485135198
 40
0.6678899429
 40
0.7818640955
 40
0.8919542859
 40
1.0
 40
1.0
 40
1.0
 40
1.0
 10
25.2927155217
 20
57.9124357982
 30
0.0
 10
25.1347121639
 20
58.0036570156
 30
0.0
 10
24.8920835895
 20
58.1191020521
 30
0.0
 10
24.5593743028
 20
58.2161540045
 30
0.0
 10
24.3231979956
 20
58.2557617789
 30
0.0
 10
24.0959822739
 20
58.2636475136
 30
0.0
 10
23.8798455242
 20
58.2395052384
 30
0.0
 10
23.6770590048
 20
58.1834985687
 30
0.0
 10
23.551757012
 20
58.1247777603
 30
0.0
 10
23.4927360754
 20
58.0907015599
 30
0.0
  0
SPLINE
  5
2B3
100
AcDbEntity
  8
0
100
AcDbSpline
 62
7
  6
BYLAYER
 70
0
 71
3
 72
14
 73
10
 74
0
 42
0.0000001
 43
0.0000001
 44
0.0000000001
 40
0.0
 40
0.0
 40
0.0
 40
0.0
 40
0.2892436837
 40
0.422565285
 40
0.5485135198
 40
0.6678899429
 40
0.7818640955
 40
0.8919542859
 40
1.0
 40
1.0
 40
1.0
 40
1.0
 10
14.6860696445
 20
64.036047116
 30
0.0
 10
14.5280662867
 20
64.1272683335
 30
0.0
 10
14.2854377123
 20
64.2427133699
 30
0.0
 10
13.9527284256
 20
64.3397653223
 30
0.0
 10
13.7165521184
 20
64.3793730967
 30
0.0
 10
13.4893363967
 20
64.3872588314
 30
0.0
 10
13.273199647
 20
64.3631165562
 30
0.0
 10
13.0704131276
 20
64.3071098865
 30
0.0
 10
12.9451111348
 20
64.2483890781
 30
0.0
 10
12.8860901982
 20
64.2143128777
 30
0.0
  0
SPLINE
  5
2B4
100
AcDbEntity
  8
0
100
AcDbSpline
 62
7
  6
BYLAYER
 70
0
 71
3
 72
22
 73
18
 74
0
 42
0.0000001
 43
0.0000001
 44
0.0000000001
 40
0.0
 40
0.0
 40
0.0
 40
0.0
 40
0.0428185495
 40
0.0874069047
 40
0.1351970029
 40
0.1871121204
 40
0.2435668431
 40
0.3045324571
 40
0.3696374527
 40
0.4382548648
 40
0.5095618281
 40
0.5826062726
 40
0.7296243448
 40
0.801622019
 40
0.8712290834
 40
0.9376189357
 40
1.0
 40
1.0
 40
1.0
 40
1.0
 10
16.4860490909
 20
57.9789639509
 30
0.0
 10
16.5747999866
 20
58.0302049763
 30
0.0
 10
16.7430511475
 20
58.1589651261
 30
0.0
 10
16.9455215886
 20
58.4149882705
 30
0.0
 10
17.0967911468
 20
58.7281015008
 30
0.0
 10
17.1947864609
 20
59.0906327738
 30
0.0
 10
17.2383917906
 20
59.4949700153
 30
0.0
 10
17.2272342438
 20
59.932781247
 30
0.0
 10
17.1618291349
 20
60.3950504763
 30
0.0
 10
17.0435630441
 20
60.8720893805
 30
0.0
 10
16.8749920456
 20
61.3539060373
 30
0.0
 10
16.5875220903
 20
61.9899486383
 30
0.0
 10
16.2192969029
 20
62.5889155191
 30
0.0
 10
15.7841186953
 20
63.1262699148
 30
0.0
 10
15.4362310523
 20
63.4834743838
 30
0.0
 10
15.0723084631
 20
63.7896280508
 30
0.0
 10
14.8153693257
 20
63.961397599
 30
0.0
 10
14.6860696445
 20
64.036047116
 30
0.0
  0
SPLINE
  5
2B5
100
AcDbEntity
  8
0
100
AcDbSpline
 62
7
  6
BYLAYER
 70
0
 71
3
 72
11
 73
7
 74
0
 42
0.0000001
 43
0.0000001
 44
0.0000000001
 40
0.0
 40
0.0
 40
0.0
 40
0.0
 40
0.260247771
 40
0.5216723346
 40
0.7718208758
 40
1.0
 40
1.0
 40
1.0
 40
1.0
 10
57.2394147604
 20
34.4723563723
 30
0.0
 10
57.1822220004
 20
34.4041189756
 30
0.0
 10
57.0788137731
 20
34.2575825641
 30
0.0
 10
56.9607948807
 20
34.02022586
 30
0.0
 10
56.885004314
 20
33.7776354695
 30
0.0
 10
56.8650309869
 20
33.6138065974
 30
0.0
 10
56.8650307991
 20
33.5357421987
 30
0.0
  0
SPLINE
  5
2B6
100
AcDbEntity
  8
0
100
AcDbSpline
 62
7
  6
BYLAYER
 70
0
 71
3
 72
22
 73
18
 74
0
 42
0.0000001
 43
0.0000001
 44
0.0000000001
 40
0.0
 40
0.0
 40
0.0
 40
0.0
 40
0.0428185495
 40
0.0874069047
 40
0.1351970029
 40
0.1871121204
 40
0.2435668431
 40
0.3045324571
 40
0.3696374527
 40
0.4382548648
 40
0.5095618281
 40
0.5826062726
 40
0.7296243448
 40
0.801622019
 40
0.8712290834
 40
0.9376189357
 40
1.0
 40
1.0
 40
1.0
 40
1.0
 10
27.0926949681
 20
51.8553526331
 30
0.0
 10
27.1814458638
 20
51.9065936585
 30
0.0
 10
27.3496970247
 20
52.0353538083
 30
0.0
 10
27.5521674658
 20
52.2913769527
 30
0.0
 10
27.703437024
 20
52.604490183
 30
0.0
 10
27.8014323381
 20
52.967021456
 30
0.0
 10
27.8450376678
 20
53.3713586975
 30
0.0
 10
27.833880121
 20
53.8091699292
 30
0.0
 10
27.7684750121
 20
54.2714391585
 30
0.0
 10
27.6502089213
 20
54.7484780627
 30
0.0
 10
27.4816379228
 20
55.2302947195
 30
0.0
 10
27.1941679675
 20
55.8663373205
 30
0.0
 10
26.8259427802
 20
56.4653042013
 30
0.0
 10
26.3907645725
 20
57.002658597
 30
0.0
 10
26.0428769295
 20
57.359863066
 30
0.0
 10
25.6789543403
 20
57.666016733
 30
0.0
 10
25.4220152029
 20
57.8377862812
 30
0.0
 10
25.2927155217
 20
57.9124357982
 30
0.0
  0
SPLINE
  5
2B7
100
AcDbEntity
  8
0
100
AcDbSpline
 62
7
  6
BYLAYER
 70
0
 71
3
 72
22
 73
18
 74
0
 42
0.0000001
 43
0.0000001
 44
0.0000000001
 40
0.0
 40
0.0
 40
0.0
 40
0.0
 40
0.0428185495
 40
0.0874069047
 40
0.1351970029
 40
0.1871121204
 40
0.2435668431
 40
0.3045324571
 40
0.3696374527
 40
0.4382548648
 40
0.5095618281
 40
0.5826062726
 40
0.7296243448
 40
0.801622019
 40
0.8712290834
 40
0.9376189357
 40
1.0
 40
1.0
 40
1.0
 40
1.0
 10
37.6993408453
 20
45.7317413153
 30
0.0
 10
37.788091741
 20
45.7829823407
 30
0.0
 10
37.9563429019
 20
45.9117424905
 30
0.0
 10
38.158813343
 20
46.1677656349
 30
0.0
 10
38.3100829012
 20
46.4808788652
 30
0.0
 10
38.4080782153
 20
46.8434101382
 30
0.0
 10
38.451683545
 20
47.2477473796
 30
0.0
 10
38.4405259982
 20
47.6855586113
 30
0.0
 10
38.3751208893
 20
48.1478278407
 30
0.0
 10
38.2568547985
 20
48.6248667449
 30
0.0
 10
38.0882838
 20
49.1066834016
 30
0.0
 10
37.8008138447
 20
49.7427260027
 30
0.0
 10
37.4325886574
 20
50.3416928835
 30
0.0
 10
36.9974104497
 20
50.8790472791
 30
0.0
 10
36.6495228067
 20
51.2362517482
 30
0.0
 10
36.2856002175
 20
51.5424054152
 30
0.0
 10
36.0286610801
 20
51.7141749634
 30
0.0
 10
35.8993613989
 20
51.7888244804
 30
0.0
  0
SPLINE
  5
2B8
100
AcDbEntity
  8
0
100
AcDbSpline
 62
7
  6
BYLAYER
 70
0
 71
3
 72
9
 73
5
 74
0
 42
0.0000001
 43
0.0000001
 44
0.0000000001
 40
0.0
 40
0.0
 40
0.0
 40
0.0
 40
0.2575905011
 40
1.0
 40
1.0
 40
1.0
 40
1.0
 10
16.036627025
 20
62.7385994362
 30
0.0
 10
16.0114180927
 20
62.7603514482
 30
0.0
 10
15.9151081726
 20
62.8465663069
 30
0.0
 10
15.8252247298
 20
62.9400690933
 30
0.0
 10
15.7634608475
 20
63.0135152656
 30
0.0
  0
SPLINE
  5
2B9
100
AcDbEntity
  8
0
100
AcDbSpline
 62
7
  6
BYLAYER
 70
0
 71
3
 72
9
 73
5
 74
0
 42
0.0000001
 43
0.0000001
 44
0.0000000001
 40
0.0
 40
0.0
 40
0.0
 40
0.0
 40
0.242337165
 40
1.0
 40
1.0
 40
1.0
 40
1.0
 10
38.0981368749
 20
48.8240088764
 30
0.0
 10
38.0868934981
 20
48.8550031389
 30
0.0
 10
38.0434053338
 20
48.9839484844
 30
0.0
 10
38.0114421622
 20
49.1166819298
 30
0.0
 10
37.9928829982
 20
49.2180793129
 30
0.0
  0
SPLINE
  5
2BA
100
AcDbEntity
  8
0
100
AcDbSpline
 62
7
  6
BYLAYER
 70
0
 71
3
 72
9
 73
5
 74
0
 42
0.0000001
 43
0.0000001
 44
0.0000000001
 40
0.0
 40
0.0
 40
0.0
 40
0.0
 40
0.2575905011
 40
1.0
 40
1.0
 40
1.0
 40
1.0
 10
37.2499187794
 20
50.4913768006
 30
0.0
 10
37.2247098471
 20
50.5131288125
 30
0.0
 10
37.128399927
 20
50.5993436713
 30
0.0
 10
37.0385164842
 20
50.6928464577
 30
0.0
 10
36.9767526019
 20
50.76629263
 30
0.0
  0
SPLINE
  5
2BB
100
AcDbEntity
  8
0
100
AcDbSpline
 62
7
  6
BYLAYER
 70
0
 71
3
 72
9
 73
5
 74
0
 42
0.0000001
 43
0.0000001
 44
0.0000000001
 40
0.0
 40
0.0
 40
0.0
 40
0.0
 40
0.242337165
 40
1.0
 40
1.0
 40
1.0
 40
1.0
 10
16.8848451205
 20
61.071231512
 30
0.0
 10
16.8736017437
 20
61.1022257746
 30
0.0
 10
16.8301135794
 20
61.23117112
 30
0.0
 10
16.7981504078
 20
61.3639045654
 30
0.0
 10
16.7795912438
 20
61.4653019485
 30
0.0
  0
SPLINE
  5
2BC
100
AcDbEntity
  8
0
100
AcDbSpline
 62
7
  6
BYLAYER
 70
0
 71
3
 72
9
 73
5
 74
0
 42
0.0000001
 43
0.0000001
 44
0.0000000001
 40
0.0
 40
0.0
 40
0.0
 40
0.0
 40
0.242337165
 40
1.0
 40
1.0
 40
1.0
 40
1.0
 10
27.4914909977
 20
54.9476201942
 30
0.0
 10
27.4802476209
 20
54.9786144567
 30
0.0
 10
27.4367594566
 20
55.1075598022
 30
0.0
 10
27.404796285
 20
55.2402932476
 30
0.0
 10
27.386237121
 20
55.3416906307
 30
0.0
  0
SPLINE
  5
2BD
100
AcDbEntity
  8
0
100
AcDbSpline
 62
7
  6
BYLAYER
 70
0
 71
3
 72
9
 73
5
 74
0
 42
0.0000001
 43
0.0000001
 44
0.0000000001
 40
0.0
 40
0.0
 40
0.0
 40
0.0
 40
0.2575905011
 40
1.0
 40
1.0
 40
1.0
 40
1.0
 10
26.6432729022
 20
56.6149881184
 30
0.0
 10
26.6180639699
 20
56.6367401303
 30
0.0
 10
26.5217540498
 20
56.7229549891
 30
0.0
 10
26.431870607
 20
56.8164577755
 30
0.0
 10
26.3701067247
 20
56.8899039478
 30
0.0
  0
SPLINE
  5
2BE
100
AcDbEntity
  8
0
100
AcDbSpline
 62
7
  6
BYLAYER
 70
0
 71
3
 72
14
 73
10
 74
0
 42
0.0000001
 43
0.0000001
 44
0.0000000001
 40
0.0
 40
0.0
 40
0.0
 40
0.0
 40
0.2892436837
 40
0.422565285
 40
0.5485135198
 40
0.6678899429
 40
0.7818640955
 40
0.8919542859
 40
1.0
 40
1.0
 40
1.0
 40
1.0
 10
35.8993613989
 20
45.910007077
 30
0.0
 10
36.0573647568
 20
45.8187858595
 30
0.0
 10
36.2999933312
 20
45.7033408231
 30
0.0
 10
36.6327026178
 20
45.6062888707
 30
0.0
 10
36.868878925
 20
45.5666810963
 30
0.0
 10
37.0960946468
 20
45.5587953616
 30
0.0
 10
37.3122313965
 20
45.5829376368
 30
0.0
 10
37.5150179158
 20
45.6389443065
 30
0.0
 10
37.6403199087
 20
45.6976651149
 30
0.0
 10
37.6993408453
 20
45.7317413153
 30
0.0
  0
SPLINE
  5
2BF
100
AcDbEntity
  8
0
100
AcDbSpline
 62
7
  6
BYLAYER
 70
0
 71
3
 72
14
 73
10
 74
0
 42
0.0000001
 43
0.0000001
 44
0.0000000001
 40
0.0
 40
0.0
 40
0.0
 40
0.0
 40
0.2892436837
 40
0.422565285
 40
0.5485135198
 40
0.6678899429
 40
0.7818640955
 40
0.8919542859
 40
1.0
 40
1.0
 40
1.0
 40
1.0
 10
25.2927155217
 20
52.0336183948
 30
0.0
 10
25.4507188796
 20
51.9423971773
 30
0.0
 10
25.693347454
 20
51.8269521409
 30
0.0
 10
26.0260567406
 20
51.7299001885
 30
0.0
 10
26.2622330478
 20
51.6902924141
 30
0.0
 10
26.4894487695
 20
51.6824066794
 30
0.0
 10
26.7055855193
 20
51.7065489546
 30
0.0
 10
26.9083720386
 20
51.7625556243
 30
0.0
 10
27.0336740315
 20
51.8212764327
 30
0.0
 10
27.0926949681
 20
51.8553526331
 30
0.0
  0
SPLINE
  5
2C0
100
AcDbEntity
  8
0
100
AcDbSpline
 62
7
  6
BYLAYER
 70
0
 71
3
 72
14
 73
10
 74
0
 42
0.0000001
 43
0.0000001
 44
0.0000000001
 40
0.0
 40
0.0
 40
0.0
 40
0.0
 40
0.2892436837
 40
0.422565285
 40
0.5485135198
 40
0.6678899429
 40
0.7818640955
 40
0.8919542859
 40
1.0
 40
1.0
 40
1.0
 40
1.0
 10
14.6860696445
 20
58.1572297126
 30
0.0
 10
14.8440730024
 20
58.0660084951
 30
0.0
 10
15.0867015767
 20
57.9505634587
 30
0.0
 10
15.4194108634
 20
57.8535115063
 30
0.0
 10
15.6555871706
 20
57.8139037319
 30
0.0
 10
15.8828028923
 20
57.8060179972
 30
0.0
 10
16.0989396421
 20
57.8301602724
 30
0.0
 10
16.3017261614
 20
57.8861669421
 30
0.0
 10
16.4270281543
 20
57.9448877505
 30
0.0
 10
16.4860490909
 20
57.9789639509
 30
0.0
  0
SPLINE
  5
2C1
100
AcDbEntity
  8
0
100
AcDbSpline
 62
7
  6
BYLAYER
 70
0
 71
3
 72
22
 73
18
 74
0
 42
0.0000001
 43
0.0000001
 44
0.0000000001
 40
0.0
 40
0.0
 40
0.0
 40
0.0
 40
0.0428185495
 40
0.0874069047
 40
0.1351970029
 40
0.1871121204
 40
0.2435668431
 40
0.3045324571
 40
0.3696374527
 40
0.4382548648
 40
0.5095618281
 40
0.5826062726
 40
0.7296243448
 40
0.801622019
 40
0.8712290834
 40
0.9376189357
 40
1.0
 40
1.0
 40
1.0
 40
1.0
 10
34.0993819526
 20
51.9670902421
 30
0.0
 10
34.0106310569
 20
51.9158492167
 30
0.0
 10
33.8423798959
 20
51.7870890668
 30
0.0
 10
33.6399094549
 20
51.5310659225
 30
0.0
 10
33.4886398966
 20
51.2179526922
 30
0.0
 10
33.3906445825
 20
50.8554214192
 30
0.0
 10
33.3470392529
 20
50.4510841777
 30
0.0
 10
33.3581967996
 20
50.013272946
 30
0.0
 10
33.4236019085
 20
49.5510037167
 30
0.0
 10
33.5418679994
 20
49.0739648125
 30
0.0
 10
33.7104389978
 20
48.5921481557
 30
0.0
 10
33.9979089531
 20
47.9561055546
 30
0.0
 10
34.3661341405
 20
47.3571386739
 30
0.0
 10
34.8013123482
 20
46.8197842782
 30
0.0
 10
35.1491999912
 20
46.4625798092
 30
0.0
 10
35.5131225804
 20
46.1564261422
 30
0.0
 10
35.7700617178
 20
45.984656594
 30
0.0
 10
35.8993613989
 20
45.910007077
 30
0.0
  0
LINE
  5
2C2
100
AcDbEntity
  8
0
100
AcDbLine
 62
7
  6
BYLAYER
 10
15.7634608475
 20
62.556273912
 11
16.1149667683
 21
62.6218502889
  0
SPLINE
  5
2C3
100
AcDbEntity
  8
0
100
AcDbSpline
 62
7
  6
BYLAYER
 70
0
 71
3
 72
17
 73
13
 74
0
 42
0.0000001
 43
0.0000001
 44
0.0000000001
 40
0.0
 40
0.0
 40
0.0
 40
0.0
 40
0.1656797551
 40
0.3249982876
 40
0.4749525403
 40
0.6122588946
 40
0.7325139119
 40
0.7847651467
 40
0.8311356614
 40
0.8722090354
 40
0.9107224274
 40
1.0
 40
1.0
 40
1.0
 40
1.0
 10
16.1933122915
 20
62.1514897023
 30
0.0
 10
16.2044880292
 20
62.1492912576
 30
0.0
 10
16.2262482157
 20
62.1441017847
 30
0.0
 10
16.2573530106
 20
62.1340716284
 30
0.0
 10
16.2857221694
 20
62.1222078512
 30
0.0
 10
16.3103650337
 20
62.1087932845
 30
0.0
 10
16.3276008739
 20
62.0960220196
 30
0.0
 10
16.337814347
 20
62.0848994153
 30
0.0
 10
16.3429840698
 20
62.0767219472
 30
0.0
 10
16.3455635342
 20
62.0682913303
 30
0.0
 10
16.3442810361
 20
62.0563356582
 30
0.0
 10
16.3368761323
 20
62.04971979
 30
0.0
 10
16.3315609089
 20
62.0466509678
 30
0.0
  0
SPLINE
  5
2C4
100
AcDbEntity
  8
0
100
AcDbSpline
 62
7
  6
BYLAYER
 70
0
 71
3
 72
9
 73
5
 74
0
 42
0.0000001
 43
0.0000001
 44
0.0000000001
 40
0.0
 40
0.0
 40
0.0
 40
0.0
 40
0.488419231
 40
1.0
 40
1.0
 40
1.0
 40
1.0
 10
16.0803018741
 20
61.9015828773
 30
0.0
 10
16.0900108769
 20
61.9453943785
 30
0.0
 10
16.1196932153
 20
62.0331504071
 30
0.0
 10
16.1662612953
 20
62.113051822
 30
0.0
 10
16.1933122915
 20
62.1514897023
 30
0.0
  0
SPLINE
  5
2C5
100
AcDbEntity
  8
0
100
AcDbSpline
 62
7
  6
BYLAYER
 70
0
 71
3
 72
9
 73
5
 74
0
 42
0.0000001
 43
0.0000001
 44
0.0000000001
 40
0.0
 40
0.0
 40
0.0
 40
0.0
 40
0.5115820595
 40
1.0
 40
1.0
 40
1.0
 40
1.0
 10
16.3532294059
 20
61.874506943
 30
0.0
 10
16.3064164111
 20
61.8702978392
 30
0.0
 10
16.2139370906
 20
61.8699168365
 30
0.0
 10
16.1230978198
 20
61.8880866043
 30
0.0
 10
16.0803018741
 20
61.9015828773
 30
0.0
  0
SPLINE
  5
2C6
100
AcDbEntity
  8
0
100
AcDbSpline
 62
7
  6
BYLAYER
 70
0
 71
3
 72
11
 73
7
 74
0
 42
0.0000001
 43
0.0000001
 44
0.0000000001
 40
0.0
 40
0.0
 40
0.0
 40
0.0
 40
0.2687267666
 40
0.4995484099
 40
0.7250030988
 40
1.0
 40
1.0
 40
1.0
 40
1.0
 10
16.368412576
 20
62.0308225371
 30
0.0
 10
16.3669485081
 20
62.0347827141
 30
0.0
 10
16.3634230764
 20
62.0418867217
 30
0.0
 10
16.3548608312
 20
62.0500999196
 30
0.0
 10
16.342823906
 20
62.0520040273
 30
0.0
 10
16.335302685
 20
62.0488113371
 30
0.0
 10
16.3315609089
 20
62.0466509678
 30
0.0
  0
SPLINE
  5
2C7
100
AcDbEntity
  8
0
100
AcDbSpline
 62
7
  6
BYLAYER
 70
0
 71
3
 72
10
 73
6
 74
0
 42
0.0000001
 43
0.0000001
 44
0.0000000001
 40
0.0
 40
0.0
 40
0.0
 40
0.0
 40
0.5552427154
 40
0.7977971249
 40
1.0
 40
1.0
 40
1.0
 40
1.0
 10
16.3532294059
 20
61.874506943
 30
0.0
 10
16.3627493286
 20
61.9023585525
 30
0.0
 10
16.3727632139
 20
61.9440047575
 30
0.0
 10
16.3752136742
 20
61.9969511433
 30
0.0
 10
16.3721294441
 20
62.0207687311
 30
0.0
 10
16.368412576
 20
62.0308225371
 30
0.0
  0
LINE
  5
2C8
100
AcDbEntity
  8
0
100
AcDbLine
 62
7
  6
BYLAYER
 10
16.7337220791
 20
61.5858846392
 11
16.4888636744
 21
61.2998463345
  0
SPLINE
  5
2C9
100
AcDbEntity
  8
0
100
AcDbSpline
 62
7
  6
BYLAYER
 70
0
 71
3
 72
9
 73
5
 74
0
 42
0.0000001
 43
0.0000001
 44
0.0000000001
 40
0.0
 40
0.0
 40
0.0
 40
0.0
 40
0.2587175832
 40
1.0
 40
1.0
 40
1.0
 40
1.0
 10
16.4888636744
 20
61.2998463345
 30
0.0
 10
16.5049494993
 20
61.2865767406
 30
0.0
 10
16.5680770273
 20
61.2364646124
 30
0.0
 10
16.6351111682
 20
61.1911776161
 30
0.0
 10
16.6868543975
 20
61.1613043245
 30
0.0
  0
SPLINE
  5
2CA
100
AcDbEntity
  8
0
100
AcDbSpline
 62
7
  6
BYLAYER
 70
0
 71
3
 72
9
 73
5
 74
0
 42
0.0000001
 43
0.0000001
 44
0.0000000001
 40
0.0
 40
0.0
 40
0.0
 40
0.0
 40
0.2608486176
 40
1.0
 40
1.0
 40
1.0
 40
1.0
 10
16.3599838158
 20
61.8462308908
 30
0.0
 10
16.3662066186
 20
61.7977632329
 30
0.0
 10
16.3945317874
 20
61.612593961
 30
0.0
 10
16.4416445807
 20
61.4300137216
 30
0.0
 10
16.4888636744
 20
61.2998463345
 30
0.0
  0
SPLINE
  5
2CB
100
AcDbEntity
  8
0
100
AcDbSpline
 62
7
  6
BYLAYER
 70
0
 71
3
 72
9
 73
5
 74
0
 42
0.0000001
 43
0.0000001
 44
0.0000000001
 40
0.0
 40
0.0
 40
0.0
 40
0.0
 40
0.2660603606
 40
1.0
 40
1.0
 40
1.0
 40
1.0
 10
16.3532292623
 20
61.8745070397
 30
0.0
 10
16.354051967
 20
61.872061193
 30
0.0
 10
16.3569519941
 20
61.8628075156
 30
0.0
 10
16.3590773706
 20
61.8532911034
 30
0.0
 10
16.3599838917
 20
61.8462306188
 30
0.0
  0
SPLINE
  5
2CC
100
AcDbEntity
  8
0
100
AcDbSpline
 62
7
  6
BYLAYER
 70
0
 71
3
 72
9
 73
5
 74
0
 42
0.0000001
 43
0.0000001
 44
0.0000000001
 40
0.0
 40
0.0
 40
0.0
 40
0.0
 40
0.2332980095
 40
1.0
 40
1.0
 40
1.0
 40
1.0
 10
16.1722015198
 20
62.1714774664
 30
0.0
 10
16.1740012204
 20
62.1701056868
 30
0.0
 10
16.1815369537
 20
62.1639921914
 30
0.0
 10
16.1883933347
 20
62.1570673281
 30
0.0
 10
16.1933122003
 20
62.1514897595
 30
0.0
  0
SPLINE
  5
2CD
100
AcDbEntity
  8
0
100
AcDbSpline
 62
7
  6
BYLAYER
 70
0
 71
3
 72
9
 73
5
 74
0
 42
0.0000001
 43
0.0000001
 44
0.0000000001
 40
0.0
 40
0.0
 40
0.0
 40
0.0
 40
0.2396953318
 40
1.0
 40
1.0
 40
1.0
 40
1.0
 10
15.7634608475
 20
62.556273912
 30
0.0
 10
15.7923622552
 20
62.521905966
 30
0.0
 10
15.9174024829
 20
62.3822932231
 30
0.0
 10
16.0589193051
 20
62.2578240202
 30
0.0
 10
16.1722002947
 20
62.1714782456
 30
0.0
  0
SPLINE
  5
2CE
100
AcDbEntity
  8
0
100
AcDbSpline
 62
7
  6
BYLAYER
 70
0
 71
3
 72
9
 73
5
 74
0
 42
0.0000001
 43
0.0000001
 44
0.0000000001
 40
0.0
 40
0.0
 40
0.0
 40
0.0
 40
0.4737234758
 40
1.0
 40
1.0
 40
1.0
 40
1.0
 10
15.7634608475
 20
63.0135152656
 30
0.0
 10
15.7486964213
 20
62.9425279491
 30
0.0
 10
15.735564733
 20
62.7887755306
 30
0.0
 10
15.7501378597
 20
62.6357145105
 30
0.0
 10
15.7634608475
 20
62.556273912
 30
0.0
  0
SPLINE
  5
2CF
100
AcDbEntity
  8
0
100
AcDbSpline
 62
7
  6
BYLAYER
 70
0
 71
3
 72
9
 73
5
 74
0
 42
0.0000001
 43
0.0000001
 44
0.0000000001
 40
0.0
 40
0.0
 40
0.0
 40
0.0
 40
0.2609231469
 40
1.0
 40
1.0
 40
1.0
 40
1.0
 10
37.9001461519
 20
48.9140816889
 30
0.0
 10
37.9165456413
 20
48.9046136535
 30
0.0
 10
37.9801963943
 20
48.8697552194
 30
0.0
 10
38.0471967065
 20
48.8408063833
 30
0.0
 10
38.0981368749
 20
48.8240088764
 30
0.0
  0
SPLINE
  5
2D0
100
AcDbEntity
  8
0
100
AcDbSpline
 62
7
  6
BYLAYER
 70
0
 71
3
 72
22
 73
18
 74
0
 42
0.0000001
 43
0.0000001
 44
0.0000000001
 40
0.0
 40
0.0
 40
0.0
 40
0.0
 40
0.0428185495
 40
0.0874069047
 40
0.1351970029
 40
0.1871121204
 40
0.2435668431
 40
0.3045324571
 40
0.3696374527
 40
0.4382548648
 40
0.5095618281
 40
0.5826062726
 40
0.7296243448
 40
0.801622019
 40
0.8712290834
 40
0.9376189357
 40
1.0
 40
1.0
 40
1.0
 40
1.0
 10
23.4927360754
 20
58.0907015599
 30
0.0
 10
23.4039851797
 20
58.0394605345
 30
0.0
 10
23.2357340187
 20
57.9107003847
 30
0.0
 10
23.0332635777
 20
57.6546772403
 30
0.0
 10
22.8819940194
 20
57.34156401
 30
0.0
 10
22.7839987053
 20
56.979032737
 30
0.0
 10
22.7403933757
 20
56.5746954955
 30
0.0
 10
22.7515509224
 20
56.1368842638
 30
0.0
 10
22.8169560313
 20
55.6746150345
 30
0.0
 10
22.9352221222
 20
55.1975761303
 30
0.0
 10
23.1037931206
 20
54.7157594735
 30
0.0
 10
23.3912630759
 20
54.0797168724
 30
0.0
 10
23.7594882633
 20
53.4807499917
 30
0.0
 10
24.194666471
 20
52.943395596
 30
0.0
 10
24.542554114
 20
52.586191127
 30
0.0
 10
24.9064767032
 20
52.28003746
 30
0.0
 10
25.1634158405
 20
52.1082679118
 30
0.0
 10
25.2927155217
 20
52.0336183948
 30
0.0
  0
SPLINE
  5
2D1
100
AcDbEntity
  8
0
100
AcDbSpline
 62
7
  6
BYLAYER
 70
0
 71
3
 72
9
 73
5
 74
0
 42
0.0000001
 43
0.0000001
 44
0.0000000001
 40
0.0
 40
0.0
 40
0.0
 40
0.0
 40
0.4737234758
 40
1.0
 40
1.0
 40
1.0
 40
1.0
 10
36.9767526019
 20
50.76629263
 30
0.0
 10
36.9619881757
 20
50.6953053135
 30
0.0
 10
36.9488564874
 20
50.541552895
 30
0.0
 10
36.9634296141
 20
50.3884918749
 30
0.0
 10
36.9767526019
 20
50.3090512764
 30
0.0
  0
SPLINE
  5
2D2
100
AcDbEntity
  8
0
100
AcDbSpline
 62
7
  6
BYLAYER
 70
0
 71
3
 72
9
 73
5
 74
0
 42
0.0000001
 43
0.0000001
 44
0.0000000001
 40
0.0
 40
0.0
 40
0.0
 40
0.0
 40
0.2396953318
 40
1.0
 40
1.0
 40
1.0
 40
1.0
 10
36.9767526019
 20
50.3090512764
 30
0.0
 10
37.0056540096
 20
50.2746833304
 30
0.0
 10
37.1306942373
 20
50.1350705875
 30
0.0
 10
37.2722110596
 20
50.0106013846
 30
0.0
 10
37.3854920491
 20
49.92425561
 30
0.0
  0
SPLINE
  5
2D3
100
AcDbEntity
  8
0
100
AcDbSpline
 62
7
  6
BYLAYER
 70
0
 71
3
 72
9
 73
5
 74
0
 42
0.0000001
 43
0.0000001
 44
0.0000000001
 40
0.0
 40
0.0
 40
0.0
 40
0.0
 40
0.2332980095
 40
1.0
 40
1.0
 40
1.0
 40
1.0
 10
37.3854932742
 20
49.9242548307
 30
0.0
 10
37.3872929748
 20
49.9228830512
 30
0.0
 10
37.3948287081
 20
49.9167695558
 30
0.0
 10
37.4016850891
 20
49.9098446925
 30
0.0
 10
37.4066039547
 20
49.9042671239
 30
0.0
  0
SPLINE
  5
2D4
100
AcDbEntity
  8
0
100
AcDbSpline
 62
7
  6
BYLAYER
 70
0
 71
3
 72
9
 73
5
 74
0
 42
0.0000001
 43
0.0000001
 44
0.0000000001
 40
0.0
 40
0.0
 40
0.0
 40
0.0
 40
0.2660603606
 40
1.0
 40
1.0
 40
1.0
 40
1.0
 10
37.5665210167
 20
49.6272844041
 30
0.0
 10
37.5673437214
 20
49.6248385574
 30
0.0
 10
37.5702437485
 20
49.61558488
 30
0.0
 10
37.572369125
 20
49.6060684678
 30
0.0
 10
37.5732756461
 20
49.5990079832
 30
0.0
  0
SPLINE
  5
2D5
100
AcDbEntity
  8
0
100
AcDbSpline
 62
7
  6
BYLAYER
 70
0
 71
3
 72
9
 73
5
 74
0
 42
0.0000001
 43
0.0000001
 44
0.0000000001
 40
0.0
 40
0.0
 40
0.0
 40
0.0
 40
0.2608486176
 40
1.0
 40
1.0
 40
1.0
 40
1.0
 10
37.5732755702
 20
49.5990082551
 30
0.0
 10
37.579498373
 20
49.5505405973
 30
0.0
 10
37.6078235418
 20
49.3653713254
 30
0.0
 10
37.6549363351
 20
49.182791086
 30
0.0
 10
37.7021554288
 20
49.0526236989
 30
0.0
  0
SPLINE
  5
2D6
100
AcDbEntity
  8
0
100
AcDbSpline
 62
7
  6
BYLAYER
 70
0
 71
3
 72
9
 73
5
 74
0
 42
0.0000001
 43
0.0000001
 44
0.0000000001
 40
0.0
 40
0.0
 40
0.0
 40
0.0
 40
0.2587175832
 40
1.0
 40
1.0
 40
1.0
 40
1.0
 10
37.7021554288
 20
49.0526236989
 30
0.0
 10
37.7182412537
 20
49.0393541049
 30
0.0
 10
37.7813687817
 20
48.9892419768
 30
0.0
 10
37.8484029226
 20
48.9439549805
 30
0.0
 10
37.9001461519
 20
48.9140816889
 30
0.0
  0
SPLINE
  5
2D7
100
AcDbEntity
  8
0
100
AcDbSpline
 62
7
  6
BYLAYER
 70
0
 71
3
 72
22
 73
18
 74
0
 42
0.0000001
 43
0.0000001
 44
0.0000000001
 40
0.0
 40
0.0
 40
0.0
 40
0.0
 40
0.0428185495
 40
0.0874069047
 40
0.1351970029
 40
0.1871121204
 40
0.2435668431
 40
0.3045324571
 40
0.3696374527
 40
0.4382548648
 40
0.5095618281
 40
0.5826062726
 40
0.7296243448
 40
0.801622019
 40
0.8712290834
 40
0.9376189357
 40
1.0
 40
1.0
 40
1.0
 40
1.0
 10
12.8860901982
 20
64.2143128777
 30
0.0
 10
12.7973393025
 20
64.1630718523
 30
0.0
 10
12.6290881415
 20
64.0343117025
 30
0.0
 10
12.4266177005
 20
63.7782885581
 30
0.0
 10
12.2753481422
 20
63.4651753278
 30
0.0
 10
12.1773528281
 20
63.1026440548
 30
0.0
 10
12.1337474985
 20
62.6983068133
 30
0.0
 10
12.1449050452
 20
62.2604955816
 30
0.0
 10
12.2103101541
 20
61.7982263523
 30
0.0
 10
12.328576245
 20
61.3211874481
 30
0.0
 10
12.4971472434
 20
60.8393707913
 30
0.0
 10
12.7846171987
 20
60.2033281903
 30
0.0
 10
13.1528423861
 20
59.6043613095
 30
0.0
 10
13.5880205938
 20
59.0670069138
 30
0.0
 10
13.9359082368
 20
58.7098024448
 30
0.0
 10
14.299830826
 20
58.4036487778
 30
0.0
 10
14.5567699633
 20
58.2318792296
 30
0.0
 10
14.6860696445
 20
58.1572297126
 30
0.0
  0
SPLINE
  5
2D8
100
AcDbEntity
  8
0
100
AcDbSpline
 62
7
  6
BYLAYER
 70
0
 71
3
 72
9
 73
5
 74
0
 42
0.0000001
 43
0.0000001
 44
0.0000000001
 40
0.0
 40
0.0
 40
0.0
 40
0.0
 40
0.2609231469
 40
1.0
 40
1.0
 40
1.0
 40
1.0
 10
16.6868543975
 20
61.1613043245
 30
0.0
 10
16.7032538869
 20
61.1518362891
 30
0.0
 10
16.7669046399
 20
61.116977855
 30
0.0
 10
16.8339049521
 20
61.0880290189
 30
0.0
 10
16.8848451205
 20
61.071231512
 30
0.0
  0
LINE
  5
2D9
100
AcDbEntity
  8
0
100
AcDbLine
 62
7
  6
BYLAYER
 10
37.9470138335
 20
49.3386620036
 11
37.7021554288
 21
49.0526236989
  0
SPLINE
  5
2DA
100
AcDbEntity
  8
0
100
AcDbSpline
 62
7
  6
BYLAYER
 70
0
 71
3
 72
10
 73
6
 74
0
 42
0.0000001
 43
0.0000001
 44
0.0000000001
 40
0.0
 40
0.0
 40
0.0
 40
0.0
 40
0.5552427154
 40
0.7977971249
 40
1.0
 40
1.0
 40
1.0
 40
1.0
 10
37.5665211603
 20
49.6272843074
 30
0.0
 10
37.576041083
 20
49.6551359169
 30
0.0
 10
37.5860549683
 20
49.6967821219
 30
0.0
 10
37.5885054286
 20
49.7497285077
 30
0.0
 10
37.5854211985
 20
49.7735460955
 30
0.0
 10
37.5817043304
 20
49.7835999015
 30
0.0
  0
SPLINE
  5
2DB
100
AcDbEntity
  8
0
100
AcDbSpline
 62
7
  6
BYLAYER
 70
0
 71
3
 72
11
 73
7
 74
0
 42
0.0000001
 43
0.0000001
 44
0.0000000001
 40
0.0
 40
0.0
 40
0.0
 40
0.0
 40
0.2687267666
 40
0.4995484099
 40
0.7250030988
 40
1.0
 40
1.0
 40
1.0
 40
1.0
 10
37.5817043304
 20
49.7835999015
 30
0.0
 10
37.5802402625
 20
49.7875600785
 30
0.0
 10
37.5767148308
 20
49.7946640861
 30
0.0
 10
37.5681525856
 20
49.802877284
 30
0.0
 10
37.5561156604
 20
49.8047813917
 30
0.0
 10
37.5485944394
 20
49.8015887015
 30
0.0
 10
37.5448526633
 20
49.7994283322
 30
0.0
  0
SPLINE
  5
2DC
100
AcDbEntity
  8
0
100
AcDbSpline
 62
7
  6
BYLAYER
 70
0
 71
3
 72
9
 73
5
 74
0
 42
0.0000001
 43
0.0000001
 44
0.0000000001
 40
0.0
 40
0.0
 40
0.0
 40
0.0
 40
0.5115820595
 40
1.0
 40
1.0
 40
1.0
 40
1.0
 10
37.5665211603
 20
49.6272843074
 30
0.0
 10
37.5197081655
 20
49.6230752036
 30
0.0
 10
37.427228845
 20
49.6226942009
 30
0.0
 10
37.3363895742
 20
49.6408639687
 30
0.0
 10
37.2935936285
 20
49.6543602417
 30
0.0
  0
SPLINE
  5
2DD
100
AcDbEntity
  8
0
100
AcDbSpline
 62
7
  6
BYLAYER
 70
0
 71
3
 72
9
 73
5
 74
0
 42
0.0000001
 43
0.0000001
 44
0.0000000001
 40
0.0
 40
0.0
 40
0.0
 40
0.0
 40
0.488419231
 40
1.0
 40
1.0
 40
1.0
 40
1.0
 10
37.2935936285
 20
49.6543602417
 30
0.0
 10
37.3033026313
 20
49.6981717429
 30
0.0
 10
37.3329849697
 20
49.7859277715
 30
0.0
 10
37.3795530497
 20
49.8658291864
 30
0.0
 10
37.4066040459
 20
49.9042670666
 30
0.0
  0
SPLINE
  5
2DE
100
AcDbEntity
  8
0
100
AcDbSpline
 62
7
  6
BYLAYER
 70
0
 71
3
 72
17
 73
13
 74
0
 42
0.0000001
 43
0.0000001
 44
0.0000000001
 40
0.0
 40
0.0
 40
0.0
 40
0.0
 40
0.1656797551
 40
0.3249982876
 40
0.4749525403
 40
0.6122588946
 40
0.7325139119
 40
0.7847651467
 40
0.8311356614
 40
0.8722090354
 40
0.9107224274
 40
1.0
 40
1.0
 40
1.0
 40
1.0
 10
37.4066040459
 20
49.9042670666
 30
0.0
 10
37.4177797836
 20
49.902068622
 30
0.0
 10
37.4395399701
 20
49.8968791491
 30
0.0
 10
37.470644765
 20
49.8868489928
 30
0.0
 10
37.4990139238
 20
49.8749852156
 30
0.0
 10
37.5236567882
 20
49.8615706488
 30
0.0
 10
37.5408926283
 20
49.848799384
 30
0.0
 10
37.5511061014
 20
49.8376767796
 30
0.0
 10
37.5562758242
 20
49.8294993116
 30
0.0
 10
37.5588552886
 20
49.8210686947
 30
0.0
 10
37.5575727906
 20
49.8091130225
 30
0.0
 10
37.5501678867
 20
49.8024971544
 30
0.0
 10
37.5448526633
 20
49.7994283322
 30
0.0
  0
LINE
  5
2DF
100
AcDbEntity
  8
0
100
AcDbLine
 62
7
  6
BYLAYER
 10
36.9767526019
 20
50.3090512764
 11
37.3282585227
 21
50.3746276533
  0
SPLINE
  5
2E0
100
AcDbEntity
  8
0
100
AcDbSpline
 62
7
  6
BYLAYER
 70
0
 71
3
 72
9
 73
5
 74
0
 42
0.0000001
 43
0.0000001
 44
0.0000000001
 40
0.0
 40
0.0
 40
0.0
 40
0.0
 40
0.2609231469
 40
1.0
 40
1.0
 40
1.0
 40
1.0
 10
27.2935002747
 20
55.0376930067
 30
0.0
 10
27.3098997641
 20
55.0282249713
 30
0.0
 10
27.3735505171
 20
54.9933665372
 30
0.0
 10
27.4405508293
 20
54.9644177011
 30
0.0
 10
27.4914909977
 20
54.9476201942
 30
0.0
  0
SPLINE
  5
2E1
100
AcDbEntity
  8
0
100
AcDbSpline
 62
7
  6
BYLAYER
 70
0
 71
3
 72
9
 73
5
 74
0
 42
0.0000001
 43
0.0000001
 44
0.0000000001
 40
0.0
 40
0.0
 40
0.0
 40
0.0
 40
0.4737234758
 40
1.0
 40
1.0
 40
1.0
 40
1.0
 10
26.3701067247
 20
56.8899039478
 30
0.0
 10
26.3553422985
 20
56.8189166313
 30
0.0
 10
26.3422106102
 20
56.6651642128
 30
0.0
 10
26.3567837369
 20
56.5121031927
 30
0.0
 10
26.3701067247
 20
56.4326625942
 30
0.0
  0
SPLINE
  5
2E2
100
AcDbEntity
  8
0
100
AcDbSpline
 62
7
  6
BYLAYER
 70
0
 71
3
 72
9
 73
5
 74
0
 42
0.0000001
 43
0.0000001
 44
0.0000000001
 40
0.0
 40
0.0
 40
0.0
 40
0.0
 40
0.2396953318
 40
1.0
 40
1.0
 40
1.0
 40
1.0
 10
26.3701067247
 20
56.4326625942
 30
0.0
 10
26.3990081324
 20
56.3982946482
 30
0.0
 10
26.5240483601
 20
56.2586819053
 30
0.0
 10
26.6655651823
 20
56.1342127024
 30
0.0
 10
26.7788461719
 20
56.0478669278
 30
0.0
  0
SPLINE
  5
2E3
100
AcDbEntity
  8
0
100
AcDbSpline
 62
7
  6
BYLAYER
 70
0
 71
3
 72
9
 73
5
 74
0
 42
0.0000001
 43
0.0000001
 44
0.0000000001
 40
0.0
 40
0.0
 40
0.0
 40
0.0
 40
0.2332980095
 40
1.0
 40
1.0
 40
1.0
 40
1.0
 10
26.778847397
 20
56.0478661485
 30
0.0
 10
26.7806470976
 20
56.046494369
 30
0.0
 10
26.7881828309
 20
56.0403808736
 30
0.0
 10
26.7950392119
 20
56.0334560103
 30
0.0
 10
26.7999580775
 20
56.0278784417
 30
0.0
  0
SPLINE
  5
2E4
100
AcDbEntity
  8
0
100
AcDbSpline
 62
7
  6
BYLAYER
 70
0
 71
3
 72
9
 73
5
 74
0
 42
0.0000001
 43
0.0000001
 44
0.0000000001
 40
0.0
 40
0.0
 40
0.0
 40
0.0
 40
0.2660603606
 40
1.0
 40
1.0
 40
1.0
 40
1.0
 10
26.9598751395
 20
55.7508957219
 30
0.0
 10
26.9606978442
 20
55.7484498752
 30
0.0
 10
26.9635978713
 20
55.7391961978
 30
0.0
 10
26.9657232478
 20
55.7296797856
 30
0.0
 10
26.9666297689
 20
55.722619301
 30
0.0
  0
SPLINE
  5
2E5
100
AcDbEntity
  8
0
100
AcDbSpline
 62
7
  6
BYLAYER
 70
0
 71
3
 72
9
 73
5
 74
0
 42
0.0000001
 43
0.0000001
 44
0.0000000001
 40
0.0
 40
0.0
 40
0.0
 40
0.0
 40
0.2608486176
 40
1.0
 40
1.0
 40
1.0
 40
1.0
 10
26.966629693
 20
55.7226195729
 30
0.0
 10
26.9728524958
 20
55.6741519151
 30
0.0
 10
27.0011776646
 20
55.4889826432
 30
0.0
 10
27.0482904579
 20
55.3064024038
 30
0.0
 10
27.0955095516
 20
55.1762350167
 30
0.0
  0
SPLINE
  5
2E6
100
AcDbEntity
  8
0
100
AcDbSpline
 62
7
  6
BYLAYER
 70
0
 71
3
 72
9
 73
5
 74
0
 42
0.0000001
 43
0.0000001
 44
0.0000000001
 40
0.0
 40
0.0
 40
0.0
 40
0.0
 40
0.2587175832
 40
1.0
 40
1.0
 40
1.0
 40
1.0
 10
27.0955095516
 20
55.1762350167
 30
0.0
 10
27.1115953765
 20
55.1629654228
 30
0.0
 10
27.1747229045
 20
55.1128532946
 30
0.0
 10
27.2417570454
 20
55.0675662983
 30
0.0
 10
27.2935002747
 20
55.0376930067
 30
0.0
  0
LINE
  5
2E7
100
AcDbEntity
  8
0
100
AcDbLine
 62
7
  6
BYLAYER
 10
26.3701067247
 20
56.4326625942
 11
26.7216126455
 21
56.4982389711
  0
SPLINE
  5
2E8
100
AcDbEntity
  8
0
100
AcDbSpline
 62
7
  6
BYLAYER
 70
0
 71
3
 72
17
 73
13
 74
0
 42
0.0000001
 43
0.0000001
 44
0.0000000001
 40
0.0
 40
0.0
 40
0.0
 40
0.0
 40
0.1656797551
 40
0.3249982876
 40
0.4749525403
 40
0.6122588946
 40
0.7325139119
 40
0.7847651467
 40
0.8311356614
 40
0.8722090354
 40
0.9107224274
 40
1.0
 40
1.0
 40
1.0
 40
1.0
 10
26.7999581687
 20
56.0278783844
 30
0.0
 10
26.8111339064
 20
56.0256799398
 30
0.0
 10
26.8328940929
 20
56.0204904669
 30
0.0
 10
26.8639988878
 20
56.0104603106
 30
0.0
 10
26.8923680466
 20
55.9985965334
 30
0.0
 10
26.917010911
 20
55.9851819666
 30
0.0
 10
26.9342467511
 20
55.9724107018
 30
0.0
 10
26.9444602242
 20
55.9612880975
 30
0.0
 10
26.949629947
 20
55.9531106294
 30
0.0
 10
26.9522094114
 20
55.9446800125
 30
0.0
 10
26.9509269134
 20
55.9327243404
 30
0.0
 10
26.9435220095
 20
55.9261084722
 30
0.0
 10
26.9382067861
 20
55.92303965
 30
0.0
  0
LINE
  5
2E9
100
AcDbEntity
  8
0
100
AcDbLine
 62
7
  6
BYLAYER
 10
27.3403679563
 20
55.4622733214
 11
27.0955095516
 21
55.1762350167
  0
SPLINE
  5
2EA
100
AcDbEntity
  8
0
100
AcDbSpline
 62
7
  6
BYLAYER
 70
0
 71
3
 72
10
 73
6
 74
0
 42
0.0000001
 43
0.0000001
 44
0.0000000001
 40
0.0
 40
0.0
 40
0.0
 40
0.0
 40
0.5552427154
 40
0.7977971249
 40
1.0
 40
1.0
 40
1.0
 40
1.0
 10
26.9598752831
 20
55.7508956252
 30
0.0
 10
26.9693952058
 20
55.7787472347
 30
0.0
 10
26.9794090911
 20
55.8203934397
 30
0.0
 10
26.9818595514
 20
55.8733398255
 30
0.0
 10
26.9787753213
 20
55.8971574133
 30
0.0
 10
26.9750584532
 20
55.9072112193
 30
0.0
  0
SPLINE
  5
2EB
100
AcDbEntity
  8
0
100
AcDbSpline
 62
7
  6
BYLAYER
 70
0
 71
3
 72
11
 73
7
 74
0
 42
0.0000001
 43
0.0000001
 44
0.0000000001
 40
0.0
 40
0.0
 40
0.0
 40
0.0
 40
0.2687267666
 40
0.4995484099
 40
0.7250030988
 40
1.0
 40
1.0
 40
1.0
 40
1.0
 10
26.9750584532
 20
55.9072112193
 30
0.0
 10
26.9735943853
 20
55.9111713963
 30
0.0
 10
26.9700689536
 20
55.9182754039
 30
0.0
 10
26.9615067084
 20
55.9264886018
 30
0.0
 10
26.9494697832
 20
55.9283927095
 30
0.0
 10
26.9419485622
 20
55.9252000193
 30
0.0
 10
26.9382067861
 20
55.92303965
 30
0.0
  0
SPLINE
  5
2EC
100
AcDbEntity
  8
0
100
AcDbSpline
 62
7
  6
BYLAYER
 70
0
 71
3
 72
9
 73
5
 74
0
 42
0.0000001
 43
0.0000001
 44
0.0000000001
 40
0.0
 40
0.0
 40
0.0
 40
0.0
 40
0.5115820595
 40
1.0
 40
1.0
 40
1.0
 40
1.0
 10
26.9598752831
 20
55.7508956252
 30
0.0
 10
26.9130622883
 20
55.7466865214
 30
0.0
 10
26.8205829678
 20
55.7463055187
 30
0.0
 10
26.729743697
 20
55.7644752865
 30
0.0
 10
26.6869477513
 20
55.7779715595
 30
0.0
  0
SPLINE
  5
2ED
100
AcDbEntity
  8
0
100
AcDbSpline
 62
7
  6
BYLAYER
 70
0
 71
3
 72
9
 73
5
 74
0
 42
0.0000001
 43
0.0000001
 44
0.0000000001
 40
0.0
 40
0.0
 40
0.0
 40
0.0
 40
0.488419231
 40
1.0
 40
1.0
 40
1.0
 40
1.0
 10
26.6869477513
 20
55.7779715595
 30
0.0
 10
26.6966567541
 20
55.8217830607
 30
0.0
 10
26.7263390925
 20
55.9095390893
 30
0.0
 10
26.7729071725
 20
55.9894405042
 30
0.0
 10
26.7999581687
 20
56.0278783844
 30
0.0
  0
ENDSEC
  0
SECTION
  2
OBJECTS
  0
DICTIONARY
  5
C
100
AcDbDictionary
280
0
281
1
  3
ACAD_GROUP
350
D
  3
ACAD_MLINESTYLE
350
17
  3
ACAD_LAYOUT
350
1A
  3
ACAD_PLOTSETTINGS
350
19
  3
ACAD_PLOTSTYLENAME
350
E
  0
DICTIONARY
  5
D
102
{ACAD_REACTORS
330
C
102
}
100
AcDbDictionary
280
0
281
1
  0
ACDBDICTIONARYWDFLT
  5
E
102
{ACAD_REACTORS
330
C
102
}
100
AcDbDictionary
281
1
  3
Normal
350
F
100
AcDbDictionaryWithDefault
340
F
  0
DICTIONARY
  5
17
102
{ACAD_REACTORS
330
C
102
}
100
AcDbDictionary
280
0
281
1
  3
Standard
350
18
  0
DICTIONARY
  5
19
102
{ACAD_REACTORS
330
C
102
}
100
AcDbDictionary
281
1
  0
DICTIONARY
  5
1A
102
{ACAD_REACTORS
330
C
102
}
100
AcDbDictionary
281
1
  3
Model
350
2EE
  3
Layout1
350
2EF
  0
ACDBPLACEHOLDER
  5
F
102
{ACAD_REACTORS
330
E
102
}
  0
MLINESTYLE
  5
18
102
{ACAD_REACTORS
330
17
102
}
100
AcDbMlineStyle
  2
STANDARD
 70
0
  3

 62
256
 51
90.0
 52
90.0
 71
2
 49
0.5
 62
256
  6
BYLAYER
 49
-0.5
 62
256
  6
BYLAYER
  0
LAYOUT
  5
2EE
102
{ACAD_REACTORS
330
1A
102
}
100
AcDbPlotSettings
  1

  2
none_device
  4

  6

 40
0.0
 41
0.0
 42
0.0
 43
0.0
 44
210.0
 45
297.0
 46
0.0
 47
0.0
 48
0.0
 49
0.0
140
0.0
141
0.0
142
1.0
143
1.0
 70
1024
 72
1
 73
0
 74
0
  7

 75
0
147
1.0
148
0.0
149
0.0
100
AcDbLayout
  1
Model
 70
0
 71
0
 10
0.0
 20
0.0
 11
210.0
 21
297.0
 12
0.0
 22
0.0
 32
0.0
 14
0.0
 24
0.0
 34
0.0
 15
0.0
 25
0.0
 35
0.0
146
0.0
 13
0.0
 23
0.0
 33
0.0
 16
1.0
 26
0.0
 36
0.0
 17
0.0
 27
1.0
 37
0.0
 76
0
330
210
345
0
346
0
  0
LAYOUT
  5
2EF
102
{ACAD_REACTORS
330
1A
102
}
100
AcDbPlotSettings
  1

  2
none_device
  4

  6

 40
0.0
 41
0.0
 42
0.0
 43
0.0
 44
210.0
 45
297.0
 46
0.0
 47
0.0
 48
0.0
 49
0.0
140
0.0
141
0.0
142
1.0
143
1.0
 70
0
 72
1
 73
0
 74
0
  7

 75
0
147
1.0
148
0.0
149
0.0
100
AcDbLayout
  1
Layout1
 70
0
 71
1
 10
0.0
 20
0.0
 11
210.0
 21
297.0
 12
0.0
 22
0.0
 32
0.0
 14
0.0
 24
0.0
 34
0.0
 15
0.0
 25
0.0
 35
0.0
146
0.0
 13
0.0
 23
0.0
 33
0.0
 16
1.0
 26
0.0
 36
0.0
 17
0.0
 27
1.0
 37
0.0
 76
0
330
211
345
0
346
0
  0
ENDSEC
  0
EOF
