999
DXF file: C:\Users\sesa63760\Dev\_Creo\CAD\MCADID0004240_3D-CAD\drw0001_5.dxf
999
Pro/ENGINEER 2019471 by Parametric Technology Corporation
  0
SECTION
  2
HEADER
  9
$ACADVER
  1
AC1024
  9
$DWGCODEPAGE
  3
ANSI_1252
  9
$EXTMAX
 10
458.1835715889
 20
648.0024798186
 30
0.0
  9
$EXTMIN
 10
0.0
 20
0.0
 30
0.0
  9
$LIMMIN
 10
0.0
 20
0.0
  9
$LIMMAX
 10
458.1835715889
 20
648.0024798186
  9
$VIEWCTR
 10
229.0917857944
 20
324.0012399093
  9
$VIEWSIZE
 40
648.0024798186
  9
$CLAYER
  8
0
  9
$LTSCALE
 40
42.2401616474
  9
$CELTYPE
  6
BYLAYER
  9
$DIMSCALE
 40
1.0
  9
$DIMASZ
 40
5.4545663284
  9
$DIMEXO
 40
1.0
  9
$DIMDLI
 40
29.1841116837
  9
$DIMEXE
 40
1.0
  9
$DIMCEN
 40
6.9120264514
  9
$DIMLFAC
 40
1.0
  9
$DIMBLK
  1
_FILLED
  9
$DIMALT
 70
0
  9
$DIMALTF
 40
0.0393700787
  9
$DIMTXT
 40
7.6363928598
  9
$DIMTOL
 70
1
  9
$DIMLIM
 70
0
  9
$DIMTFAC
 40
1.0
  9
$DIMTP
 40
0.01
  9
$DIMTM
 40
0.01
  9
$DIMGAP
 40
0.625
  9
$DIMDSEP
 70
46
  9
$AUNITS
 70
0
  9
$PDMODE
 70
3
  9
$PDSIZE
 40
0.3125
  9
$HANDSEED
  5
35D
  9
$TILEMODE
 70
1
  9
$MEASUREMENT
 70
1
  9
$INSUNITS
 70
4
  0
ENDSEC
  0
SECTION
  2
CLASSES
  0
CLASS
  1
ACDBDICTIONARYWDFLT
  2
AcDbDictionaryWithDefault
  3
AutoCAD 2000
 90
0
 91
1
280
0
281
0
  0
CLASS
  1
ACDBPLACEHOLDER
  2
AcDbPlaceHolder
  3
AutoCAD 2000
 90
0
 91
1
280
0
281
0
  0
CLASS
  1
LAYOUT
  2
AcDbLayout
  3
AutoCAD 2000
 90
0
 91
0
280
0
281
0
  0
ENDSEC
  0
SECTION
  2
TABLES
  0
TABLE
  2
VPORT
  5
8
100
AcDbSymbolTable
 70
2
  0
VPORT
  5
1F4
100
AcDbSymbolTableRecord
100
AcDbViewportTableRecord
  2
*ACTIVE
 70
0
 10
0.0
 20
0.0
 11
1.0
 21
1.0
 12
229.0917857944
 22
324.0012399093
 13
0.0
 23
0.0
 14
1.0
 24
1.0
 15
0.0
 25
0.0
 16
0.0
 26
0.0
 36
1.0
 17
0.0
 27
0.0
 37
0.0
 40
648.0024798186
 41
0.7070707071
 42
50.0
 43
0.0
 44
0.0
 50
0.0
 51
0.0
 71
0
 72
100
 73
1
 74
1
 75
0
 76
0
 77
0
 78
0
  0
ENDTAB
  0
TABLE
  2
LTYPE
  5
5
100
AcDbSymbolTable
 70
6
  0
LTYPE
  5
14
100
AcDbSymbolTableRecord
100
AcDbLinetypeTableRecord
  2
BYBLOCK
 70
0
  3

 72
65
 73
0
 40
0.0
  0
LTYPE
  5
15
100
AcDbSymbolTableRecord
100
AcDbLinetypeTableRecord
  2
BYLAYER
 70
0
  3

 72
65
 73
0
 40
0.0
  0
LTYPE
  5
16
100
AcDbSymbolTableRecord
100
AcDbLinetypeTableRecord
  2
CONTINUOUS
 70
64
  3
Solid line
 72
65
 73
0
 40
0.0
  0
LTYPE
  5
1F5
100
AcDbSymbolTableRecord
100
AcDbLinetypeTableRecord
  2
CENTER
 70
64
  3
____ _ ____ _ ____ _ ____ _ ____ _ ____ _ ____
 72
65
 73
4
 40
0.6
 49
0.375
 74
0
 49
-0.075
 74
0
 49
0.075
 74
0
 49
-0.075
 74
0
  0
LTYPE
  5
1F6
100
AcDbSymbolTableRecord
100
AcDbLinetypeTableRecord
  2
HIDDEN
 70
64
  3
- - - - - - - - - - - - - - - - - - - -
 72
65
 73
2
 40
0.2
 49
0.1
 74
0
 49
-0.1
 74
0
  0
LTYPE
  5
1F7
100
AcDbSymbolTableRecord
100
AcDbLinetypeTableRecord
  2
PHANTOM
 70
64
  3
_____ _ _ _____ _ _ _____ _ _ _____
 72
65
 73
6
 40
0.8
 49
0.45
 74
0
 49
-0.05
 74
0
 49
0.1
 74
0
 49
-0.05
 74
0
 49
0.1
 74
0
 49
-0.05
 74
0
  0
LTYPE
  5
1F8
100
AcDbSymbolTableRecord
100
AcDbLinetypeTableRecord
  2
DOT
 70
64
  3
. . . . . . . . . . . . . . . . . . . .
 72
65
 73
2
 40
0.2
 49
0.1
 74
0
 49
-0.1
 74
0
  0
LTYPE
  5
1F9
100
AcDbSymbolTableRecord
100
AcDbLinetypeTableRecord
  2
DASHED
 70
64
  3
- - - - - - - - - - - - - - - - - - - -
 72
65
 73
2
 40
0.2
 49
0.1
 74
0
 49
-0.1
 74
0
  0
ENDTAB
  0
TABLE
  2
LAYER
  5
2
100
AcDbSymbolTable
 70
36
  0
LAYER
  5
10
100
AcDbSymbolTableRecord
100
AcDbLayerTableRecord
  2
0
 70
0
 62
7
  6
CONTINUOUS
370
-3
390
F
  0
LAYER
  5
1FA
100
AcDbSymbolTableRecord
100
AcDbLayerTableRecord
  2
DEFAULT_1
 70
0
 62
7
  6
CENTER
370
-3
390
F
  0
LAYER
  5
1FB
100
AcDbSymbolTableRecord
100
AcDbLayerTableRecord
  2
DEFAULT_2
 70
0
 62
7
  6
HIDDEN
370
-3
390
F
  0
LAYER
  5
1FC
100
AcDbSymbolTableRecord
100
AcDbLayerTableRecord
  2
DEFAULT_3
 70
0
 62
7
  6
PHANTOM
370
-3
390
F
  0
LAYER
  5
1FD
100
AcDbSymbolTableRecord
100
AcDbLayerTableRecord
  2
00_COMPONENTS
 70
0
 62
7
  6
CONTINUOUS
370
-3
390
F
  0
LAYER
  5
1FE
100
AcDbSymbolTableRecord
100
AcDbLayerTableRecord
  2
01_1_DEFAULT_DATUMS
 70
0
 62
7
  6
CONTINUOUS
370
-3
390
F
  0
LAYER
  5
1FF
100
AcDbSymbolTableRecord
100
AcDbLayerTableRecord
  2
01_PLANES
 70
0
 62
7
  6
CONTINUOUS
370
-3
390
F
  0
LAYER
  5
200
100
AcDbSymbolTableRecord
100
AcDbLayerTableRecord
  2
02_COORD_SYS
 70
0
 62
7
  6
CONTINUOUS
370
-3
390
F
  0
LAYER
  5
201
100
AcDbSymbolTableRecord
100
AcDbLayerTableRecord
  2
03_AXES
 70
0
 62
7
  6
CONTINUOUS
370
-3
390
F
  0
LAYER
  5
202
100
AcDbSymbolTableRecord
100
AcDbLayerTableRecord
  2
04_POINTS
 70
0
 62
7
  6
CONTINUOUS
370
-3
390
F
  0
LAYER
  5
203
100
AcDbSymbolTableRecord
100
AcDbLayerTableRecord
  2
05_CURVES
 70
0
 62
7
  6
CONTINUOUS
370
-3
390
F
  0
LAYER
  5
204
100
AcDbSymbolTableRecord
100
AcDbLayerTableRecord
  2
06_SURFS
 70
0
 62
7
  6
CONTINUOUS
370
-3
390
F
  0
LAYER
  5
205
100
AcDbSymbolTableRecord
100
AcDbLayerTableRecord
  2
07_COSMETICS
 70
0
 62
7
  6
CONTINUOUS
370
-3
390
F
  0
LAYER
  5
206
100
AcDbSymbolTableRecord
100
AcDbLayerTableRecord
  2
10_NOTES
 70
0
 62
7
  6
CONTINUOUS
370
-3
390
F
  0
LAYER
  5
207
100
AcDbSymbolTableRecord
100
AcDbLayerTableRecord
  2
11_NOTES_PUB
 70
0
 62
7
  6
CONTINUOUS
370
-3
390
F
  0
LAYER
  5
208
100
AcDbSymbolTableRecord
100
AcDbLayerTableRecord
  2
13_REF_GTOL
 70
0
 62
7
  6
CONTINUOUS
370
-3
390
F
  0
LAYER
  5
209
100
AcDbSymbolTableRecord
100
AcDbLayerTableRecord
  2
16_MISC
 70
0
 62
7
  6
CONTINUOUS
370
-3
390
F
  0
LAYER
  5
20A
100
AcDbSymbolTableRecord
100
AcDbLayerTableRecord
  2
17_NO_PRINT
 70
0
 62
7
  6
CONTINUOUS
370
-3
390
F
  0
LAYER
  5
20B
100
AcDbSymbolTableRecord
100
AcDbLayerTableRecord
  2
18_DATUM_CAMS_JOINTS
 70
0
 62
7
  6
CONTINUOUS
370
-3
390
F
  0
LAYER
  5
20C
100
AcDbSymbolTableRecord
100
AcDbLayerTableRecord
  2
19_DATUM_FUNCTIONAL
 70
0
 62
7
  6
CONTINUOUS
370
-3
390
F
  0
LAYER
  5
20D
100
AcDbSymbolTableRecord
100
AcDbLayerTableRecord
  2
20_DATUM_KINEMATIC_SCHEME
 70
0
 62
7
  6
CONTINUOUS
370
-3
390
F
  0
LAYER
  5
20E
100
AcDbSymbolTableRecord
100
AcDbLayerTableRecord
  2
3
 70
0
 62
7
  6
CONTINUOUS
370
-3
390
F
  0
LAYER
  5
20F
100
AcDbSymbolTableRecord
100
AcDbLayerTableRecord
  2
4
 70
0
 62
7
  6
CONTINUOUS
370
-3
390
F
  0
ENDTAB
  0
TABLE
  2
STYLE
  5
3
100
AcDbSymbolTable
 70
1
  0
STYLE
  5
11
100
AcDbSymbolTableRecord
100
AcDbTextStyleTableRecord
  2
STANDARD
 70
0
 40
0.0
 41
1.0
 50
0.0
 71
0
 42
0.2
  3
ARIAL.TTF
  4

  0
STYLE
  5
210
100
AcDbSymbolTableRecord
100
AcDbTextStyleTableRecord
  2
TEXTSTYLE_1
 70
0
 40
0.0
 41
0.8
 50
0.0
 71
0
 42
0.2
  3
gdt
  4

  0
ENDTAB
  0
TABLE
  2
VIEW
  5
6
100
AcDbSymbolTable
 70
0
  0
ENDTAB
  0
TABLE
  2
UCS
  5
7
100
AcDbSymbolTable
 70
0
  0
ENDTAB
  0
TABLE
  2
APPID
  5
9
100
AcDbSymbolTable
 70
1
  0
APPID
  5
211
100
AcDbSymbolTableRecord
100
AcDbRegAppTableRecord
  2
ACAD
 70
0
  0
ENDTAB
  0
TABLE
  2
BLOCK_RECORD
  5
1
100
AcDbSymbolTable
 70
0
  0
BLOCK_RECORD
  5
212
100
AcDbSymbolTableRecord
100
AcDbBlockTableRecord
  2
*Model_Space
  0
BLOCK_RECORD
  5
213
100
AcDbSymbolTableRecord
100
AcDbBlockTableRecord
  2
*Paper_Space
  0
BLOCK_RECORD
  5
214
100
AcDbSymbolTableRecord
100
AcDbBlockTableRecord
  2
_FILLED
  0
ENDTAB
  0
TABLE
  2
DIMSTYLE
  5
A
100
AcDbSymbolTable
 70
1
100
AcDbDimStyleTable
 71
0
  0
DIMSTYLE
105
215
100
AcDbSymbolTableRecord
100
AcDbDimStyleTableRecord
  2
STANDARD
 70
0
  3

  4

 40
1.0
 41
5.4545663284
 42
1.0
 43
0.38
 44
1.0
 45
0.0
 46
0.0
 47
0.01
 48
0.01
140
7.6363928598
141
0.09
142
0.0
143
25.4
144
1.0
145
0.0
146
1.0
147
0.625
 71
1
 72
0
 73
0
 74
0
 75
0
 76
0
 77
1
 78
8
 79
2
170
0
171
1
172
0
173
0
174
0
175
0
176
0
177
0
178
0
270
2
179
2
271
2
272
2
273
2
274
2
275
0
280
0
281
0
282
0
283
1
284
8
285
0
286
0
287
3
288
0
340
11
278
46
341
214
342
214
343
214
344
214
  0
ENDTAB
  0
ENDSEC
  0
SECTION
  2
BLOCKS
  0
BLOCK
  5
20
100
AcDbEntity
  8
0
100
AcDbBlockBegin
  2
*Model_Space
 70
0
 10
0.0
 20
0.0
 30
0.0
  3
*Model_Space
  1

  0
ENDBLK
  5
21
100
AcDbEntity
  8
0
100
AcDbBlockEnd
  0
BLOCK
  5
1C
100
AcDbEntity
  8
0
100
AcDbBlockBegin
  2
*Paper_Space
 70
0
 10
0.0
 20
0.0
 30
0.0
  3
*Paper_Space
  1

  0
ENDBLK
  5
1D
100
AcDbEntity
  8
0
100
AcDbBlockEnd
  0
BLOCK
  5
216
100
AcDbEntity
  8
0
100
AcDbBlockBegin
  2
_FILLED
 70
64
 10
0.0
 20
0.0
  3
_FILLED
  1

  0
SOLID
  5
217
100
AcDbEntity
  8
0
  6
BYBLOCK
 62
0
100
AcDbTrace
 10
0.0
 20
0.0
 11
-1.0
 21
0.25
 12
-1.0
 22
-0.25
 13
-1.0
 23
-0.25
  0
ENDBLK
  5
218
100
AcDbEntity
  8
0
  6
BYBLOCK
 62
0
100
AcDbBlockEnd
  0
ENDSEC
  0
SECTION
  2
ENTITIES
  0
LINE
  5
219
100
AcDbEntity
  8
0
100
AcDbLine
 62
7
  6
BYLAYER
 10
279.8578506502
 20
52.7443878922
 11
275.2580273479
 21
52.7443878922
  0
LINE
  5
21A
100
AcDbEntity
  8
0
100
AcDbLine
 62
7
  6
BYLAYER
 10
239.8578387771
 20
52.7443878922
 11
235.2580154748
 21
52.7443878922
  0
LINE
  5
21B
100
AcDbEntity
  8
0
100
AcDbLine
 62
7
  6
BYLAYER
 10
287.0574359596
 20
52.8442777537
 11
280.2307289098
 21
52.8442777537
  0
LINE
  5
21C
100
AcDbEntity
  8
0
100
AcDbLine
 62
7
  6
BYLAYER
 10
234.0574359596
 20
52.8442777537
 11
234.8851287147
 21
52.8442777537
  0
LINE
  5
21D
100
AcDbEntity
  8
0
100
AcDbLine
 62
7
  6
BYLAYER
 10
240.2307170366
 20
52.8442777537
 11
274.8851405879
 21
52.8442777537
  0
LINE
  5
21E
100
AcDbEntity
  8
0
100
AcDbLine
 62
7
  6
BYLAYER
 10
264.6988841397
 20
53.3442777537
 11
256.4169523055
 21
53.3442777537
  0
LINE
  5
21F
100
AcDbEntity
  8
0
100
AcDbLine
 62
7
  6
BYLAYER
 10
280.8579347488
 20
53.7443878922
 11
274.2579347488
 21
53.7443878922
  0
LINE
  5
220
100
AcDbEntity
  8
0
100
AcDbLine
 62
7
  6
BYLAYER
 10
240.8579228757
 20
53.7443878922
 11
234.2579228757
 21
53.7443878922
  0
LINE
  5
221
100
AcDbEntity
  8
0
100
AcDbLine
 62
7
  6
BYLAYER
 10
288.0574359596
 20
53.8442777537
 11
280.8579347488
 21
53.8442777537
  0
LINE
  5
222
100
AcDbEntity
  8
0
100
AcDbLine
 62
7
  6
BYLAYER
 10
274.2579347488
 20
53.8442777537
 11
264.5574359596
 21
53.8442777604
  0
LINE
  5
223
100
AcDbEntity
  8
0
100
AcDbLine
 62
7
  6
BYLAYER
 10
256.5574359596
 20
53.8442777538
 11
240.8579228757
 21
53.8442777537
  0
LINE
  5
224
100
AcDbEntity
  8
0
100
AcDbLine
 62
7
  6
BYLAYER
 10
234.2579228757
 20
53.8442777537
 11
233.0574359596
 21
53.8442777537
  0
LINE
  5
225
100
AcDbEntity
  8
0
100
AcDbLine
 62
7
  6
BYLAYER
 10
233.0574359596
 20
54.8442776848
 11
234.2579228757
 21
54.8442777537
  0
LINE
  5
226
100
AcDbEntity
  8
0
100
AcDbLine
 62
7
  6
BYLAYER
 10
240.8579228757
 20
54.8442777537
 11
242.0574359596
 21
54.8442776848
  0
LINE
  5
227
100
AcDbEntity
  8
0
100
AcDbLine
 62
7
  6
BYLAYER
 10
273.0574359596
 20
54.8442776848
 11
274.2579347488
 21
54.8442777537
  0
LINE
  5
228
100
AcDbEntity
  8
0
100
AcDbLine
 62
7
  6
BYLAYER
 10
280.8579347488
 20
54.8442777537
 11
281.4697511684
 21
54.8442777537
  0
LINE
  5
229
100
AcDbEntity
  8
0
100
AcDbLine
 62
7
  6
BYLAYER
 10
233.5574359596
 20
55.3442777537
 11
240.5574359596
 21
55.3442777537
  0
LINE
  5
22A
100
AcDbEntity
  8
0
100
AcDbLine
 62
7
  6
BYLAYER
 10
274.5574359596
 20
55.3442777537
 11
281.1071894521
 21
55.3442777537
  0
LINE
  5
22B
100
AcDbEntity
  8
0
100
AcDbLine
 62
7
  6
BYLAYER
 10
282.9695176515
 20
55.8442777537
 11
274.5574359596
 21
55.8442777537
  0
LINE
  5
22C
100
AcDbEntity
  8
0
100
AcDbLine
 62
7
  6
BYLAYER
 10
240.5574359596
 20
55.8442777537
 11
233.0574359596
 21
55.8442777537
  0
LINE
  5
22D
100
AcDbEntity
  8
0
100
AcDbLine
 62
7
  6
BYLAYER
 10
233.0574359596
 20
70.3442777537
 11
256.5574359596
 21
70.3442777537
  0
LINE
  5
22E
100
AcDbEntity
  8
0
100
AcDbLine
 62
7
  6
BYLAYER
 10
256.5579347489
 20
70.3442777537
 11
288.0574359596
 21
70.3442777537
  0
LINE
  5
22F
100
AcDbEntity
  8
3
100
AcDbLine
 62
7
  6
BYLAYER
 10
233.057917434
 20
70.3444007007
 11
288.0568374458
 21
70.3444007007
  0
LINE
  5
230
100
AcDbEntity
  8
3
100
AcDbLine
 62
7
  6
BYLAYER
 10
187.8160158818
 20
97.6925630154
 11
232.8160158818
 21
97.6925630154
  0
LINE
  5
231
100
AcDbEntity
  8
3
100
AcDbLine
 62
7
  6
BYLAYER
 10
228.4793011979
 20
101.3400630154
 11
229.7239004597
 21
101.3400630154
  0
LINE
  5
232
100
AcDbEntity
  8
3
100
AcDbLine
 62
7
  6
BYLAYER
 10
232.8160158818
 20
102.6925630154
 11
229.8160158818
 21
102.6925630154
  0
LINE
  5
233
100
AcDbEntity
  8
3
100
AcDbLine
 62
7
  6
BYLAYER
 10
228.3758162639
 20
103.016025835
 11
225.3758162639
 21
103.016025835
  0
LINE
  5
234
100
AcDbEntity
  8
3
100
AcDbLine
 62
7
  6
BYLAYER
 10
191.0160158818
 20
104.4425630154
 11
204.5160158818
 21
104.4425630154
  0
LINE
  5
235
100
AcDbEntity
  8
3
100
AcDbLine
 62
7
  6
BYLAYER
 10
221.1053608565
 20
104.6925630154
 11
225.3758162639
 21
104.6925630154
  0
LINE
  5
236
100
AcDbEntity
  8
3
100
AcDbLine
 62
7
  6
BYLAYER
 10
228.3758162639
 20
104.6925630154
 11
228.4793011979
 21
104.6925630154
  0
LINE
  5
237
100
AcDbEntity
  8
3
100
AcDbLine
 62
7
  6
BYLAYER
 10
229.7239004597
 20
104.6925630154
 11
229.8160158818
 21
104.6925630154
  0
LINE
  5
238
100
AcDbEntity
  8
3
100
AcDbLine
 62
7
  6
BYLAYER
 10
232.8160158818
 20
104.6925630154
 11
233.057917434
 21
104.6925630154
  0
LINE
  5
239
100
AcDbEntity
  8
3
100
AcDbLine
 62
7
  6
BYLAYER
 10
228.3758162639
 20
107.6925630154
 11
225.3758162639
 21
107.6925630154
  0
LINE
  5
23A
100
AcDbEntity
  8
3
100
AcDbLine
 62
7
  6
BYLAYER
 10
221.1053608565
 20
110.6925630154
 11
225.3758162639
 21
110.6925630154
  0
LINE
  5
23B
100
AcDbEntity
  8
3
100
AcDbLine
 62
7
  6
BYLAYER
 10
228.3758162639
 20
110.6925630154
 11
228.4793011979
 21
110.6925630154
  0
LINE
  5
23C
100
AcDbEntity
  8
3
100
AcDbLine
 62
7
  6
BYLAYER
 10
229.7239004597
 20
110.6925630154
 11
229.8160158818
 21
110.6925630154
  0
LINE
  5
23D
100
AcDbEntity
  8
3
100
AcDbLine
 62
7
  6
BYLAYER
 10
232.8160158818
 20
110.6925630154
 11
233.057917434
 21
110.6925630154
  0
LINE
  5
23E
100
AcDbEntity
  8
3
100
AcDbLine
 62
7
  6
BYLAYER
 10
204.5160158818
 20
110.9425630154
 11
191.0160158818
 21
110.9425630154
  0
LINE
  5
23F
100
AcDbEntity
  8
3
100
AcDbLine
 62
7
  6
BYLAYER
 10
228.3758162639
 20
112.3691001959
 11
225.3758162639
 21
112.3691001959
  0
LINE
  5
240
100
AcDbEntity
  8
3
100
AcDbLine
 62
7
  6
BYLAYER
 10
229.7239004597
 20
114.0450630154
 11
228.4793011979
 21
114.0450630154
  0
LINE
  5
241
100
AcDbEntity
  8
0
100
AcDbLine
 62
7
  6
BYLAYER
 10
240.8076766968
 20
592.3443878922
 11
241.3076766968
 21
592.8443878922
  0
LINE
  5
242
100
AcDbEntity
  8
3
100
AcDbLine
 62
7
  6
BYLAYER
 10
228.4793011979
 20
131.3400630154
 11
229.7239004597
 21
131.3400630154
  0
LINE
  5
243
100
AcDbEntity
  8
3
100
AcDbLine
 62
7
  6
BYLAYER
 10
228.3758162639
 20
133.016025835
 11
225.3758162639
 21
133.016025835
  0
LINE
  5
244
100
AcDbEntity
  8
3
100
AcDbLine
 62
7
  6
BYLAYER
 10
191.0160158818
 20
134.4425630154
 11
204.5160158818
 21
134.4425630154
  0
LINE
  5
245
100
AcDbEntity
  8
3
100
AcDbLine
 62
7
  6
BYLAYER
 10
221.1053608565
 20
134.6925630154
 11
225.3758162639
 21
134.6925630154
  0
LINE
  5
246
100
AcDbEntity
  8
3
100
AcDbLine
 62
7
  6
BYLAYER
 10
228.3758162639
 20
134.6925630154
 11
228.4793011979
 21
134.6925630154
  0
LINE
  5
247
100
AcDbEntity
  8
3
100
AcDbLine
 62
7
  6
BYLAYER
 10
229.7239004597
 20
134.6925630154
 11
229.8160158818
 21
134.6925630154
  0
LINE
  5
248
100
AcDbEntity
  8
3
100
AcDbLine
 62
7
  6
BYLAYER
 10
232.8160158818
 20
134.6925630154
 11
233.057917434
 21
134.6925630154
  0
LINE
  5
249
100
AcDbEntity
  8
3
100
AcDbLine
 62
7
  6
BYLAYER
 10
228.3758162639
 20
137.6925630154
 11
225.3758162639
 21
137.6925630154
  0
LINE
  5
24A
100
AcDbEntity
  8
3
100
AcDbLine
 62
7
  6
BYLAYER
 10
221.1053608565
 20
140.6925630154
 11
225.3758162639
 21
140.6925630154
  0
LINE
  5
24B
100
AcDbEntity
  8
3
100
AcDbLine
 62
7
  6
BYLAYER
 10
228.3758162639
 20
140.6925630154
 11
228.4793011979
 21
140.6925630154
  0
LINE
  5
24C
100
AcDbEntity
  8
3
100
AcDbLine
 62
7
  6
BYLAYER
 10
229.7239004597
 20
140.6925630154
 11
229.8160158818
 21
140.6925630154
  0
LINE
  5
24D
100
AcDbEntity
  8
3
100
AcDbLine
 62
7
  6
BYLAYER
 10
232.8160158818
 20
140.6925630154
 11
233.057917434
 21
140.6925630154
  0
LINE
  5
24E
100
AcDbEntity
  8
3
100
AcDbLine
 62
7
  6
BYLAYER
 10
204.5160158818
 20
140.9425630154
 11
191.0160158818
 21
140.9425630154
  0
LINE
  5
24F
100
AcDbEntity
  8
3
100
AcDbLine
 62
7
  6
BYLAYER
 10
228.3758162639
 20
142.3691001959
 11
225.3758162639
 21
142.3691001959
  0
LINE
  5
250
100
AcDbEntity
  8
0
100
AcDbLine
 62
7
  6
BYLAYER
 10
265.0576751488
 20
596.3443885027
 11
265.5576761325
 21
596.8443893066
  0
LINE
  5
251
100
AcDbEntity
  8
0
100
AcDbLine
 62
7
  6
BYLAYER
 10
263.3076766968
 20
592.3443878922
 11
263.8076766968
 21
592.8443878922
  0
LINE
  5
252
100
AcDbEntity
  8
3
100
AcDbLine
 62
7
  6
BYLAYER
 10
229.8160158818
 20
142.6925630154
 11
232.8160158818
 21
142.6925630154
  0
LINE
  5
253
100
AcDbEntity
  8
3
100
AcDbLine
 62
7
  6
BYLAYER
 10
229.7239004597
 20
144.0450630154
 11
228.4793011979
 21
144.0450630154
  0
LINE
  5
254
100
AcDbEntity
  8
3
100
AcDbLine
 62
7
  6
BYLAYER
 10
187.8160158818
 20
147.6925630154
 11
232.8160158818
 21
147.6925630154
  0
LINE
  5
255
100
AcDbEntity
  8
3
100
AcDbLine
 62
7
  6
BYLAYER
 10
182.8160158818
 20
539.0274654763
 11
182.8160158818
 21
499.0274654763
  0
LINE
  5
256
100
AcDbEntity
  8
3
100
AcDbLine
 62
7
  6
BYLAYER
 10
182.8160158818
 20
142.6925630154
 11
182.8160158818
 21
102.6925630154
  0
LINE
  5
257
100
AcDbEntity
  8
3
100
AcDbLine
 62
7
  6
BYLAYER
 10
221.1053608565
 20
104.6926859914
 11
221.1053608565
 21
110.6924400395
  0
LINE
  5
258
100
AcDbEntity
  8
3
100
AcDbLine
 62
7
  6
BYLAYER
 10
221.1053608565
 20
134.6926859914
 11
221.1053608565
 21
140.6924400395
  0
LINE
  5
259
100
AcDbEntity
  8
3
100
AcDbLine
 62
7
  6
BYLAYER
 10
221.1053608565
 20
501.0275884522
 11
221.1053608565
 21
507.0273425003
  0
LINE
  5
25A
100
AcDbEntity
  8
3
100
AcDbLine
 62
7
  6
BYLAYER
 10
221.1053608565
 20
531.0275884522
 11
221.1053608565
 21
537.0273425003
  0
LINE
  5
25B
100
AcDbEntity
  8
3
100
AcDbLine
 62
7
  6
BYLAYER
 10
225.3758162639
 20
103.016025835
 11
225.3758162639
 21
112.3691001959
  0
LINE
  5
25C
100
AcDbEntity
  8
3
100
AcDbLine
 62
7
  6
BYLAYER
 10
225.3758162639
 20
133.016025835
 11
225.3758162639
 21
142.3691001959
  0
LINE
  5
25D
100
AcDbEntity
  8
3
100
AcDbLine
 62
7
  6
BYLAYER
 10
225.3758162639
 20
499.3509282959
 11
225.3758162639
 21
508.7040026567
  0
LINE
  5
25E
100
AcDbEntity
  8
3
100
AcDbLine
 62
7
  6
BYLAYER
 10
225.3758162639
 20
529.3509282959
 11
225.3758162639
 21
538.7040026567
  0
LINE
  5
25F
100
AcDbEntity
  8
3
100
AcDbLine
 62
7
  6
BYLAYER
 10
225.8160158818
 20
544.0274654763
 11
225.8160158818
 21
538.7040026567
  0
LINE
  5
260
100
AcDbEntity
  8
3
100
AcDbLine
 62
7
  6
BYLAYER
 10
225.8160158818
 20
529.3509282959
 11
225.8160158818
 21
508.7040026567
  0
LINE
  5
261
100
AcDbEntity
  8
3
100
AcDbLine
 62
7
  6
BYLAYER
 10
225.8160158818
 20
499.3509282959
 11
225.8160158818
 21
494.0274654763
  0
LINE
  5
262
100
AcDbEntity
  8
3
100
AcDbLine
 62
7
  6
BYLAYER
 10
225.8160158818
 20
147.6925630154
 11
225.8160158818
 21
142.3691001959
  0
LINE
  5
263
100
AcDbEntity
  8
3
100
AcDbLine
 62
7
  6
BYLAYER
 10
225.8160158818
 20
133.016025835
 11
225.8160158818
 21
112.3691001959
  0
LINE
  5
264
100
AcDbEntity
  8
3
100
AcDbLine
 62
7
  6
BYLAYER
 10
225.8160158818
 20
103.016025835
 11
225.8160158818
 21
97.6925630154
  0
LINE
  5
265
100
AcDbEntity
  8
3
100
AcDbLine
 62
7
  6
BYLAYER
 10
228.3758162639
 20
538.7040026567
 11
228.3758162639
 21
529.3509282959
  0
LINE
  5
266
100
AcDbEntity
  8
3
100
AcDbLine
 62
7
  6
BYLAYER
 10
228.3758162639
 20
508.7040026567
 11
228.3758162639
 21
499.3509282959
  0
LINE
  5
267
100
AcDbEntity
  8
3
100
AcDbLine
 62
7
  6
BYLAYER
 10
228.3758162639
 20
142.3691001959
 11
228.3758162639
 21
133.016025835
  0
LINE
  5
268
100
AcDbEntity
  8
3
100
AcDbLine
 62
7
  6
BYLAYER
 10
228.3758162639
 20
112.3691001959
 11
228.3758162639
 21
103.016025835
  0
LINE
  5
269
100
AcDbEntity
  8
3
100
AcDbLine
 62
7
  6
BYLAYER
 10
228.4793011979
 20
101.3400630154
 11
228.4793011979
 21
114.0450630154
  0
LINE
  5
26A
100
AcDbEntity
  8
3
100
AcDbLine
 62
7
  6
BYLAYER
 10
228.4793011979
 20
131.3400630154
 11
228.4793011979
 21
144.0450630154
  0
LINE
  5
26B
100
AcDbEntity
  8
3
100
AcDbLine
 62
7
  6
BYLAYER
 10
228.4793011979
 20
497.6749654763
 11
228.4793011979
 21
510.3799654763
  0
LINE
  5
26C
100
AcDbEntity
  8
3
100
AcDbLine
 62
7
  6
BYLAYER
 10
228.4793011979
 20
527.6749654763
 11
228.4793011979
 21
540.3799654763
  0
LINE
  5
26D
100
AcDbEntity
  8
3
100
AcDbLine
 62
7
  6
BYLAYER
 10
229.7239004597
 20
540.3799654763
 11
229.7239004597
 21
527.6749654763
  0
LINE
  5
26E
100
AcDbEntity
  8
3
100
AcDbLine
 62
7
  6
BYLAYER
 10
229.7239004597
 20
510.3799654763
 11
229.7239004597
 21
497.6749654763
  0
LINE
  5
26F
100
AcDbEntity
  8
3
100
AcDbLine
 62
7
  6
BYLAYER
 10
229.7239004597
 20
144.0450630154
 11
229.7239004597
 21
131.3400630154
  0
LINE
  5
270
100
AcDbEntity
  8
3
100
AcDbLine
 62
7
  6
BYLAYER
 10
229.7239004597
 20
114.0450630154
 11
229.7239004597
 21
101.3400630154
  0
LINE
  5
271
100
AcDbEntity
  8
3
100
AcDbLine
 62
7
  6
BYLAYER
 10
229.8160158818
 20
97.6925630154
 11
229.8160158818
 21
147.6925630154
  0
LINE
  5
272
100
AcDbEntity
  8
3
100
AcDbLine
 62
7
  6
BYLAYER
 10
229.8160158818
 20
494.0274654763
 11
229.8160158818
 21
544.0274654763
  0
LINE
  5
273
100
AcDbEntity
  8
3
100
AcDbLine
 62
7
  6
BYLAYER
 10
232.8160158818
 20
544.0274654763
 11
232.8160158818
 21
494.0274654763
  0
LINE
  5
274
100
AcDbEntity
  8
3
100
AcDbLine
 62
7
  6
BYLAYER
 10
232.8160158818
 20
147.6925630154
 11
232.8160158818
 21
97.6925630154
  0
LINE
  5
275
100
AcDbEntity
  8
0
100
AcDbLine
 62
7
  6
BYLAYER
 10
233.0574359596
 20
53.8442777537
 11
233.0574359596
 21
70.3442777537
  0
LINE
  5
276
100
AcDbEntity
  8
0
100
AcDbLine
 62
7
  6
BYLAYER
 10
233.0576766968
 20
583.3443878922
 11
233.0576766968
 21
568.8443878922
  0
LINE
  5
277
100
AcDbEntity
  8
0
100
AcDbLine
 62
7
  6
BYLAYER
 10
233.0576766968
 20
585.3443878922
 11
233.0576766968
 21
583.3563779384
  0
LINE
  5
278
100
AcDbEntity
  8
3
100
AcDbLine
 62
7
  6
BYLAYER
 10
233.057917434
 20
568.8444007007
 11
233.057917434
 21
70.3444007007
  0
LINE
  5
279
100
AcDbEntity
  8
0
100
AcDbLine
 62
7
  6
BYLAYER
 10
234.0574359596
 20
52.8442777537
 11
234.0574359579
 21
54.8442777537
  0
LINE
  5
27A
100
AcDbEntity
  8
0
100
AcDbLine
 62
7
  6
BYLAYER
 10
234.0576766951
 20
584.3443878922
 11
234.0576766968
 21
586.3443878922
  0
LINE
  5
27B
100
AcDbEntity
  8
0
100
AcDbLine
 62
7
  6
BYLAYER
 10
234.2576766968
 20
583.8443878922
 11
234.2576766968
 21
585.4443878922
  0
LINE
  5
27C
100
AcDbEntity
  8
0
100
AcDbLine
 62
7
  6
BYLAYER
 10
234.2579228757
 20
55.3443878922
 11
234.2579228757
 21
53.7443878922
  0
LINE
  5
27D
100
AcDbEntity
  8
0
100
AcDbLine
 62
7
  6
BYLAYER
 10
237.0574359596
 20
55.3442777537
 11
237.0574359596
 21
70.3442777537
  0
LINE
  5
27E
100
AcDbEntity
  8
0
100
AcDbLine
 62
7
  6
BYLAYER
 10
237.0576766968
 20
568.8443878922
 11
237.0576766968
 21
583.8443878922
  0
LINE
  5
27F
100
AcDbEntity
  8
3
100
AcDbLine
 62
7
  6
BYLAYER
 10
237.057917434
 20
70.3444007007
 11
237.057917434
 21
568.8444007007
  0
LINE
  5
280
100
AcDbEntity
  8
0
100
AcDbLine
 62
7
  6
BYLAYER
 10
240.5574358871
 20
55.8442777537
 11
240.5574358871
 21
55.3442777537
  0
LINE
  5
281
100
AcDbEntity
  8
0
100
AcDbLine
 62
7
  6
BYLAYER
 10
240.5576766239
 20
583.8443878922
 11
240.5576766239
 21
583.3443878922
  0
LINE
  5
282
100
AcDbEntity
  8
0
100
AcDbLine
 62
7
  6
BYLAYER
 10
240.8076766968
 20
586.3443878922
 11
240.8076766968
 21
592.3443878922
  0
LINE
  5
283
100
AcDbEntity
  8
0
100
AcDbLine
 62
7
  6
BYLAYER
 10
240.8576766968
 20
583.948570327
 11
240.8576766968
 21
585.4443878922
  0
LINE
  5
284
100
AcDbEntity
  8
0
100
AcDbLine
 62
7
  6
BYLAYER
 10
240.8579228757
 20
55.242191961
 11
240.8579228757
 21
53.7443878922
  0
LINE
  5
285
100
AcDbEntity
  8
0
100
AcDbLine
 62
7
  6
BYLAYER
 10
241.0574359596
 20
54.8442777537
 11
241.0574359596
 21
53.8442777537
  0
LINE
  5
286
100
AcDbEntity
  8
0
100
AcDbLine
 62
7
  6
BYLAYER
 10
241.0576766968
 20
585.3443878922
 11
241.0576766968
 21
584.3443878922
  0
LINE
  5
287
100
AcDbEntity
  8
0
100
AcDbLine
 62
7
  6
BYLAYER
 10
242.0574359596
 20
52.8442777537
 11
242.0574359596
 21
54.8442777537
  0
LINE
  5
288
100
AcDbEntity
  8
0
100
AcDbLine
 62
7
  6
BYLAYER
 10
242.0576766968
 20
584.3443878922
 11
242.0576766968
 21
586.3443878922
  0
LINE
  5
289
100
AcDbEntity
  8
0
100
AcDbLine
 62
7
  6
BYLAYER
 10
244.4339366968
 20
594.0443878922
 11
244.4339366968
 21
592.8443878922
  0
LINE
  5
28A
100
AcDbEntity
  8
0
100
AcDbLine
 62
7
  6
BYLAYER
 10
252.6839366968
 20
594.0443878922
 11
252.6839366968
 21
592.8443878922
  0
LINE
  5
28B
100
AcDbEntity
  8
0
100
AcDbLine
 62
7
  6
BYLAYER
 10
256.0574359596
 20
70.3442777537
 11
256.0574359596
 21
53.8442777537
  0
LINE
  5
28C
100
AcDbEntity
  8
0
100
AcDbLine
 62
7
  6
BYLAYER
 10
256.0576766968
 20
585.3443878922
 11
256.0576766968
 21
568.8443878922
  0
LINE
  5
28D
100
AcDbEntity
  8
3
100
AcDbLine
 62
7
  6
BYLAYER
 10
256.0579347489
 20
568.8444007007
 11
256.0579347489
 21
70.3444007007
  0
LINE
  5
28E
100
AcDbEntity
  8
0
100
AcDbLine
 62
7
  6
BYLAYER
 10
256.3076766968
 20
586.3443878922
 11
256.3076766968
 21
592.3443878922
  0
LINE
  5
28F
100
AcDbEntity
  8
0
100
AcDbLine
 62
7
  6
BYLAYER
 10
256.5574359596
 20
53.8442777538
 11
256.5574359596
 21
70.3442777537
  0
LINE
  5
290
100
AcDbEntity
  8
0
100
AcDbLine
 62
7
  6
BYLAYER
 10
256.5576766968
 20
568.8443878922
 11
256.5576766968
 21
585.3443878921
  0
LINE
  5
291
100
AcDbEntity
  8
3
100
AcDbLine
 62
7
  6
BYLAYER
 10
256.5579347489
 20
70.3444007007
 11
256.5579347489
 21
568.8444007007
  0
LINE
  5
292
100
AcDbEntity
  8
0
100
AcDbLine
 62
7
  6
BYLAYER
 10
263.3076766968
 20
586.3443878922
 11
263.3076766968
 21
592.3443878922
  0
LINE
  5
293
100
AcDbEntity
  8
0
100
AcDbLine
 62
7
  6
BYLAYER
 10
264.5574359596
 20
70.3442777537
 11
264.5574359596
 21
53.8442777538
  0
LINE
  5
294
100
AcDbEntity
  8
0
100
AcDbLine
 62
7
  6
BYLAYER
 10
264.5576766968
 20
585.3443878922
 11
264.5576766968
 21
568.8443878922
  0
LINE
  5
295
100
AcDbEntity
  8
3
100
AcDbLine
 62
7
  6
BYLAYER
 10
264.5579347489
 20
568.8444007007
 11
264.5579347489
 21
70.3444007007
  0
LINE
  5
296
100
AcDbEntity
  8
0
100
AcDbLine
 62
7
  6
BYLAYER
 10
265.0574359596
 20
53.8442777537
 11
265.0574359596
 21
70.3442777537
  0
LINE
  5
297
100
AcDbEntity
  8
0
100
AcDbLine
 62
7
  6
BYLAYER
 10
265.0576766968
 20
568.8443878922
 11
265.0576766968
 21
585.3443878922
  0
LINE
  5
298
100
AcDbEntity
  8
0
100
AcDbLine
 62
7
  6
BYLAYER
 10
265.0576766968
 20
592.8443878922
 11
265.0576766968
 21
596.3443869548
  0
LINE
  5
299
100
AcDbEntity
  8
3
100
AcDbLine
 62
7
  6
BYLAYER
 10
265.0579347489
 20
70.3444007007
 11
265.0579347489
 21
568.8444007007
  0
LINE
  5
29A
100
AcDbEntity
  8
0
100
AcDbLine
 62
7
  6
BYLAYER
 10
266.9332566968
 20
594.0443878922
 11
266.9332566968
 21
592.8443878922
  0
LINE
  5
29B
100
AcDbEntity
  8
0
100
AcDbLine
 62
7
  6
BYLAYER
 10
273.0574359596
 20
54.8442777537
 11
273.0574359596
 21
52.8442777537
  0
LINE
  5
29C
100
AcDbEntity
  8
0
100
AcDbLine
 62
7
  6
BYLAYER
 10
273.0576766968
 20
586.3443878922
 11
273.0576766968
 21
584.3443878922
  0
LINE
  5
29D
100
AcDbEntity
  8
0
100
AcDbLine
 62
7
  6
BYLAYER
 10
274.0574359596
 20
53.8442777537
 11
274.0574359596
 21
54.8442777537
  0
LINE
  5
29E
100
AcDbEntity
  8
0
100
AcDbLine
 62
7
  6
BYLAYER
 10
274.0576766968
 20
584.3443878922
 11
274.0576766968
 21
585.3443878922
  0
LINE
  5
29F
100
AcDbEntity
  8
0
100
AcDbLine
 62
7
  6
BYLAYER
 10
274.2576766968
 20
583.9459867689
 11
274.2576766968
 21
585.4443878922
  0
LINE
  5
2A0
100
AcDbEntity
  8
0
100
AcDbLine
 62
7
  6
BYLAYER
 10
274.2579347488
 20
55.2431776663
 11
274.2579347488
 21
53.7443878922
  0
LINE
  5
2A1
100
AcDbEntity
  8
0
100
AcDbLine
 62
7
  6
BYLAYER
 10
274.5574360325
 20
55.3442777537
 11
274.5574360325
 21
55.8442777537
  0
LINE
  5
2A2
100
AcDbEntity
  8
0
100
AcDbLine
 62
7
  6
BYLAYER
 10
274.5576767643
 20
583.3443878922
 11
274.5576767643
 21
583.8443878922
  0
LINE
  5
2A3
100
AcDbEntity
  8
0
100
AcDbLine
 62
7
  6
BYLAYER
 10
275.1234288949
 20
592.8443878922
 11
275.1234288949
 21
594.0443878922
  0
LINE
  5
2A4
100
AcDbEntity
  8
0
100
AcDbLine
 62
7
  6
BYLAYER
 10
277.0576766968
 20
592.8443878922
 11
277.0576766968
 21
596.3443869548
  0
LINE
  5
2A5
100
AcDbEntity
  8
0
100
AcDbLine
 62
7
  6
BYLAYER
 10
278.8076766968
 20
586.4443878922
 11
278.8076766968
 21
592.3443878922
  0
LINE
  5
2A6
100
AcDbEntity
  8
0
100
AcDbLine
 62
7
  6
BYLAYER
 10
279.6568865132
 20
70.3442777537
 11
279.6568865132
 21
55.3442777537
  0
LINE
  5
2A7
100
AcDbEntity
  8
0
100
AcDbLine
 62
7
  6
BYLAYER
 10
279.6571272504
 20
583.8443878922
 11
279.6571272504
 21
568.8443878922
  0
LINE
  5
2A8
100
AcDbEntity
  8
3
100
AcDbLine
 62
7
  6
BYLAYER
 10
279.6573853025
 20
568.8444007007
 11
279.6573853025
 21
70.3444007007
  0
LINE
  5
2A9
100
AcDbEntity
  8
0
100
AcDbLine
 62
7
  6
BYLAYER
 10
280.8576766968
 20
583.9459867689
 11
280.8576766968
 21
585.4443878922
  0
LINE
  5
2AA
100
AcDbEntity
  8
0
100
AcDbLine
 62
7
  6
BYLAYER
 10
280.8579347488
 20
55.2421800878
 11
280.8579347488
 21
53.7443878922
  0
LINE
  5
2AB
100
AcDbEntity
  8
0
100
AcDbLine
 62
7
  6
BYLAYER
 10
281.0574359596
 20
54.8442777537
 11
281.0574359596
 21
53.8442777537
  0
LINE
  5
2AC
100
AcDbEntity
  8
0
100
AcDbLine
 62
7
  6
BYLAYER
 10
281.0576766968
 20
585.3443878922
 11
281.0576766968
 21
584.3443878922
  0
LINE
  5
2AD
100
AcDbEntity
  8
0
100
AcDbLine
 62
7
  6
BYLAYER
 10
282.4040977922
 20
55.8442777537
 11
282.4040977922
 21
70.3442777537
  0
LINE
  5
2AE
100
AcDbEntity
  8
0
100
AcDbLine
 62
7
  6
BYLAYER
 10
282.4043385294
 20
568.8443878922
 11
282.4043385294
 21
583.3443878922
  0
LINE
  5
2AF
100
AcDbEntity
  8
3
100
AcDbLine
 62
7
  6
BYLAYER
 10
282.4045965814
 20
70.3444007007
 11
282.4045965814
 21
568.8444007007
  0
LINE
  5
2B0
100
AcDbEntity
  8
0
100
AcDbLine
 62
7
  6
BYLAYER
 10
282.9695176515
 20
53.8442777537
 11
282.9695176515
 21
55.8442777537
  0
LINE
  5
2B1
100
AcDbEntity
  8
0
100
AcDbLine
 62
7
  6
BYLAYER
 10
282.9697583886
 20
583.3443878922
 11
282.9697583886
 21
585.3443878922
  0
LINE
  5
2B2
100
AcDbEntity
  8
0
100
AcDbLine
 62
7
  6
BYLAYER
 10
286.6068782154
 20
70.3442777537
 11
286.6068782154
 21
53.8442777537
  0
LINE
  5
2B3
100
AcDbEntity
  8
0
100
AcDbLine
 62
7
  6
BYLAYER
 10
286.6071189526
 20
585.3443878922
 11
286.6071189526
 21
568.8443878922
  0
LINE
  5
2B4
100
AcDbEntity
  8
3
100
AcDbLine
 62
7
  6
BYLAYER
 10
286.6073770046
 20
568.8444007007
 11
286.6073770046
 21
70.3444007007
  0
LINE
  5
2B5
100
AcDbEntity
  8
0
100
AcDbLine
 62
7
  6
BYLAYER
 10
288.0574359596
 20
53.8442777537
 11
288.0574359596
 21
70.3442777537
  0
LINE
  5
2B6
100
AcDbEntity
  8
0
100
AcDbLine
 62
7
  6
BYLAYER
 10
288.0576766968
 20
568.8443878922
 11
288.0576766968
 21
585.3443878922
  0
LINE
  5
2B7
100
AcDbEntity
  8
3
100
AcDbLine
 62
7
  6
BYLAYER
 10
288.0579347489
 20
70.3444007007
 11
288.0579347489
 21
568.8444007007
  0
LINE
  5
2B8
100
AcDbEntity
  8
3
100
AcDbLine
 62
7
  6
BYLAYER
 10
187.8160158818
 20
494.0274654763
 11
232.8160158818
 21
494.0274654763
  0
LINE
  5
2B9
100
AcDbEntity
  8
3
100
AcDbLine
 62
7
  6
BYLAYER
 10
228.4793011979
 20
497.6749654763
 11
229.7239004597
 21
497.6749654763
  0
LINE
  5
2BA
100
AcDbEntity
  8
3
100
AcDbLine
 62
7
  6
BYLAYER
 10
232.8160158818
 20
499.0274654763
 11
229.8160158818
 21
499.0274654763
  0
LINE
  5
2BB
100
AcDbEntity
  8
3
100
AcDbLine
 62
7
  6
BYLAYER
 10
228.3758162639
 20
499.3509282959
 11
225.3758162639
 21
499.3509282959
  0
LINE
  5
2BC
100
AcDbEntity
  8
3
100
AcDbLine
 62
7
  6
BYLAYER
 10
191.0160158818
 20
500.7774654763
 11
204.5160158818
 21
500.7774654763
  0
LINE
  5
2BD
100
AcDbEntity
  8
3
100
AcDbLine
 62
7
  6
BYLAYER
 10
221.1053608565
 20
501.0274654763
 11
225.3758162639
 21
501.0274654763
  0
LINE
  5
2BE
100
AcDbEntity
  8
3
100
AcDbLine
 62
7
  6
BYLAYER
 10
228.3758162639
 20
501.0274654763
 11
228.4793011979
 21
501.0274654763
  0
LINE
  5
2BF
100
AcDbEntity
  8
3
100
AcDbLine
 62
7
  6
BYLAYER
 10
229.7239004597
 20
501.0274654763
 11
229.8160158818
 21
501.0274654763
  0
LINE
  5
2C0
100
AcDbEntity
  8
3
100
AcDbLine
 62
7
  6
BYLAYER
 10
232.8160158818
 20
501.0274654763
 11
233.057917434
 21
501.0274654763
  0
LINE
  5
2C1
100
AcDbEntity
  8
3
100
AcDbLine
 62
7
  6
BYLAYER
 10
228.3758162639
 20
504.0274654763
 11
225.3758162639
 21
504.0274654763
  0
LINE
  5
2C2
100
AcDbEntity
  8
3
100
AcDbLine
 62
7
  6
BYLAYER
 10
221.1053608565
 20
507.0274654763
 11
225.3758162639
 21
507.0274654763
  0
LINE
  5
2C3
100
AcDbEntity
  8
3
100
AcDbLine
 62
7
  6
BYLAYER
 10
228.3758162639
 20
507.0274654763
 11
228.4793011979
 21
507.0274654763
  0
LINE
  5
2C4
100
AcDbEntity
  8
3
100
AcDbLine
 62
7
  6
BYLAYER
 10
229.7239004597
 20
507.0274654763
 11
229.8160158818
 21
507.0274654763
  0
LINE
  5
2C5
100
AcDbEntity
  8
3
100
AcDbLine
 62
7
  6
BYLAYER
 10
232.8160158818
 20
507.0274654763
 11
233.057917434
 21
507.0274654763
  0
LINE
  5
2C6
100
AcDbEntity
  8
3
100
AcDbLine
 62
7
  6
BYLAYER
 10
204.5160158818
 20
507.2774654763
 11
191.0160158818
 21
507.2774654763
  0
LINE
  5
2C7
100
AcDbEntity
  8
3
100
AcDbLine
 62
7
  6
BYLAYER
 10
228.3758162639
 20
508.7040026567
 11
225.3758162639
 21
508.7040026567
  0
LINE
  5
2C8
100
AcDbEntity
  8
3
100
AcDbLine
 62
7
  6
BYLAYER
 10
229.7239004597
 20
510.3799654763
 11
228.4793011979
 21
510.3799654763
  0
LINE
  5
2C9
100
AcDbEntity
  8
3
100
AcDbLine
 62
7
  6
BYLAYER
 10
228.4793011979
 20
527.6749654763
 11
229.7239004597
 21
527.6749654763
  0
LINE
  5
2CA
100
AcDbEntity
  8
3
100
AcDbLine
 62
7
  6
BYLAYER
 10
228.3758162639
 20
529.3509282959
 11
225.3758162639
 21
529.3509282959
  0
LINE
  5
2CB
100
AcDbEntity
  8
0
100
AcDbLine
 62
7
  6
BYLAYER
 10
255.8076766968
 20
592.8443878922
 11
256.3076766968
 21
592.3443878922
  0
LINE
  5
2CC
100
AcDbEntity
  8
3
100
AcDbLine
 62
7
  6
BYLAYER
 10
191.0160158818
 20
530.7774654763
 11
204.5160158818
 21
530.7774654763
  0
LINE
  5
2CD
100
AcDbEntity
  8
3
100
AcDbLine
 62
7
  6
BYLAYER
 10
221.1053608565
 20
531.0274654763
 11
225.3758162639
 21
531.0274654763
  0
LINE
  5
2CE
100
AcDbEntity
  8
3
100
AcDbLine
 62
7
  6
BYLAYER
 10
228.3758162639
 20
531.0274654763
 11
228.4793011979
 21
531.0274654763
  0
LINE
  5
2CF
100
AcDbEntity
  8
3
100
AcDbLine
 62
7
  6
BYLAYER
 10
229.7239004597
 20
531.0274654763
 11
229.8160158818
 21
531.0274654763
  0
LINE
  5
2D0
100
AcDbEntity
  8
3
100
AcDbLine
 62
7
  6
BYLAYER
 10
232.8160158818
 20
531.0274654763
 11
233.057917434
 21
531.0274654763
  0
LINE
  5
2D1
100
AcDbEntity
  8
3
100
AcDbLine
 62
7
  6
BYLAYER
 10
228.3758162639
 20
534.0274654763
 11
225.3758162639
 21
534.0274654763
  0
LINE
  5
2D2
100
AcDbEntity
  8
3
100
AcDbLine
 62
7
  6
BYLAYER
 10
221.1053608565
 20
537.0274654763
 11
225.3758162639
 21
537.0274654763
  0
LINE
  5
2D3
100
AcDbEntity
  8
3
100
AcDbLine
 62
7
  6
BYLAYER
 10
228.3758162639
 20
537.0274654763
 11
228.4793011979
 21
537.0274654763
  0
LINE
  5
2D4
100
AcDbEntity
  8
3
100
AcDbLine
 62
7
  6
BYLAYER
 10
229.7239004597
 20
537.0274654763
 11
229.8160158818
 21
537.0274654763
  0
LINE
  5
2D5
100
AcDbEntity
  8
3
100
AcDbLine
 62
7
  6
BYLAYER
 10
232.8160158818
 20
537.0274654763
 11
233.057917434
 21
537.0274654763
  0
LINE
  5
2D6
100
AcDbEntity
  8
3
100
AcDbLine
 62
7
  6
BYLAYER
 10
204.5160158818
 20
537.2774654763
 11
191.0160158818
 21
537.2774654763
  0
LINE
  5
2D7
100
AcDbEntity
  8
3
100
AcDbLine
 62
7
  6
BYLAYER
 10
228.3758162639
 20
538.7040026567
 11
225.3758162639
 21
538.7040026567
  0
LINE
  5
2D8
100
AcDbEntity
  8
3
100
AcDbLine
 62
7
  6
BYLAYER
 10
229.8160158818
 20
539.0274654763
 11
232.8160158818
 21
539.0274654763
  0
LINE
  5
2D9
100
AcDbEntity
  8
3
100
AcDbLine
 62
7
  6
BYLAYER
 10
229.7239004597
 20
540.3799654763
 11
228.4793011979
 21
540.3799654763
  0
LINE
  5
2DA
100
AcDbEntity
  8
3
100
AcDbLine
 62
7
  6
BYLAYER
 10
187.8160158818
 20
544.0274654763
 11
232.8160158818
 21
544.0274654763
  0
LINE
  5
2DB
100
AcDbEntity
  8
0
100
AcDbLine
 62
7
  6
BYLAYER
 10
278.3076766968
 20
592.8443878922
 11
278.8076766968
 21
592.3443878922
  0
LINE
  5
2DC
100
AcDbEntity
  8
0
100
AcDbLine
 62
7
  6
BYLAYER
 10
276.5576772611
 20
596.8443893066
 11
277.0576782448
 21
596.3443885027
  0
LINE
  5
2DD
100
AcDbEntity
  8
0
100
AcDbLine
 62
7
  6
BYLAYER
 10
233.0576766968
 20
568.8443878922
 11
288.0576766968
 21
568.8443878922
  0
LINE
  5
2DE
100
AcDbEntity
  8
3
100
AcDbLine
 62
7
  6
BYLAYER
 10
233.057917434
 20
568.8444007007
 11
288.0579347489
 21
568.8444007007
  0
LINE
  5
2DF
100
AcDbEntity
  8
0
100
AcDbLine
 62
7
  6
BYLAYER
 10
271.0740786053
 20
582.3443878922
 11
263.0576766968
 21
582.3443878922
  0
LINE
  5
2E0
100
AcDbEntity
  8
0
100
AcDbLine
 62
7
  6
BYLAYER
 10
248.5412747883
 20
582.3443878922
 11
256.5576766968
 21
582.3443878922
  0
LINE
  5
2E1
100
AcDbEntity
  8
0
100
AcDbLine
 62
7
  6
BYLAYER
 10
271.0738629017
 20
582.3555821432
 11
263.1628857257
 21
582.3555821432
  0
LINE
  5
2E2
100
AcDbEntity
  8
0
100
AcDbLine
 62
7
  6
BYLAYER
 10
248.5414906712
 20
582.3556009751
 11
256.4523802121
 21
582.3556009751
  0
LINE
  5
2E3
100
AcDbEntity
  8
0
100
AcDbLine
 62
7
  6
BYLAYER
 10
248.5410584991
 20
583.3331320755
 11
256.663171357
 21
583.3331320755
  0
LINE
  5
2E4
100
AcDbEntity
  8
0
100
AcDbLine
 62
7
  6
BYLAYER
 10
271.0742943089
 20
583.3331936412
 11
262.9524676679
 21
583.3331936412
  0
LINE
  5
2E5
100
AcDbEntity
  8
0
100
AcDbLine
 62
7
  6
BYLAYER
 10
233.0576766968
 20
583.3443878922
 11
240.5576766968
 21
583.3443878922
  0
LINE
  5
2E6
100
AcDbEntity
  8
0
100
AcDbLine
 62
7
  6
BYLAYER
 10
274.5576766968
 20
583.3443878922
 11
282.9697583886
 21
583.3443878922
  0
LINE
  5
2E7
100
AcDbEntity
  8
0
100
AcDbLine
 62
7
  6
BYLAYER
 10
233.5576766968
 20
583.8443878922
 11
240.5576766968
 21
583.8443878922
  0
LINE
  5
2E8
100
AcDbEntity
  8
0
100
AcDbLine
 62
7
  6
BYLAYER
 10
274.5576766968
 20
583.8443878922
 11
281.1074301904
 21
583.8443878922
  0
LINE
  5
2E9
100
AcDbEntity
  8
0
100
AcDbLine
 62
7
  6
BYLAYER
 10
281.4699919263
 20
584.3443878922
 11
280.8576766968
 21
584.3443878922
  0
LINE
  5
2EA
100
AcDbEntity
  8
0
100
AcDbLine
 62
7
  6
BYLAYER
 10
274.2576766968
 20
584.3443878922
 11
273.0576766968
 21
584.3443879493
  0
LINE
  5
2EB
100
AcDbEntity
  8
0
100
AcDbLine
 62
7
  6
BYLAYER
 10
242.0576766968
 20
584.3443879611
 11
240.8576766968
 21
584.3443878922
  0
LINE
  5
2EC
100
AcDbEntity
  8
0
100
AcDbLine
 62
7
  6
BYLAYER
 10
234.2576766968
 20
584.3443878922
 11
233.0576766968
 21
584.3443879612
  0
LINE
  5
2ED
100
AcDbEntity
  8
0
100
AcDbLine
 62
7
  6
BYLAYER
 10
233.0576766968
 20
585.3443878922
 11
234.2576766968
 21
585.3443878922
  0
LINE
  5
2EE
100
AcDbEntity
  8
0
100
AcDbLine
 62
7
  6
BYLAYER
 10
240.8576766968
 20
585.3443878922
 11
256.5576766968
 21
585.3443878856
  0
LINE
  5
2EF
100
AcDbEntity
  8
0
100
AcDbLine
 62
7
  6
BYLAYER
 10
264.5576766968
 20
585.3443878921
 11
274.2576766968
 21
585.3443878922
  0
LINE
  5
2F0
100
AcDbEntity
  8
0
100
AcDbLine
 62
7
  6
BYLAYER
 10
280.8576766968
 20
585.3443878922
 11
288.0576766968
 21
585.3443878922
  0
LINE
  5
2F1
100
AcDbEntity
  8
0
100
AcDbLine
 62
7
  6
BYLAYER
 10
234.2576766968
 20
585.4443878922
 11
240.8576766968
 21
585.4443878922
  0
LINE
  5
2F2
100
AcDbEntity
  8
0
100
AcDbLine
 62
7
  6
BYLAYER
 10
274.2576766968
 20
585.4443878922
 11
280.8576766968
 21
585.4443878922
  0
LINE
  5
2F3
100
AcDbEntity
  8
0
100
AcDbLine
 62
7
  6
BYLAYER
 10
256.4162285167
 20
585.8443878922
 11
264.698160351
 21
585.8443878922
  0
LINE
  5
2F4
100
AcDbEntity
  8
0
100
AcDbLine
 62
7
  6
BYLAYER
 10
234.8844714933
 20
586.3443878922
 11
234.0576766968
 21
586.3443878922
  0
LINE
  5
2F5
100
AcDbEntity
  8
0
100
AcDbLine
 62
7
  6
BYLAYER
 10
240.2308819003
 20
586.3443878922
 11
274.8844714933
 21
586.3443878922
  0
LINE
  5
2F6
100
AcDbEntity
  8
0
100
AcDbLine
 62
7
  6
BYLAYER
 10
280.2308819003
 20
586.3443878922
 11
287.0576766968
 21
586.3443878922
  0
LINE
  5
2F7
100
AcDbEntity
  8
0
100
AcDbLine
 62
7
  6
BYLAYER
 10
235.2577692959
 20
586.4443878922
 11
239.8575925982
 21
586.4443878922
  0
LINE
  5
2F8
100
AcDbEntity
  8
0
100
AcDbLine
 62
7
  6
BYLAYER
 10
275.2577692959
 20
586.4443878922
 11
279.8575925982
 21
586.4443878922
  0
LINE
  5
2F9
100
AcDbEntity
  8
0
100
AcDbLine
 62
7
  6
BYLAYER
 10
278.8076124
 20
587.8443878922
 11
263.3077409936
 21
587.8443878922
  0
LINE
  5
2FA
100
AcDbEntity
  8
0
100
AcDbLine
 62
7
  6
BYLAYER
 10
256.3076124
 20
587.8443878922
 11
240.8077409936
 21
587.8443878922
  0
LINE
  5
2FB
100
AcDbEntity
  8
0
100
AcDbLine
 62
7
  6
BYLAYER
 10
278.8076766968
 20
590.8443878922
 11
263.3076766968
 21
590.8443878922
  0
LINE
  5
2FC
100
AcDbEntity
  8
0
100
AcDbLine
 62
7
  6
BYLAYER
 10
256.3076766968
 20
590.8443878922
 11
240.8076766968
 21
590.8443878922
  0
LINE
  5
2FD
100
AcDbEntity
  8
0
100
AcDbLine
 62
7
  6
BYLAYER
 10
240.8076766968
 20
592.3443878922
 11
256.3076766968
 21
592.3443878922
  0
LINE
  5
2FE
100
AcDbEntity
  8
0
100
AcDbLine
 62
7
  6
BYLAYER
 10
263.3076766968
 20
592.3443878922
 11
278.8076766968
 21
592.3443878922
  0
LINE
  5
2FF
100
AcDbEntity
  8
0
100
AcDbLine
 62
7
  6
BYLAYER
 10
241.3076766968
 20
592.8443878922
 11
255.8076766968
 21
592.8443878922
  0
LINE
  5
300
100
AcDbEntity
  8
0
100
AcDbLine
 62
7
  6
BYLAYER
 10
263.8076766968
 20
592.8443878922
 11
278.3076766968
 21
592.8443878922
  0
LINE
  5
301
100
AcDbEntity
  8
0
100
AcDbLine
 62
7
  6
BYLAYER
 10
244.4339366968
 20
594.0443878922
 11
252.6839366968
 21
594.0443878922
  0
LINE
  5
302
100
AcDbEntity
  8
0
100
AcDbLine
 62
7
  6
BYLAYER
 10
266.9332566968
 20
594.0443878922
 11
275.1234288949
 21
594.0443878922
  0
LINE
  5
303
100
AcDbEntity
  8
0
100
AcDbLine
 62
7
  6
BYLAYER
 10
244.7340241729
 20
594.3443878922
 11
252.3839553139
 21
594.3443878922
  0
LINE
  5
304
100
AcDbEntity
  8
0
100
AcDbLine
 62
7
  6
BYLAYER
 10
267.2332653611
 20
594.3443878922
 11
274.8186513308
 21
594.3443878922
  0
LINE
  5
305
100
AcDbEntity
  8
0
100
AcDbLine
 62
7
  6
BYLAYER
 10
265.0576766968
 20
596.3443869548
 11
277.0576766968
 21
596.3443869548
  0
LINE
  5
306
100
AcDbEntity
  8
0
100
AcDbLine
 62
7
  6
BYLAYER
 10
265.5576761325
 20
596.8443878922
 11
276.5576772611
 21
596.8443878922
  0
ARC
  5
307
100
AcDbEntity
  8
3
100
AcDbCircle
 62
7
  6
BYLAYER
 10
187.8160158818
 20
142.6925630154
 40
5.0
100
AcDbArc
 50
90.0
 51
180.0
  0
ARC
  5
308
100
AcDbEntity
  8
3
100
AcDbCircle
 62
7
  6
BYLAYER
 10
187.8160158818
 20
102.6925630154
 40
5.0
100
AcDbArc
 50
180.0
 51
270.0
  0
ARC
  5
309
100
AcDbEntity
  8
3
100
AcDbCircle
 62
7
  6
BYLAYER
 10
191.0160158818
 20
107.6925630154
 40
3.25
100
AcDbArc
 50
90.0
 51
270.0
  0
ARC
  5
30A
100
AcDbEntity
  8
3
100
AcDbCircle
 62
7
  6
BYLAYER
 10
204.5160158818
 20
107.6925630154
 40
3.25
100
AcDbArc
 50
270.0
 51
90.0
  0
ARC
  5
30B
100
AcDbEntity
  8
3
100
AcDbCircle
 62
7
  6
BYLAYER
 10
191.0160158818
 20
137.6925630154
 40
3.25
100
AcDbArc
 50
90.0
 51
270.0
  0
ARC
  5
30C
100
AcDbEntity
  8
3
100
AcDbCircle
 62
7
  6
BYLAYER
 10
204.5160158818
 20
137.6925630154
 40
3.25
100
AcDbArc
 50
270.0
 51
90.0
  0
ARC
  5
30D
100
AcDbEntity
  8
0
100
AcDbCircle
 62
7
  6
BYLAYER
 10
235.2579228757
 20
53.7443878922
 40
1.0
100
AcDbArc
 50
180.0
 51
270.0
  0
ARC
  5
30E
100
AcDbEntity
  8
0
100
AcDbCircle
 62
7
  6
BYLAYER
 10
234.0574359596
 20
53.8442777537
 40
1.0
100
AcDbArc
 50
180.0
 51
270.0
  0
ARC
  5
30F
100
AcDbEntity
  8
0
100
AcDbCircle
 62
7
  6
BYLAYER
 10
233.5574359596
 20
55.8442777537
 40
0.5
100
AcDbArc
 50
180.0
 51
270.0
  0
ARC
  5
310
100
AcDbEntity
  8
3
100
AcDbCircle
 62
7
  6
BYLAYER
 10
187.8160158818
 20
539.0274654763
 40
5.0
100
AcDbArc
 50
90.0
 51
180.0
  0
ARC
  5
311
100
AcDbEntity
  8
3
100
AcDbCircle
 62
7
  6
BYLAYER
 10
187.8160158818
 20
499.0274654763
 40
5.0
100
AcDbArc
 50
180.0
 51
270.0
  0
ARC
  5
312
100
AcDbEntity
  8
3
100
AcDbCircle
 62
7
  6
BYLAYER
 10
191.0160158818
 20
504.0274654763
 40
3.25
100
AcDbArc
 50
90.0
 51
270.0
  0
ARC
  5
313
100
AcDbEntity
  8
3
100
AcDbCircle
 62
7
  6
BYLAYER
 10
204.5160158818
 20
504.0274654763
 40
3.25
100
AcDbArc
 50
270.0
 51
90.0
  0
ARC
  5
314
100
AcDbEntity
  8
3
100
AcDbCircle
 62
7
  6
BYLAYER
 10
191.0160158818
 20
534.0274654763
 40
3.25
100
AcDbArc
 50
90.0
 51
270.0
  0
ARC
  5
315
100
AcDbEntity
  8
3
100
AcDbCircle
 62
7
  6
BYLAYER
 10
204.5160158818
 20
534.0274654763
 40
3.25
100
AcDbArc
 50
270.0
 51
90.0
  0
ARC
  5
316
100
AcDbEntity
  8
0
100
AcDbCircle
 62
7
  6
BYLAYER
 10
235.2576766968
 20
585.4443878922
 40
1.0
100
AcDbArc
 50
90.0
 51
180.0
  0
ARC
  5
317
100
AcDbEntity
  8
0
100
AcDbCircle
 62
7
  6
BYLAYER
 10
234.0576766968
 20
585.3443878922
 40
1.0
100
AcDbArc
 50
90.0
 51
180.0000000001
  0
ARC
  5
318
100
AcDbEntity
  8
0
100
AcDbCircle
 62
7
  6
BYLAYER
 10
233.5576766968
 20
583.3443878922
 40
0.5
100
AcDbArc
 50
90.0
 51
180.0
  0
ARC
  5
319
100
AcDbEntity
  8
0
100
AcDbCircle
 62
7
  6
BYLAYER
 10
260.7842385449
 20
41.2697490661
 40
25.9492033578
100
AcDbArc
 50
33.0803197527
 51
33.6236390968
  0
ARC
  5
31A
100
AcDbEntity
  8
0
100
AcDbCircle
 62
7
  6
BYLAYER
 10
239.8579228757
 20
53.7443878922
 40
1.0
100
AcDbArc
 50
270.0
 51
360.0
  0
ARC
  5
31B
100
AcDbEntity
  8
0
100
AcDbCircle
 62
7
  6
BYLAYER
 10
275.2579347488
 20
53.7443878922
 40
1.0
100
AcDbArc
 50
180.0
 51
270.0
  0
ARC
  5
31C
100
AcDbEntity
  8
0
100
AcDbCircle
 62
7
  6
BYLAYER
 10
279.8579347488
 20
53.7443878922
 40
1.0
100
AcDbArc
 50
270.0
 51
360.0
  0
ARC
  5
31D
100
AcDbEntity
  8
0
100
AcDbCircle
 62
7
  6
BYLAYER
 10
255.5574359596
 20
53.8442777537
 40
1.0
100
AcDbArc
 50
270.0
 51
360.0
  0
ARC
  5
31E
100
AcDbEntity
  8
0
100
AcDbCircle
 62
7
  6
BYLAYER
 10
265.5574359596
 20
53.8442777537
 40
1.0
100
AcDbArc
 50
179.9999999984
 51
270.0
  0
ARC
  5
31F
100
AcDbEntity
  8
0
100
AcDbCircle
 62
7
  6
BYLAYER
 10
273.0574359596
 20
53.8442777537
 40
1.0
100
AcDbArc
 50
270.0
 51
360.0
  0
ARC
  5
320
100
AcDbEntity
  8
0
100
AcDbCircle
 62
7
  6
BYLAYER
 10
282.0574359596
 20
53.8442777537
 40
1.0
100
AcDbArc
 50
180.0
 51
270.0
  0
ARC
  5
321
100
AcDbEntity
  8
0
100
AcDbCircle
 62
7
  6
BYLAYER
 10
242.0574359596
 20
53.8442777537
 40
1.0
100
AcDbArc
 50
180.0
 51
270.0
  0
ARC
  5
322
100
AcDbEntity
  8
0
100
AcDbCircle
 62
7
  6
BYLAYER
 10
287.0574359596
 20
53.8442777537
 40
1.0
100
AcDbArc
 50
270.0000000017
 51
360.0
  0
ARC
  5
323
100
AcDbEntity
  8
0
100
AcDbCircle
 62
7
  6
BYLAYER
 10
240.5574359596
 20
54.8442777537
 40
0.5
100
AcDbArc
 50
0.0
 51
90.0
  0
ARC
  5
324
100
AcDbEntity
  8
0
100
AcDbCircle
 62
7
  6
BYLAYER
 10
274.5574359596
 20
54.8442777537
 40
0.5
100
AcDbArc
 50
90.0
 51
180.0
  0
ARC
  5
325
100
AcDbEntity
  8
0
100
AcDbCircle
 62
7
  6
BYLAYER
 10
280.5574359596
 20
54.8442777537
 40
0.5
100
AcDbArc
 50
0.0
 51
90.0
  0
ARC
  5
326
100
AcDbEntity
  8
0
100
AcDbCircle
 62
7
  6
BYLAYER
 10
239.8576766968
 20
585.4443878922
 40
1.0
100
AcDbArc
 50
0.0
 51
90.0
  0
ARC
  5
327
100
AcDbEntity
  8
0
100
AcDbCircle
 62
7
  6
BYLAYER
 10
242.0576766968
 20
585.3443878922
 40
1.0
100
AcDbArc
 50
90.0
 51
180.0
  0
ARC
  5
328
100
AcDbEntity
  8
0
100
AcDbCircle
 62
7
  6
BYLAYER
 10
255.5576766968
 20
585.3443878922
 40
1.0
100
AcDbArc
 50
0.0
 51
90.0
  0
ARC
  5
329
100
AcDbEntity
  8
0
100
AcDbCircle
 62
7
  6
BYLAYER
 10
240.5576766968
 20
584.3443878922
 40
0.5
100
AcDbArc
 50
270.0
 51
360.0
  0
ARC
  5
32A
100
AcDbEntity
  8
0
100
AcDbCircle
 62
7
  6
BYLAYER
 10
263.0576766968
 20
582.8443878922
 40
0.5
100
AcDbArc
 50
102.1468526144
 51
282.1468526144
  0
ARC
  5
32B
100
AcDbEntity
  8
0
100
AcDbCircle
 62
7
  6
BYLAYER
 10
256.5576766968
 20
582.8443878922
 40
0.5
100
AcDbArc
 50
257.8196647598
 51
77.8196647598
  0
ARC
  5
32C
100
AcDbEntity
  8
0
100
AcDbCircle
 62
7
  6
BYLAYER
 10
259.3306886535
 20
598.8757676408
 40
27.6896077159
100
AcDbArc
 50
326.3934359327
 51
326.9026052161
  0
ARC
  5
32D
100
AcDbEntity
  8
0
100
AcDbCircle
 62
7
  6
BYLAYER
 10
244.7339366968
 20
594.0443878922
 40
0.3
100
AcDbArc
 50
90.0
 51
180.0
  0
ARC
  5
32E
100
AcDbEntity
  8
0
100
AcDbCircle
 62
7
  6
BYLAYER
 10
252.3839366968
 20
594.0443878922
 40
0.3
100
AcDbArc
 50
0.0
 51
90.0
  0
ARC
  5
32F
100
AcDbEntity
  8
0
100
AcDbCircle
 62
7
  6
BYLAYER
 10
275.2576766968
 20
585.4443878922
 40
1.0
100
AcDbArc
 50
90.0
 51
180.0
  0
ARC
  5
330
100
AcDbEntity
  8
0
100
AcDbCircle
 62
7
  6
BYLAYER
 10
279.8576766968
 20
585.4443878922
 40
1.0
100
AcDbArc
 50
0.0
 51
90.0
  0
ARC
  5
331
100
AcDbEntity
  8
0
100
AcDbCircle
 62
7
  6
BYLAYER
 10
265.5576766968
 20
585.3443878922
 40
1.0
100
AcDbArc
 50
90.0
 51
180.0000000008
  0
ARC
  5
332
100
AcDbEntity
  8
0
100
AcDbCircle
 62
7
  6
BYLAYER
 10
287.0576766968
 20
585.3443878922
 40
1.0
100
AcDbArc
 50
0.0000000002
 51
90.0000000009
  0
ARC
  5
333
100
AcDbEntity
  8
0
100
AcDbCircle
 62
7
  6
BYLAYER
 10
273.0576766968
 20
585.3443878922
 40
1.0
100
AcDbArc
 50
0.0
 51
90.0
  0
ARC
  5
334
100
AcDbEntity
  8
0
100
AcDbCircle
 62
7
  6
BYLAYER
 10
282.0576766968
 20
585.3443878922
 40
1.0
100
AcDbArc
 50
90.0000000003
 51
179.9999999999
  0
ARC
  5
335
100
AcDbEntity
  8
0
100
AcDbCircle
 62
7
  6
BYLAYER
 10
280.5576766968
 20
584.3443878922
 40
0.5
100
AcDbArc
 50
270.0
 51
360.0
  0
ARC
  5
336
100
AcDbEntity
  8
0
100
AcDbCircle
 62
7
  6
BYLAYER
 10
274.5576766968
 20
584.3443878922
 40
0.5
100
AcDbArc
 50
180.0
 51
270.0
  0
ARC
  5
337
100
AcDbEntity
  8
0
100
AcDbCircle
 62
7
  6
BYLAYER
 10
274.8205213116
 20
594.0396178082
 40
0.3044707676
100
AcDbArc
 50
36.4827958935
 51
54.5150619302
  0
ARC
  5
338
100
AcDbEntity
  8
0
100
AcDbCircle
 62
7
  6
BYLAYER
 10
267.2332566968
 20
594.0443878922
 40
0.3
100
AcDbArc
 50
90.0
 51
180.0
  0
ARC
  5
339
100
AcDbEntity
  8
0
100
AcDbCircle
 62
7
  6
BYLAYER
 10
274.8264397367
 20
594.0441974499
 40
0.2969892192
100
AcDbArc
 50
0.0367405258
 51
36.4513093088
  0
SPLINE
  5
33A
100
AcDbEntity
  8
0
100
AcDbSpline
 62
7
  6
BYLAYER
 70
0
 71
3
 72
9
 73
5
 74
0
 42
0.0000001
 43
0.0000001
 44
0.0000000001
 40
0.0
 40
0.0
 40
0.0
 40
0.0
 40
0.4999750335
 40
1.0
 40
1.0
 40
1.0
 40
1.0
 10
274.9972632189
 20
594.2875386555
 30
0.0
 10
274.9715083032
 20
594.3058746142
 30
0.0
 10
274.9138836959
 20
594.3346150571
 30
0.0
 10
274.8502698483
 20
594.3443886543
 30
0.0
 10
274.8186514562
 20
594.3443878922
 30
0.0
  0
SPLINE
  5
33B
100
AcDbEntity
  8
0
100
AcDbSpline
 62
7
  6
BYLAYER
 70
0
 71
3
 72
19
 73
15
 74
0
 42
0.0000001
 43
0.0000001
 44
0.0000000001
 40
0.0
 40
0.0
 40
0.0
 40
0.0
 40
0.1238080956
 40
0.2666954409
 40
0.4202999648
 40
0.5759581247
 40
0.7251496606
 40
0.7939291274
 40
0.8569222689
 40
0.9124047765
 40
0.957439488
 40
0.9749812511
 40
0.988399122
 40
1.0
 40
1.0
 40
1.0
 40
1.0
 10
234.0576767085
 20
584.3443878922
 30
0.0
 10
234.0576766354
 20
584.3145382136
 30
0.0
 10
234.0339939117
 20
584.251077421
 30
0.0
 10
233.9693167933
 20
584.1729846954
 30
0.0
 10
233.8913807196
 20
584.0964860405
 30
0.0
 10
233.8070888016
 20
584.024947912
 30
0.0
 10
233.7368253563
 20
583.9685572519
 30
0.0
 10
233.6828989089
 20
583.9275558094
 30
0.0
 10
233.6464470563
 20
583.9009159837
 30
0.0
 10
233.6139349367
 20
583.8785981093
 30
0.0
 10
233.5902378218
 20
583.8628700628
 30
0.0
 10
233.5742370908
 20
583.8537997169
 30
0.0
 10
233.5658614666
 20
583.8480671297
 30
0.0
 10
233.5594147051
 20
583.8465792802
 30
0.0
 10
233.5576767051
 20
583.8443878951
 30
0.0
  0
SPLINE
  5
33C
100
AcDbEntity
  8
0
100
AcDbSpline
 62
7
  6
BYLAYER
 70
0
 71
3
 72
13
 73
9
 74
0
 42
0.0000001
 43
0.0000001
 44
0.0000000001
 40
0.0
 40
0.0
 40
0.0
 40
0.0
 40
0.3392858511
 40
0.6244968217
 40
0.7400572223
 40
0.83843806
 40
0.9230857451
 40
1.0
 40
1.0
 40
1.0
 40
1.0
 10
256.0576752736
 20
585.3443878922
 30
0.0
 10
256.0576752732
 20
585.4809889104
 30
0.0
 10
256.0325535952
 20
585.7330026167
 30
0.0
 10
255.9381437259
 20
586.019855942
 30
0.0
 10
255.8298974903
 20
586.1904114962
 30
0.0
 10
255.745473934
 20
586.2775031726
 30
0.0
 10
255.6541601108
 20
586.3317250132
 30
0.0
 10
255.5886404621
 20
586.3443808956
 30
0.0
 10
255.557673756
 20
586.3443878927
 30
0.0
  0
SPLINE
  5
33D
100
AcDbEntity
  8
0
100
AcDbSpline
 62
7
  6
BYLAYER
 70
0
 71
3
 72
14
 73
10
 74
0
 42
0.0000001
 43
0.0000001
 44
0.0000000001
 40
0.0
 40
0.0
 40
0.0
 40
0.0
 40
0.1247548922
 40
0.2497370872
 40
0.3748455166
 40
0.5000186734
 40
0.7495155103
 40
0.8747430806
 40
1.0
 40
1.0
 40
1.0
 40
1.0
 10
273.0576766968
 20
584.3443878922
 30
0.0
 10
273.0576768325
 20
584.2613798099
 30
0.0
 10
273.0898090279
 20
584.0941549901
 30
0.0
 10
273.2123129434
 20
583.8735677496
 30
0.0
 10
273.383426646
 20
583.6889470698
 30
0.0
 10
273.655497048
 20
583.4946285482
 30
0.0
 10
273.9762339075
 20
583.3807399977
 30
0.0
 10
274.3074880601
 20
583.3443705522
 30
0.0
 10
274.474334581
 20
583.3443878883
 30
0.0
 10
274.5576766968
 20
583.3443878922
 30
0.0
  0
SPLINE
  5
33E
100
AcDbEntity
  8
0
100
AcDbSpline
 62
7
  6
BYLAYER
 70
0
 71
3
 72
12
 73
8
 74
0
 42
0.0000001
 43
0.0000001
 44
0.0000000001
 40
0.0
 40
0.0
 40
0.0
 40
0.0
 40
0.1204115357
 40
0.2167519688
 40
0.3384069038
 40
0.6443218671
 40
1.0
 40
1.0
 40
1.0
 40
1.0
 10
286.3323978247
 20
586.3443878922
 30
0.0
 10
286.3756633781
 20
586.3443878922
 30
0.0
 10
286.440549813
 20
586.2757719795
 30
0.0
 10
286.4901422964
 20
586.1692534041
 30
0.0
 10
286.5493697934
 20
585.9881882411
 30
0.0
 10
286.5945242729
 20
585.7102728057
 30
0.0
 10
286.6071189526
 20
585.4721880332
 30
0.0
 10
286.6071189526
 20
585.3443878922
 30
0.0
  0
SPLINE
  5
33F
100
AcDbEntity
  8
0
100
AcDbSpline
 62
7
  6
BYLAYER
 70
0
 71
3
 72
9
 73
5
 74
0
 42
0.0000001
 43
0.0000001
 44
0.0000000001
 40
0.0
 40
0.0
 40
0.0
 40
0.0
 40
0.2472785885
 40
1.0
 40
1.0
 40
1.0
 40
1.0
 10
282.9697583886
 20
583.3443878922
 30
0.0
 10
282.9223294617
 20
583.361822178
 30
0.0
 10
282.7304151559
 20
583.432020429
 30
0.0
 10
282.5378388732
 20
583.5004483104
 30
0.0
 10
282.3921954206
 20
583.5499305962
 30
0.0
  0
SPLINE
  5
340
100
AcDbEntity
  8
0
100
AcDbSpline
 62
7
  6
BYLAYER
 70
0
 71
3
 72
9
 73
5
 74
0
 42
0.0000001
 43
0.0000001
 44
0.0000000001
 40
0.0
 40
0.0
 40
0.0
 40
0.0
 40
0.2510691642
 40
1.0
 40
1.0
 40
1.0
 40
1.0
 10
282.5274789249
 20
583.7554734082
 30
0.0
 10
282.5656163712
 20
583.7223120679
 30
0.0
 10
282.716190561
 20
583.5887047671
 30
0.0
 10
282.8621167156
 20
583.4499351652
 30
0.0
 10
282.969758483
 20
583.3443879963
 30
0.0
  0
SPLINE
  5
341
100
AcDbEntity
  8
0
100
AcDbSpline
 62
7
  6
BYLAYER
 70
0
 71
3
 72
11
 73
7
 74
0
 42
0.0000001
 43
0.0000001
 44
0.0000000001
 40
0.0
 40
0.0
 40
0.0
 40
0.0
 40
0.2113294637
 40
0.4594517307
 40
0.7260918999
 40
1.0
 40
1.0
 40
1.0
 40
1.0
 10
281.4699919263
 20
584.3443878922
 30
0.0
 10
281.5563929294
 20
584.3443873057
 30
0.0
 10
281.7416381837
 20
584.2885608952
 30
0.0
 10
282.0026391684
 20
584.1484651249
 30
0.0
 10
282.269867436
 20
583.9666081298
 30
0.0
 10
282.4429643615
 20
583.8289454822
 30
0.0
 10
282.527478831
 20
583.7554733002
 30
0.0
  0
SPLINE
  5
342
100
AcDbEntity
  8
0
100
AcDbSpline
 62
7
  6
BYLAYER
 70
0
 71
3
 72
10
 73
6
 74
0
 42
0.0000001
 43
0.0000001
 44
0.0000000001
 40
0.0
 40
0.0
 40
0.0
 40
0.0
 40
0.5192781373
 40
0.7706703291
 40
1.0
 40
1.0
 40
1.0
 40
1.0
 10
282.39219548
 20
583.5499308019
 30
0.0
 10
282.1764812002
 20
583.6264339902
 30
0.0
 10
281.8506775648
 20
583.7254769779
 30
0.0
 10
281.4200856844
 20
583.8193728835
 30
0.0
 10
281.2085102936
 20
583.8443876547
 30
0.0
 10
281.1074302796
 20
583.8443878922
 30
0.0
  0
SPLINE
  5
343
100
AcDbEntity
  8
0
100
AcDbSpline
 62
7
  6
BYLAYER
 70
0
 71
3
 72
9
 73
5
 74
0
 42
0.0000001
 43
0.0000001
 44
0.0000000001
 40
0.0
 40
0.0
 40
0.0
 40
0.0
 40
0.2566268573
 40
1.0
 40
1.0
 40
1.0
 40
1.0
 10
282.4043385294
 20
583.3443878922
 30
0.0
 10
282.4043385294
 20
583.3620071479
 30
0.0
 10
282.403333769
 20
583.4306566984
 30
0.0
 10
282.3984703124
 20
583.4992799571
 30
0.0
 10
282.3921954206
 20
583.5499305962
 30
0.0
  0
SPLINE
  5
344
100
AcDbEntity
  8
0
100
AcDbSpline
 62
7
  6
BYLAYER
 70
0
 71
3
 72
12
 73
8
 74
0
 42
0.0000001
 43
0.0000001
 44
0.0000000001
 40
0.0
 40
0.0
 40
0.0
 40
0.0
 40
0.3555601317
 40
0.6614267398
 40
0.7831217149
 40
0.8795320322
 40
1.0
 40
1.0
 40
1.0
 40
1.0
 10
282.9697583886
 20
585.3443878922
 30
0.0
 10
282.9697583886
 20
585.4721451736
 30
0.0
 10
282.9571718589
 20
585.710169672
 30
0.0
 10
282.9120389429
 20
585.9880392954
 30
0.0
 10
282.852829825
 20
586.1691344702
 30
0.0
 10
282.8032333463
 20
586.2757097741
 30
0.0
 10
282.7383229351
 20
586.3443878922
 30
0.0
 10
282.6950372607
 20
586.3443878922
 30
0.0
  0
SPLINE
  5
345
100
AcDbEntity
  8
0
100
AcDbSpline
 62
7
  6
BYLAYER
 70
0
 71
3
 72
11
 73
7
 74
0
 42
0.0000001
 43
0.0000001
 44
0.0000000001
 40
0.0
 40
0.0
 40
0.0
 40
0.0
 40
0.2742864213
 40
0.5514542927
 40
0.7962818329
 40
1.0
 40
1.0
 40
1.0
 40
1.0
 10
281.4699919272
 20
584.3443878922
 30
0.0
 10
281.4699919206
 20
584.2824547388
 30
0.0
 10
281.4532982414
 20
584.1572529755
 30
0.0
 10
281.3775404691
 20
583.990668581
 30
0.0
 10
281.255913113
 20
583.8730279272
 30
0.0
 10
281.1534293106
 20
583.8443878918
 30
0.0
 10
281.1074302836
 20
583.8443878922
 30
0.0
  0
SPLINE
  5
346
100
AcDbEntity
  8
0
100
AcDbSpline
 62
7
  6
BYLAYER
 70
0
 71
3
 72
13
 73
9
 74
0
 42
0.0000001
 43
0.0000001
 44
0.0000000001
 40
0.0
 40
0.0
 40
0.0
 40
0.0
 40
0.0769117591
 40
0.1615599831
 40
0.2599401278
 40
0.3754978975
 40
0.6607031278
 40
1.0
 40
1.0
 40
1.0
 40
1.0
 10
265.557678731
 20
586.3443878926
 30
0.0
 10
265.5267130292
 20
586.3443815534
 30
0.0
 10
265.4611941769
 20
586.3317253675
 30
0.0
 10
265.369880803
 20
586.2775051449
 30
0.0
 10
265.2854576229
 20
586.1904145532
 30
0.0
 10
265.1772121667
 20
586.0198629539
 30
0.0
 10
265.0827994882
 20
585.7330093127
 30
0.0
 10
265.0576778826
 20
585.4809933493
 30
0.0
 10
265.0576772376
 20
585.3443878922
 30
0.0
  0
SPLINE
  5
347
100
AcDbEntity
  8
0
100
AcDbSpline
 62
7
  6
BYLAYER
 70
0
 71
3
 72
14
 73
10
 74
0
 42
0.0000001
 43
0.0000001
 44
0.0000000001
 40
0.0
 40
0.0
 40
0.0
 40
0.0
 40
0.1247554493
 40
0.2497373879
 40
0.3748457258
 40
0.5000187559
 40
0.7495153736
 40
0.8747430248
 40
1.0
 40
1.0
 40
1.0
 40
1.0
 10
242.0576766968
 20
584.3443878922
 30
0.0
 10
242.0576764765
 20
584.2613794385
 30
0.0
 10
242.025544225
 20
584.0941544068
 30
0.0
 10
241.903039993
 20
583.8735671783
 30
0.0
 10
241.7319264255
 20
583.6889468225
 30
0.0
 10
241.4598562213
 20
583.4946285123
 30
0.0
 10
241.1391195466
 20
583.3807401012
 30
0.0
 10
240.8078654708
 20
583.3443703561
 30
0.0
 10
240.6410188505
 20
583.3443878715
 30
0.0
 10
240.5576766968
 20
583.3443878922
 30
0.0
  0
SPLINE
  5
348
100
AcDbEntity
  8
0
100
AcDbSpline
 62
7
  6
BYLAYER
 70
0
 71
3
 72
13
 73
9
 74
0
 42
0.0000001
 43
0.0000001
 44
0.0000000001
 40
0.0
 40
0.0
 40
0.0
 40
0.0
 40
0.3392858713
 40
0.6244968418
 40
0.7400572574
 40
0.8384380715
 40
0.9230857484
 40
1.0
 40
1.0
 40
1.0
 40
1.0
 10
265.0574372674
 20
53.8442777537
 30
0.0
 10
265.0574372678
 20
53.7076767249
 30
0.0
 10
265.0825589404
 20
53.4556629997
 30
0.0
 10
265.1769688484
 20
53.1688096763
 30
0.0
 10
265.2852150494
 20
52.9982540961
 30
0.0
 10
265.3696386352
 20
52.9111624517
 30
0.0
 10
265.4609524518
 20
52.8569406313
 30
0.0
 10
265.5264720971
 20
52.8442847474
 30
0.0
 10
265.5574388025
 20
52.8442777533
 30
0.0
  0
SPLINE
  5
349
100
AcDbEntity
  8
0
100
AcDbSpline
 62
7
  6
BYLAYER
 70
0
 71
3
 72
12
 73
8
 74
0
 42
0.0000001
 43
0.0000001
 44
0.0000000001
 40
0.0
 40
0.0
 40
0.0
 40
0.0
 40
0.1204115357
 40
0.2167519688
 40
0.3384069038
 40
0.6443218671
 40
1.0
 40
1.0
 40
1.0
 40
1.0
 10
282.6947965236
 20
52.8442777537
 30
0.0
 10
282.7380620769
 20
52.8442777537
 30
0.0
 10
282.8029485119
 20
52.9128936664
 30
0.0
 10
282.8525409953
 20
53.0194122418
 30
0.0
 10
282.9117684922
 20
53.2004774049
 30
0.0
 10
282.9569229718
 20
53.4783928402
 30
0.0
 10
282.9695176515
 20
53.7164776127
 30
0.0
 10
282.9695176515
 20
53.8442777537
 30
0.0
  0
SPLINE
  5
34A
100
AcDbEntity
  8
0
100
AcDbSpline
 62
7
  6
BYLAYER
 70
0
 71
3
 72
19
 73
15
 74
0
 42
0.0000001
 43
0.0000001
 44
0.0000000001
 40
0.0
 40
0.0
 40
0.0
 40
0.0
 40
0.011600878
 40
0.0250187489
 40
0.042560512
 40
0.0875952236
 40
0.1430777312
 40
0.2060708727
 40
0.2748503396
 40
0.4240418756
 40
0.5797000357
 40
0.7333045595
 40
0.8761919047
 40
1.0
 40
1.0
 40
1.0
 40
1.0
 10
233.557435967
 20
55.3442777509
 30
0.0
 10
233.5591719636
 20
55.3420847782
 30
0.0
 10
233.565621798
 20
55.3405993636
 30
0.0
 10
233.573995954
 20
55.3348656131
 30
0.0
 10
233.5899974152
 20
55.3257958458
 30
0.0
 10
233.6136940494
 20
55.3100674184
 30
0.0
 10
233.646206368
 20
55.2877497015
 30
0.0
 10
233.6826581556
 20
55.2611098244
 30
0.0
 10
233.7365846279
 20
55.2201084016
 30
0.0
 10
233.8068480596
 20
55.1637177308
 30
0.0
 10
233.891139982
 20
55.0921796058
 30
0.0
 10
233.9690760544
 20
55.01568095
 30
0.0
 10
234.033753173
 20
54.9375882247
 30
0.0
 10
234.0574358965
 20
54.8741274323
 30
0.0
 10
234.0574359695
 20
54.8442777537
 30
0.0
  0
SPLINE
  5
34B
100
AcDbEntity
  8
0
100
AcDbSpline
 62
7
  6
BYLAYER
 70
0
 71
3
 72
14
 73
10
 74
0
 42
0.0000001
 43
0.0000001
 44
0.0000000001
 40
0.0
 40
0.0
 40
0.0
 40
0.0
 40
0.124755068
 40
0.2497371838
 40
0.3748455004
 40
0.5000186091
 40
0.7495154875
 40
0.8747430736
 40
1.0
 40
1.0
 40
1.0
 40
1.0
 10
242.0574359596
 20
54.8442777537
 30
0.0
 10
242.0574357393
 20
54.927285953
 30
0.0
 10
242.0253036128
 20
55.0945108398
 30
0.0
 10
241.902799596
 20
55.3150980319
 30
0.0
 10
241.7316859923
 20
55.4997185669
 30
0.0
 10
241.4596156715
 20
55.6940370645
 30
0.0
 10
241.1388788114
 20
55.8079256474
 30
0.0
 10
240.8076246162
 20
55.8442950888
 30
0.0
 10
240.6407780801
 20
55.8442777745
 30
0.0
 10
240.5574359596
 20
55.8442777537
 30
0.0
  0
SPLINE
  5
34C
100
AcDbEntity
  8
0
100
AcDbSpline
 62
7
  6
BYLAYER
 70
0
 71
3
 72
13
 73
9
 74
0
 42
0.0000001
 43
0.0000001
 44
0.0000000001
 40
0.0
 40
0.0
 40
0.0
 40
0.0
 40
0.0769117553
 40
0.161559974
 40
0.2599401128
 40
0.3754978777
 40
0.6607031082
 40
1.0
 40
1.0
 40
1.0
 40
1.0
 10
255.5574340177
 20
52.8442777534
 30
0.0
 10
255.5883997185
 20
52.8442840894
 30
0.0
 10
255.6539185696
 20
52.8569402685
 30
0.0
 10
255.7452319439
 20
52.911160482
 30
0.0
 10
255.8296551256
 20
52.9982510659
 30
0.0
 10
255.9379005873
 20
53.1688026607
 30
0.0
 10
256.032313274
 20
53.4556563112
 30
0.0
 10
256.0574348827
 20
53.7076722866
 30
0.0
 10
256.0574355276
 20
53.8442777537
 30
0.0
  0
SPLINE
  5
34D
100
AcDbEntity
  8
0
100
AcDbSpline
 62
7
  6
BYLAYER
 70
0
 71
3
 72
14
 73
10
 74
0
 42
0.0000001
 43
0.0000001
 44
0.0000000001
 40
0.0
 40
0.0
 40
0.0
 40
0.0
 40
0.1247554493
 40
0.2497373879
 40
0.3748457258
 40
0.5000187559
 40
0.7495153736
 40
0.8747430248
 40
1.0
 40
1.0
 40
1.0
 40
1.0
 10
273.0574359596
 20
54.8442777537
 30
0.0
 10
273.0574361799
 20
54.9272862075
 30
0.0
 10
273.0895684314
 20
55.0945112392
 30
0.0
 10
273.2120726634
 20
55.3150984676
 30
0.0
 10
273.3831862309
 20
55.4997188235
 30
0.0
 10
273.6552564351
 20
55.6940371337
 30
0.0
 10
273.9759931098
 20
55.8079255447
 30
0.0
 10
274.3072471856
 20
55.8442952898
 30
0.0
 10
274.4740938059
 20
55.8442777745
 30
0.0
 10
274.5574359596
 20
55.8442777537
 30
0.0
  0
SPLINE
  5
34E
100
AcDbEntity
  8
0
100
AcDbSpline
 62
7
  6
BYLAYER
 70
0
 71
3
 72
9
 73
5
 74
0
 42
0.0000001
 43
0.0000001
 44
0.0000000001
 40
0.0
 40
0.0
 40
0.0
 40
0.0
 40
0.2481650378
 40
1.0
 40
1.0
 40
1.0
 40
1.0
 10
282.9695177836
 20
55.8442776079
 30
0.0
 10
282.9338503588
 20
55.8093042535
 30
0.0
 10
282.7894093049
 20
55.6691182069
 30
0.0
 10
282.6414399553
 20
55.5324930879
 30
0.0
 10
282.5272382254
 20
55.4331921944
 30
0.0
  0
SPLINE
  5
34F
100
AcDbEntity
  8
0
100
AcDbSpline
 62
7
  6
BYLAYER
 70
0
 71
3
 72
9
 73
5
 74
0
 42
0.0000001
 43
0.0000001
 44
0.0000000001
 40
0.0
 40
0.0
 40
0.0
 40
0.0
 40
0.2472783313
 40
1.0
 40
1.0
 40
1.0
 40
1.0
 10
282.9695176515
 20
55.8442777537
 30
0.0
 10
282.9220887721
 20
55.8268434985
 30
0.0
 10
282.7301718882
 20
55.7566523474
 30
0.0
 10
282.5375981809
 20
55.688217342
 30
0.0
 10
282.3919546834
 20
55.6387350497
 30
0.0
  0
SPLINE
  5
350
100
AcDbEntity
  8
0
100
AcDbSpline
 62
7
  6
BYLAYER
 70
0
 71
3
 72
11
 73
7
 74
0
 42
0.0000001
 43
0.0000001
 44
0.0000000001
 40
0.0
 40
0.0
 40
0.0
 40
0.0
 40
0.2113298764
 40
0.4594518575
 40
0.7260919632
 40
1.0
 40
1.0
 40
1.0
 40
1.0
 10
281.4697511684
 20
54.8442777537
 30
0.0
 10
281.5561523412
 20
54.8442783361
 30
0.0
 10
281.7413976378
 20
54.9001048625
 30
0.0
 10
282.0023986178
 20
55.0402006707
 30
0.0
 10
282.2696267769
 20
55.2220575374
 30
0.0
 10
282.4427236497
 20
55.3597201723
 30
0.0
 10
282.5272380939
 20
55.4331923457
 30
0.0
  0
SPLINE
  5
351
100
AcDbEntity
  8
0
100
AcDbSpline
 62
7
  6
BYLAYER
 70
0
 71
3
 72
11
 73
7
 74
0
 42
0.0000001
 43
0.0000001
 44
0.0000000001
 40
0.0
 40
0.0
 40
0.0
 40
0.0
 40
0.2037181708
 40
0.4485457117
 40
0.7257135813
 40
1.0
 40
1.0
 40
1.0
 40
1.0
 10
281.1071895284
 20
55.3442777537
 30
0.0
 10
281.1531885562
 20
55.3442777541
 30
0.0
 10
281.25567236
 20
55.3156377189
 30
0.0
 10
281.3772997168
 20
55.1979970643
 30
0.0
 10
281.4530574871
 20
55.0314126695
 30
0.0
 10
281.4697511641
 20
54.9062109066
 30
0.0
 10
281.4697511696
 20
54.8442777537
 30
0.0
  0
SPLINE
  5
352
100
AcDbEntity
  8
0
100
AcDbSpline
 62
7
  6
BYLAYER
 70
0
 71
3
 72
9
 73
5
 74
0
 42
0.0000001
 43
0.0000001
 44
0.0000000001
 40
0.0
 40
0.0
 40
0.0
 40
0.0
 40
0.2408658181
 40
1.0
 40
1.0
 40
1.0
 40
1.0
 10
282.3919546834
 20
55.6387350497
 30
0.0
 10
282.3939878875
 20
55.6551469797
 30
0.0
 10
282.4012268697
 20
55.7234300562
 30
0.0
 10
282.4040977922
 20
55.7921570322
 30
0.0
 10
282.4040977922
 20
55.8442777537
 30
0.0
  0
SPLINE
  5
353
100
AcDbEntity
  8
0
100
AcDbSpline
 62
7
  6
BYLAYER
 70
0
 71
3
 72
10
 73
6
 74
0
 42
0.0000001
 43
0.0000001
 44
0.0000000001
 40
0.0
 40
0.0
 40
0.0
 40
0.0
 40
0.2293296864
 40
0.4807218845
 40
1.0
 40
1.0
 40
1.0
 40
1.0
 10
281.107189549
 20
55.3442777537
 30
0.0
 10
281.2082695694
 20
55.3442779902
 30
0.0
 10
281.4198449692
 20
55.3692927613
 30
0.0
 10
281.8504368476
 20
55.4631886666
 30
0.0
 10
282.1762404771
 20
55.5622316458
 30
0.0
 10
282.3919547459
 20
55.6387348333
 30
0.0
  0
SPLINE
  5
354
100
AcDbEntity
  8
0
100
AcDbSpline
 62
7
  6
BYLAYER
 70
0
 71
3
 72
12
 73
8
 74
0
 42
0.0000001
 43
0.0000001
 44
0.0000000001
 40
0.0
 40
0.0
 40
0.0
 40
0.0
 40
0.3555601317
 40
0.6614267398
 40
0.7831217149
 40
0.8795320322
 40
1.0
 40
1.0
 40
1.0
 40
1.0
 10
286.6068782154
 20
53.8442777537
 30
0.0
 10
286.6068782154
 20
53.7165204724
 30
0.0
 10
286.5942916857
 20
53.4784959739
 30
0.0
 10
286.5491587697
 20
53.2006263505
 30
0.0
 10
286.4899496517
 20
53.0195311757
 30
0.0
 10
286.440353173
 20
52.9129558719
 30
0.0
 10
286.3754427618
 20
52.8442777537
 30
0.0
 10
286.3321570875
 20
52.8442777537
 30
0.0
  0
SPLINE
  5
355
100
AcDbEntity
  8
0
100
AcDbSpline
 62
7
  6
BYLAYER
 70
0
 71
3
 72
15
 73
11
 74
0
 42
0.0000001
 43
0.0000001
 44
0.0000000001
 40
0.0
 40
0.0
 40
0.0
 40
0.0
 40
0.0669617425
 40
0.186153423
 40
0.3431991328
 40
0.519156981
 40
0.6928039503
 40
0.8431957534
 40
0.9521930809
 40
1.0
 40
1.0
 40
1.0
 40
1.0
 10
271.0410590847
 20
583.3331936412
 30
0.0
 10
271.0408512381
 20
583.3113736207
 30
0.0
 10
271.0406759321
 20
583.2507216657
 30
0.0
 10
271.0404127584
 20
583.1387928517
 30
0.0
 10
271.0402733549
 20
582.9919272202
 30
0.0
 10
271.0402529399
 20
582.8246904027
 30
0.0
 10
271.0402189143
 20
582.6694162518
 30
0.0
 10
271.0406918913
 20
582.5056315151
 30
0.0
 10
271.040244011
 20
582.4560148424
 30
0.0
 10
271.0413421011
 20
582.3400038754
 30
0.0
 10
271.0414904919
 20
582.3555821432
 30
0.0
  0
SPLINE
  5
356
100
AcDbEntity
  8
0
100
AcDbSpline
 62
7
  6
BYLAYER
 70
0
 71
3
 72
15
 73
11
 74
0
 42
0.0000001
 43
0.0000001
 44
0.0000000001
 40
0.0
 40
0.0
 40
0.0
 40
0.0
 40
0.0669617425
 40
0.186153423
 40
0.3431991328
 40
0.519156981
 40
0.6928039503
 40
0.8431957534
 40
0.9521930809
 40
1.0
 40
1.0
 40
1.0
 40
1.0
 10
271.0742943089
 20
583.3331936412
 30
0.0
 10
271.0745021555
 20
583.3113736207
 30
0.0
 10
271.0746774615
 20
583.2507216657
 30
0.0
 10
271.0749406352
 20
583.1387928517
 30
0.0
 10
271.0750800387
 20
582.9919272202
 30
0.0
 10
271.0751004537
 20
582.8246904027
 30
0.0
 10
271.0751344793
 20
582.6694162518
 30
0.0
 10
271.0746615023
 20
582.5056315151
 30
0.0
 10
271.0751093826
 20
582.4560148424
 30
0.0
 10
271.0740112925
 20
582.3400038754
 30
0.0
 10
271.0738629017
 20
582.3555821432
 30
0.0
  0
SPLINE
  5
357
100
AcDbEntity
  8
0
100
AcDbSpline
 62
7
  6
BYLAYER
 70
0
 71
3
 72
15
 73
11
 74
0
 42
0.0000001
 43
0.0000001
 44
0.0000000001
 40
0.0
 40
0.0
 40
0.0
 40
0.0
 40
0.0669937573
 40
0.186213591
 40
0.3432801964
 40
0.5192491623
 40
0.6928961304
 40
0.8432768136
 40
0.9522532438
 40
1.0
 40
1.0
 40
1.0
 40
1.0
 10
248.5742944882
 20
583.3331748093
 30
0.0
 10
248.5745022454
 20
583.3113451957
 30
0.0
 10
248.5746776415
 20
583.2506759827
 30
0.0
 10
248.5749407061
 20
583.1387249994
 30
0.0
 10
248.5750801145
 20
582.991845694
 30
0.0
 10
248.5751003801
 20
582.8246039185
 30
0.0
 10
248.5751346336
 20
582.6693385089
 30
0.0
 10
248.5746608135
 20
582.505564835
 30
0.0
 10
248.5751102815
 20
582.4559785703
 30
0.0
 10
248.5740107919
 20
582.34004291
 30
0.0
 10
248.5738627224
 20
582.3556009751
 30
0.0
  0
SPLINE
  5
358
100
AcDbEntity
  8
0
100
AcDbSpline
 62
7
  6
BYLAYER
 70
0
 71
3
 72
15
 73
11
 74
0
 42
0.0000001
 43
0.0000001
 44
0.0000000001
 40
0.0
 40
0.0
 40
0.0
 40
0.0
 40
0.0669937573
 40
0.186213591
 40
0.3432801964
 40
0.5192491623
 40
0.6928961304
 40
0.8432768136
 40
0.9522532438
 40
1.0
 40
1.0
 40
1.0
 40
1.0
 10
248.5410589054
 20
583.3331748093
 30
0.0
 10
248.5408511481
 20
583.3113451957
 30
0.0
 10
248.5406757521
 20
583.2506759827
 30
0.0
 10
248.5404126875
 20
583.1387249994
 30
0.0
 10
248.5402732791
 20
582.991845694
 30
0.0
 10
248.5402530135
 20
582.8246039185
 30
0.0
 10
248.54021876
 20
582.6693385089
 30
0.0
 10
248.5406925801
 20
582.505564835
 30
0.0
 10
248.5402431121
 20
582.4559785703
 30
0.0
 10
248.5413426017
 20
582.34004291
 30
0.0
 10
248.5414906712
 20
582.3556009751
 30
0.0
  0
SPLINE
  5
359
100
AcDbEntity
  8
0
100
AcDbSpline
 62
7
  6
BYLAYER
 70
0
 71
3
 72
15
 73
11
 74
0
 42
0.0000001
 43
0.0000001
 44
0.0000000001
 40
0.0
 40
0.0
 40
0.0
 40
0.0
 40
0.0670663168
 40
0.1863499579
 40
0.3434639219
 40
0.5194580854
 40
0.6931050508
 40
0.8434605314
 40
0.9523895991
 40
1.0
 40
1.0
 40
1.0
 40
1.0
 10
248.5742948945
 20
583.3331320755
 30
0.0
 10
248.5745024498
 20
583.311280725
 30
0.0
 10
248.574678049
 20
583.25057241
 30
0.0
 10
248.574940867
 20
583.1385712009
 30
0.0
 10
248.5750802862
 20
582.9916609265
 30
0.0
 10
248.5751002127
 20
582.824407932
 30
0.0
 10
248.5751349852
 20
582.6691623592
 30
0.0
 10
248.5746592475
 20
582.5054137534
 30
0.0
 10
248.5751123257
 20
582.4558964214
 30
0.0
 10
248.5740096597
 20
582.3401314279
 30
0.0
 10
248.5738623161
 20
582.355643709
 30
0.0
  0
SPLINE
  5
35A
100
AcDbEntity
  8
0
100
AcDbSpline
 62
7
  6
BYLAYER
 70
0
 71
3
 72
15
 73
11
 74
0
 42
0.0000001
 43
0.0000001
 44
0.0000000001
 40
0.0
 40
0.0
 40
0.0
 40
0.0
 40
0.0670663168
 40
0.1863499579
 40
0.3434639219
 40
0.5194580854
 40
0.6931050508
 40
0.8434605314
 40
0.9523895991
 40
1.0
 40
1.0
 40
1.0
 40
1.0
 10
248.5410584991
 20
583.3331320755
 30
0.0
 10
248.5408509438
 20
583.311280725
 30
0.0
 10
248.5406753446
 20
583.25057241
 30
0.0
 10
248.5404125266
 20
583.1385712009
 30
0.0
 10
248.5402731074
 20
582.9916609265
 30
0.0
 10
248.5402531809
 20
582.824407932
 30
0.0
 10
248.5402184084
 20
582.6691623592
 30
0.0
 10
248.5406941461
 20
582.5054137534
 30
0.0
 10
248.5402410679
 20
582.4558964214
 30
0.0
 10
248.5413437339
 20
582.3401314279
 30
0.0
 10
248.5414910775
 20
582.355643709
 30
0.0
  0
ENDSEC
  0
SECTION
  2
OBJECTS
  0
DICTIONARY
  5
C
100
AcDbDictionary
280
0
281
1
  3
ACAD_GROUP
350
D
  3
ACAD_MLINESTYLE
350
17
  3
ACAD_LAYOUT
350
1A
  3
ACAD_PLOTSETTINGS
350
19
  3
ACAD_PLOTSTYLENAME
350
E
  0
DICTIONARY
  5
D
102
{ACAD_REACTORS
330
C
102
}
100
AcDbDictionary
280
0
281
1
  0
ACDBDICTIONARYWDFLT
  5
E
102
{ACAD_REACTORS
330
C
102
}
100
AcDbDictionary
281
1
  3
Normal
350
F
100
AcDbDictionaryWithDefault
340
F
  0
DICTIONARY
  5
17
102
{ACAD_REACTORS
330
C
102
}
100
AcDbDictionary
280
0
281
1
  3
Standard
350
18
  0
DICTIONARY
  5
19
102
{ACAD_REACTORS
330
C
102
}
100
AcDbDictionary
281
1
  0
DICTIONARY
  5
1A
102
{ACAD_REACTORS
330
C
102
}
100
AcDbDictionary
281
1
  3
Model
350
35B
  3
Layout1
350
35C
  0
ACDBPLACEHOLDER
  5
F
102
{ACAD_REACTORS
330
E
102
}
  0
MLINESTYLE
  5
18
102
{ACAD_REACTORS
330
17
102
}
100
AcDbMlineStyle
  2
STANDARD
 70
0
  3

 62
256
 51
90.0
 52
90.0
 71
2
 49
0.5
 62
256
  6
BYLAYER
 49
-0.5
 62
256
  6
BYLAYER
  0
LAYOUT
  5
35B
102
{ACAD_REACTORS
330
1A
102
}
100
AcDbPlotSettings
  1

  2
none_device
  4

  6

 40
0.0
 41
0.0
 42
0.0
 43
0.0
 44
210.0
 45
297.0
 46
0.0
 47
0.0
 48
0.0
 49
0.0
140
0.0
141
0.0
142
1.0
143
1.0
 70
1024
 72
1
 73
0
 74
0
  7

 75
0
147
1.0
148
0.0
149
0.0
100
AcDbLayout
  1
Model
 70
0
 71
0
 10
0.0
 20
0.0
 11
210.0
 21
297.0
 12
0.0
 22
0.0
 32
0.0
 14
0.0
 24
0.0
 34
0.0
 15
0.0
 25
0.0
 35
0.0
146
0.0
 13
0.0
 23
0.0
 33
0.0
 16
1.0
 26
0.0
 36
0.0
 17
0.0
 27
1.0
 37
0.0
 76
0
330
212
345
0
346
0
  0
LAYOUT
  5
35C
102
{ACAD_REACTORS
330
1A
102
}
100
AcDbPlotSettings
  1

  2
none_device
  4

  6

 40
0.0
 41
0.0
 42
0.0
 43
0.0
 44
210.0
 45
297.0
 46
0.0
 47
0.0
 48
0.0
 49
0.0
140
0.0
141
0.0
142
1.0
143
1.0
 70
0
 72
1
 73
0
 74
0
  7

 75
0
147
1.0
148
0.0
149
0.0
100
AcDbLayout
  1
Layout1
 70
0
 71
1
 10
0.0
 20
0.0
 11
210.0
 21
297.0
 12
0.0
 22
0.0
 32
0.0
 14
0.0
 24
0.0
 34
0.0
 15
0.0
 25
0.0
 35
0.0
146
0.0
 13
0.0
 23
0.0
 33
0.0
 16
1.0
 26
0.0
 36
0.0
 17
0.0
 27
1.0
 37
0.0
 76
0
330
213
345
0
346
0
  0
ENDSEC
  0
EOF
