999
DXF file: C:\Users\sesa63760\Dev\_Creo\CAD\MCADUE0002358_3D-CAD\drw0001_1.dxf
999
Pro/ENGINEER 2019471 by Parametric Technology Corporation
  0
SECTION
  2
HEADER
  9
$ACADVER
  1
AC1024
  9
$DWGCODEPAGE
  3
ANSI_1252
  9
$EXTMAX
 10
146.2033817442
 20
206.7733541811
 30
0.0
  9
$EXTMIN
 10
0.0
 20
0.0
 30
0.0
  9
$LIMMIN
 10
0.0
 20
0.0
  9
$LIMMAX
 10
146.2033817442
 20
206.7733541811
  9
$VIEWCTR
 10
73.1016908721
 20
103.3866770905
  9
$VIEWSIZE
 40
206.7733541811
  9
$CLAYER
  8
0
  9
$LTSCALE
 40
13.4785593837
  9
$CELTYPE
  6
BYLAYER
  9
$DIMSCALE
 40
1.0
  9
$DIMASZ
 40
1.7405164493
  9
$DIMEXO
 40
1.0
  9
$DIMDLI
 40
9.3124592105
  9
$DIMEXE
 40
1.0
  9
$DIMCEN
 40
2.2055824446
  9
$DIMLFAC
 40
1.0
  9
$DIMBLK
  1
_FILLED
  9
$DIMALT
 70
0
  9
$DIMALTF
 40
0.0393700787
  9
$DIMTXT
 40
2.4367230291
  9
$DIMTOL
 70
1
  9
$DIMLIM
 70
0
  9
$DIMTFAC
 40
1.0
  9
$DIMTP
 40
0.01
  9
$DIMTM
 40
0.01
  9
$DIMGAP
 40
0.625
  9
$DIMDSEP
 70
46
  9
$AUNITS
 70
0
  9
$PDMODE
 70
3
  9
$PDSIZE
 40
0.3125
  9
$HANDSEED
  5
2B0
  9
$TILEMODE
 70
1
  9
$MEASUREMENT
 70
1
  9
$INSUNITS
 70
4
  0
ENDSEC
  0
SECTION
  2
CLASSES
  0
CLASS
  1
ACDBDICTIONARYWDFLT
  2
AcDbDictionaryWithDefault
  3
AutoCAD 2000
 90
0
 91
1
280
0
281
0
  0
CLASS
  1
ACDBPLACEHOLDER
  2
AcDbPlaceHolder
  3
AutoCAD 2000
 90
0
 91
1
280
0
281
0
  0
CLASS
  1
LAYOUT
  2
AcDbLayout
  3
AutoCAD 2000
 90
0
 91
0
280
0
281
0
  0
ENDSEC
  0
SECTION
  2
TABLES
  0
TABLE
  2
VPORT
  5
8
100
AcDbSymbolTable
 70
2
  0
VPORT
  5
1F4
100
AcDbSymbolTableRecord
100
AcDbViewportTableRecord
  2
*ACTIVE
 70
0
 10
0.0
 20
0.0
 11
1.0
 21
1.0
 12
73.1016908721
 22
103.3866770905
 13
0.0
 23
0.0
 14
1.0
 24
1.0
 15
0.0
 25
0.0
 16
0.0
 26
0.0
 36
1.0
 17
0.0
 27
0.0
 37
0.0
 40
206.7733541811
 41
0.7070707071
 42
50.0
 43
0.0
 44
0.0
 50
0.0
 51
0.0
 71
0
 72
100
 73
1
 74
1
 75
0
 76
0
 77
0
 78
0
  0
ENDTAB
  0
TABLE
  2
LTYPE
  5
5
100
AcDbSymbolTable
 70
6
  0
LTYPE
  5
14
100
AcDbSymbolTableRecord
100
AcDbLinetypeTableRecord
  2
BYBLOCK
 70
0
  3

 72
65
 73
0
 40
0.0
  0
LTYPE
  5
15
100
AcDbSymbolTableRecord
100
AcDbLinetypeTableRecord
  2
BYLAYER
 70
0
  3

 72
65
 73
0
 40
0.0
  0
LTYPE
  5
16
100
AcDbSymbolTableRecord
100
AcDbLinetypeTableRecord
  2
CONTINUOUS
 70
64
  3
Solid line
 72
65
 73
0
 40
0.0
  0
LTYPE
  5
1F5
100
AcDbSymbolTableRecord
100
AcDbLinetypeTableRecord
  2
CENTER
 70
64
  3
____ _ ____ _ ____ _ ____ _ ____ _ ____ _ ____
 72
65
 73
4
 40
0.6
 49
0.375
 74
0
 49
-0.075
 74
0
 49
0.075
 74
0
 49
-0.075
 74
0
  0
LTYPE
  5
1F6
100
AcDbSymbolTableRecord
100
AcDbLinetypeTableRecord
  2
HIDDEN
 70
64
  3
- - - - - - - - - - - - - - - - - - - -
 72
65
 73
2
 40
0.2
 49
0.1
 74
0
 49
-0.1
 74
0
  0
LTYPE
  5
1F7
100
AcDbSymbolTableRecord
100
AcDbLinetypeTableRecord
  2
PHANTOM
 70
64
  3
_____ _ _ _____ _ _ _____ _ _ _____
 72
65
 73
6
 40
0.8
 49
0.45
 74
0
 49
-0.05
 74
0
 49
0.1
 74
0
 49
-0.05
 74
0
 49
0.1
 74
0
 49
-0.05
 74
0
  0
LTYPE
  5
1F8
100
AcDbSymbolTableRecord
100
AcDbLinetypeTableRecord
  2
DOT
 70
64
  3
. . . . . . . . . . . . . . . . . . . .
 72
65
 73
2
 40
0.2
 49
0.1
 74
0
 49
-0.1
 74
0
  0
LTYPE
  5
1F9
100
AcDbSymbolTableRecord
100
AcDbLinetypeTableRecord
  2
DASHED
 70
64
  3
- - - - - - - - - - - - - - - - - - - -
 72
65
 73
2
 40
0.2
 49
0.1
 74
0
 49
-0.1
 74
0
  0
ENDTAB
  0
TABLE
  2
LAYER
  5
2
100
AcDbSymbolTable
 70
36
  0
LAYER
  5
10
100
AcDbSymbolTableRecord
100
AcDbLayerTableRecord
  2
0
 70
0
 62
7
  6
CONTINUOUS
370
-3
390
F
  0
LAYER
  5
1FA
100
AcDbSymbolTableRecord
100
AcDbLayerTableRecord
  2
DEFAULT_1
 70
0
 62
7
  6
CENTER
370
-3
390
F
  0
LAYER
  5
1FB
100
AcDbSymbolTableRecord
100
AcDbLayerTableRecord
  2
DEFAULT_2
 70
0
 62
8
  6
HIDDEN
370
-3
390
F
  0
LAYER
  5
1FC
100
AcDbSymbolTableRecord
100
AcDbLayerTableRecord
  2
DEFAULT_3
 70
0
 62
7
  6
PHANTOM
370
-3
390
F
  0
LAYER
  5
1FD
100
AcDbSymbolTableRecord
100
AcDbLayerTableRecord
  2
00_COMPONENTS
 70
0
 62
7
  6
CONTINUOUS
370
-3
390
F
  0
LAYER
  5
1FE
100
AcDbSymbolTableRecord
100
AcDbLayerTableRecord
  2
01_1_DEFAULT_DATUMS
 70
0
 62
7
  6
CONTINUOUS
370
-3
390
F
  0
LAYER
  5
1FF
100
AcDbSymbolTableRecord
100
AcDbLayerTableRecord
  2
01_PLANES
 70
0
 62
7
  6
CONTINUOUS
370
-3
390
F
  0
LAYER
  5
200
100
AcDbSymbolTableRecord
100
AcDbLayerTableRecord
  2
02_COORD_SYS
 70
0
 62
7
  6
CONTINUOUS
370
-3
390
F
  0
LAYER
  5
201
100
AcDbSymbolTableRecord
100
AcDbLayerTableRecord
  2
03_AXES
 70
0
 62
7
  6
CONTINUOUS
370
-3
390
F
  0
LAYER
  5
202
100
AcDbSymbolTableRecord
100
AcDbLayerTableRecord
  2
04_POINTS
 70
0
 62
7
  6
CONTINUOUS
370
-3
390
F
  0
LAYER
  5
203
100
AcDbSymbolTableRecord
100
AcDbLayerTableRecord
  2
05_CURVES
 70
0
 62
7
  6
CONTINUOUS
370
-3
390
F
  0
LAYER
  5
204
100
AcDbSymbolTableRecord
100
AcDbLayerTableRecord
  2
06_SURFS
 70
0
 62
7
  6
CONTINUOUS
370
-3
390
F
  0
LAYER
  5
205
100
AcDbSymbolTableRecord
100
AcDbLayerTableRecord
  2
07_COSMETICS
 70
0
 62
7
  6
CONTINUOUS
370
-3
390
F
  0
LAYER
  5
206
100
AcDbSymbolTableRecord
100
AcDbLayerTableRecord
  2
10_NOTES
 70
0
 62
7
  6
CONTINUOUS
370
-3
390
F
  0
LAYER
  5
207
100
AcDbSymbolTableRecord
100
AcDbLayerTableRecord
  2
11_NOTES_PUB
 70
0
 62
7
  6
CONTINUOUS
370
-3
390
F
  0
LAYER
  5
208
100
AcDbSymbolTableRecord
100
AcDbLayerTableRecord
  2
13_REF_GTOL
 70
0
 62
7
  6
CONTINUOUS
370
-3
390
F
  0
LAYER
  5
209
100
AcDbSymbolTableRecord
100
AcDbLayerTableRecord
  2
16_MISC
 70
0
 62
7
  6
CONTINUOUS
370
-3
390
F
  0
LAYER
  5
20A
100
AcDbSymbolTableRecord
100
AcDbLayerTableRecord
  2
17_NO_PRINT
 70
0
 62
7
  6
CONTINUOUS
370
-3
390
F
  0
LAYER
  5
20B
100
AcDbSymbolTableRecord
100
AcDbLayerTableRecord
  2
18_DATUM_CAMS_JOINTS
 70
0
 62
7
  6
CONTINUOUS
370
-3
390
F
  0
LAYER
  5
20C
100
AcDbSymbolTableRecord
100
AcDbLayerTableRecord
  2
19_DATUM_FUNCTIONAL
 70
0
 62
7
  6
CONTINUOUS
370
-3
390
F
  0
LAYER
  5
20D
100
AcDbSymbolTableRecord
100
AcDbLayerTableRecord
  2
20_DATUM_KINEMATIC_SCHEME
 70
0
 62
7
  6
CONTINUOUS
370
-3
390
F
  0
ENDTAB
  0
TABLE
  2
STYLE
  5
3
100
AcDbSymbolTable
 70
1
  0
STYLE
  5
11
100
AcDbSymbolTableRecord
100
AcDbTextStyleTableRecord
  2
STANDARD
 70
0
 40
0.0
 41
0.8
 50
0.0
 71
0
 42
0.2
  3
txt
  4

  0
STYLE
  5
20E
100
AcDbSymbolTableRecord
100
AcDbTextStyleTableRecord
  2
TEXTSTYLE_1
 70
0
 40
0.0
 41
0.8
 50
0.0
 71
0
 42
0.2
  3
gdt
  4

  0
ENDTAB
  0
TABLE
  2
VIEW
  5
6
100
AcDbSymbolTable
 70
0
  0
ENDTAB
  0
TABLE
  2
UCS
  5
7
100
AcDbSymbolTable
 70
0
  0
ENDTAB
  0
TABLE
  2
APPID
  5
9
100
AcDbSymbolTable
 70
1
  0
APPID
  5
20F
100
AcDbSymbolTableRecord
100
AcDbRegAppTableRecord
  2
ACAD
 70
0
  0
ENDTAB
  0
TABLE
  2
BLOCK_RECORD
  5
1
100
AcDbSymbolTable
 70
0
  0
BLOCK_RECORD
  5
210
100
AcDbSymbolTableRecord
100
AcDbBlockTableRecord
  2
*Model_Space
  0
BLOCK_RECORD
  5
211
100
AcDbSymbolTableRecord
100
AcDbBlockTableRecord
  2
*Paper_Space
  0
BLOCK_RECORD
  5
212
100
AcDbSymbolTableRecord
100
AcDbBlockTableRecord
  2
_FILLED
  0
ENDTAB
  0
TABLE
  2
DIMSTYLE
  5
A
100
AcDbSymbolTable
 70
1
100
AcDbDimStyleTable
 71
0
  0
DIMSTYLE
105
213
100
AcDbSymbolTableRecord
100
AcDbDimStyleTableRecord
  2
STANDARD
 70
0
  3

  4

 40
1.0
 41
1.7405164493
 42
1.0
 43
0.38
 44
1.0
 45
0.0
 46
0.0
 47
0.01
 48
0.01
140
2.4367230291
141
0.09
142
0.0
143
25.4
144
1.0
145
0.0
146
1.0
147
0.625
 71
1
 72
0
 73
0
 74
0
 75
0
 76
0
 77
1
 78
8
 79
2
170
0
171
1
172
0
173
0
174
0
175
0
176
0
177
0
178
0
270
2
179
2
271
2
272
2
273
2
274
2
275
0
280
0
281
0
282
0
283
1
284
8
285
0
286
0
287
3
288
0
340
11
278
46
341
212
342
212
343
212
344
212
  0
ENDTAB
  0
ENDSEC
  0
SECTION
  2
BLOCKS
  0
BLOCK
  5
20
100
AcDbEntity
  8
0
100
AcDbBlockBegin
  2
*Model_Space
 70
0
 10
0.0
 20
0.0
 30
0.0
  3
*Model_Space
  1

  0
ENDBLK
  5
21
100
AcDbEntity
  8
0
100
AcDbBlockEnd
  0
BLOCK
  5
1C
100
AcDbEntity
  8
0
100
AcDbBlockBegin
  2
*Paper_Space
 70
0
 10
0.0
 20
0.0
 30
0.0
  3
*Paper_Space
  1

  0
ENDBLK
  5
1D
100
AcDbEntity
  8
0
100
AcDbBlockEnd
  0
BLOCK
  5
214
100
AcDbEntity
  8
0
100
AcDbBlockBegin
  2
_FILLED
 70
64
 10
0.0
 20
0.0
  3
_FILLED
  1

  0
SOLID
  5
215
100
AcDbEntity
  8
0
  6
BYBLOCK
 62
0
100
AcDbTrace
 10
0.0
 20
0.0
 11
-1.0
 21
0.25
 12
-1.0
 22
-0.25
 13
-1.0
 23
-0.25
  0
ENDBLK
  5
216
100
AcDbEntity
  8
0
  6
BYBLOCK
 62
0
100
AcDbBlockEnd
  0
ENDSEC
  0
SECTION
  2
ENTITIES
  0
LINE
  5
217
100
AcDbEntity
  8
0
100
AcDbLine
 62
7
  6
CONTINUOUS
 10
17.9968342101
 20
152.0596031373
 11
29.3104956055
 21
158.5915095993
  0
LINE
  5
218
100
AcDbEntity
  8
0
100
AcDbLine
 62
7
  6
CONTINUOUS
 10
20.4968230179
 20
151.8119817423
 11
31.8104844133
 21
158.3438882042
  0
LINE
  5
219
100
AcDbEntity
  8
0
100
AcDbLine
 62
7
  6
CONTINUOUS
 10
16.9612743922
 20
110.578557407
 11
16.9612743922
 21
149.7706734292
  0
LINE
  5
21A
100
AcDbEntity
  8
0
100
AcDbLine
 62
7
  6
CONTINUOUS
 10
32.3408961943
 20
140.3198415546
 11
30.5731366013
 21
139.2992311699
  0
LINE
  5
21B
100
AcDbEntity
  8
0
100
AcDbLine
 62
7
  6
CONTINUOUS
 10
30.5731366013
 20
100.6786668397
 11
30.5731366013
 21
105.3327306173
  0
LINE
  5
21C
100
AcDbEntity
  8
0
100
AcDbLine
 62
7
  6
CONTINUOUS
 10
30.5731366013
 20
139.2992311699
 11
30.5731366013
 21
143.9532949475
  0
LINE
  5
21D
100
AcDbEntity
  8
0
100
AcDbLine
 62
7
  6
CONTINUOUS
 10
32.3408961943
 20
101.6992772243
 11
32.3408961943
 21
104.3121372293
  0
LINE
  5
21E
100
AcDbEntity
  8
0
100
AcDbLine
 62
7
  6
CONTINUOUS
 10
32.3408961943
 20
140.3198415546
 11
32.3408961943
 21
142.9327015595
  0
LINE
  5
21F
100
AcDbEntity
  8
0
100
AcDbLine
 62
7
  6
CONTINUOUS
 10
116.6637456379
 20
48.934098934
 11
20.4968230179
 21
104.4548415488
  0
LINE
  5
220
100
AcDbEntity
  8
0
100
AcDbLine
 62
7
  6
CONTINUOUS
 10
106.5874320546
 20
56.7927857287
 11
30.5731366013
 21
100.6786668397
  0
LINE
  5
221
100
AcDbEntity
  8
0
100
AcDbLine
 62
7
  6
CONTINUOUS
 10
106.5874320546
 20
58.8339895014
 11
32.3408961943
 21
101.6992772243
  0
LINE
  5
222
100
AcDbEntity
  8
0
100
AcDbLine
 62
7
  6
CONTINUOUS
 10
32.3408961943
 20
101.6992772243
 11
30.5731366013
 21
100.6786668397
  0
LINE
  5
223
100
AcDbEntity
  8
0
100
AcDbLine
 62
7
  6
CONTINUOUS
 10
30.5731366013
 20
105.3327306173
 11
106.5874320546
 21
61.4468495064
  0
LINE
  5
224
100
AcDbEntity
  8
0
100
AcDbLine
 62
7
  6
CONTINUOUS
 10
106.5874320546
 20
95.413350059
 11
30.5731366013
 21
139.2992311699
  0
LINE
  5
225
100
AcDbEntity
  8
0
100
AcDbLine
 62
7
  6
CONTINUOUS
 10
106.5874320546
 20
97.4545538316
 11
32.3408961943
 21
140.3198415546
  0
LINE
  5
226
100
AcDbEntity
  8
0
100
AcDbLine
 62
7
  6
CONTINUOUS
 10
30.5731366013
 20
143.9532949475
 11
106.5874320546
 21
100.0674138366
  0
LINE
  5
227
100
AcDbEntity
  8
0
100
AcDbLine
 62
7
  6
CONTINUOUS
 10
20.4968230179
 20
151.8119817423
 11
116.6637456379
 21
96.2912391275
  0
LINE
  5
228
100
AcDbEntity
  8
0
100
AcDbLine
 62
7
  6
CONTINUOUS
 10
31.8104844133
 20
158.3438882042
 11
127.9774070333
 21
102.8231455894
  0
LINE
  5
229
100
AcDbEntity
  8
0
100
AcDbLine
 62
7
  6
CONTINUOUS
 10
106.5874320546
 20
100.0674138366
 11
106.5874320546
 21
95.413350059
  0
LINE
  5
22A
100
AcDbEntity
  8
0
100
AcDbLine
 62
7
  6
CONTINUOUS
 10
106.5874320546
 20
61.4468495064
 11
106.5874320546
 21
56.7927857287
  0
LINE
  5
22B
100
AcDbEntity
  8
0
100
AcDbLine
 62
7
  6
CONTINUOUS
 10
127.9774070333
 20
102.8231455894
 11
116.6637456379
 21
96.2912391275
  0
LINE
  5
22C
100
AcDbEntity
  8
0
100
AcDbLine
 62
7
  6
CONTINUOUS
 10
120.1992942636
 20
90.1675232693
 11
131.5129556591
 21
96.6994297312
  0
LINE
  5
22D
100
AcDbEntity
  8
0
100
AcDbLine
 62
7
  6
CONTINUOUS
 10
120.1992942636
 20
90.1675232693
 11
120.1992942636
 21
50.975407247
  0
LINE
  5
22E
100
AcDbEntity
  8
0
100
AcDbLine
 62
7
  6
CONTINUOUS
 10
131.5129556591
 20
96.6994297312
 11
131.5129556591
 21
57.507313709
  0
LINE
  5
22F
100
AcDbEntity
  8
0
100
AcDbLine
 62
7
  6
CONTINUOUS
 10
131.5129556591
 20
57.507313709
 11
120.1992942636
 21
50.975407247
  0
LINE
  5
230
100
AcDbEntity
  8
0
100
AcDbLine
 62
7
  6
CONTINUOUS
 10
119.1637344457
 20
48.6864775389
 11
130.4773958411
 21
55.2183840009
  0
ARC
  5
231
100
AcDbEntity
  8
0
100
AcDbCircle
 62
7
  6
CONTINUOUS
 10
28.8769607325
 20
143.5850438727
 40
4.7316838363
100
AcDbArc
 50
209.9172298065
 51
213.5379652796
  0
ARC
  5
232
100
AcDbEntity
  8
0
100
AcDbCircle
 62
7
  6
CONTINUOUS
 10
28.8769607325
 20
117.4569665245
 40
4.7316838363
100
AcDbArc
 50
209.9172298065
 51
213.5379652796
  0
ARC
  5
233
100
AcDbEntity
  8
0
100
AcDbCircle
 62
7
  6
CONTINUOUS
 10
120.8012250016
 20
90.513745785
 40
4.7316838363
100
AcDbArc
 50
209.9172298064
 51
213.5379652796
  0
ARC
  5
234
100
AcDbEntity
  8
0
100
AcDbCircle
 62
7
  6
CONTINUOUS
 10
120.8012250015
 20
64.3856684369
 40
4.7316838362
100
AcDbArc
 50
209.9172298064
 51
213.5379652796
  0
SPLINE
  5
235
100
AcDbEntity
  8
0
100
AcDbSpline
 62
7
  6
CONTINUOUS
 70
0
 71
3
 72
17
 73
13
 74
0
 42
0.0000001
 43
0.0000001
 44
0.0000000001
 40
0.0
 40
0.0
 40
0.0
 40
0.0
 40
0.0428592926
 40
0.087485474
 40
0.1353198781
 40
0.1872819044
 40
0.3045421965
 40
0.4382074305
 40
0.582548911
 40
0.7297129633
 40
0.8713059682
 40
1.0
 40
1.0
 40
1.0
 40
1.0
 10
96.3246197312
 20
86.6935007411
 30
0.0
 10
96.4244611195
 20
86.751153909
 30
0.0
 10
96.6445793191
 20
86.8425547649
 30
0.0
 10
97.0078648592
 20
86.8958780255
 30
0.0
 10
97.3980223095
 20
86.867132165
 30
0.0
 10
97.9649119199
 20
86.7163581996
 30
0.0
 10
98.6895923382
 20
86.3200985428
 30
0.0
 10
99.4902490534
 20
85.6110340931
 30
0.0
 10
100.1980273209
 20
84.7051446163
 30
0.0
 10
100.7550400993
 20
83.6755908741
 30
0.0
 10
101.1165581976
 20
82.606823403
 30
0.0
 10
101.2133981434
 20
81.8789172603
 30
0.0
 10
101.2133981434
 20
81.532729517
 30
0.0
  0
SPLINE
  5
236
100
AcDbEntity
  8
0
100
AcDbSpline
 62
7
  6
CONTINUOUS
 70
0
 71
3
 72
11
 73
7
 74
0
 42
0.0000001
 43
0.0000001
 44
0.0000000001
 40
0.0
 40
0.0
 40
0.0
 40
0.0
 40
0.2897762172
 40
0.5490701576
 40
0.7822260326
 40
1.0
 40
1.0
 40
1.0
 40
1.0
 10
131.5129556591
 20
57.507313709
 30
0.0
 10
131.5129556591
 20
57.2539074365
 30
0.0
 10
131.4746397748
 20
56.7721030257
 30
0.0
 10
131.2793785148
 20
56.1101672107
 30
0.0
 10
130.950939136
 20
55.5730350031
 30
0.0
 10
130.6423045018
 20
55.3136359377
 30
0.0
 10
130.4773774642
 20
55.2184158307
 30
0.0
  0
SPLINE
  5
237
100
AcDbEntity
  8
0
100
AcDbSpline
 62
7
  6
CONTINUOUS
 70
0
 71
3
 72
15
 73
11
 74
0
 42
0.0000001
 43
0.0000001
 44
0.0000000001
 40
0.0
 40
0.0
 40
0.0
 40
0.0
 40
0.1141465952
 40
0.2373352439
 40
0.366975646
 40
0.4999989181
 40
0.6330223406
 40
0.7626631822
 40
0.8858525235
 40
1.0
 40
1.0
 40
1.0
 40
1.0
 10
127.9774070333
 20
102.8231455894
 30
0.0
 10
128.2194260679
 20
102.6834189957
 30
0.0
 10
128.6974896805
 20
102.3482664065
 30
0.0
 10
129.3553190514
 20
101.7328947769
 30
0.0
 10
129.9614686229
 20
101.0053743906
 30
0.0
 10
130.4932508651
 20
100.1931975083
 30
0.0
 10
130.9307301486
 20
99.3265732556
 30
0.0
 10
131.2577122433
 20
98.4378709281
 30
0.0
 10
131.4617316997
 20
97.5604846949
 30
0.0
 10
131.5129556591
 20
96.9788898178
 30
0.0
 10
131.5129556591
 20
96.6994297312
 30
0.0
  0
SPLINE
  5
238
100
AcDbEntity
  8
0
100
AcDbSpline
 62
7
  6
CONTINUOUS
 70
0
 71
3
 72
17
 73
13
 74
0
 42
0.0000001
 43
0.0000001
 44
0.0000000001
 40
0.0
 40
0.0
 40
0.0
 40
0.0
 40
0.0428592926
 40
0.087485474
 40
0.1353198781
 40
0.1872819044
 40
0.3045421965
 40
0.4382074305
 40
0.582548911
 40
0.7297129633
 40
0.8713059682
 40
1.0
 40
1.0
 40
1.0
 40
1.0
 10
87.0614823318
 20
92.0414546253
 30
0.0
 10
87.16132372
 20
92.0991077932
 30
0.0
 10
87.3814419197
 20
92.1905086492
 30
0.0
 10
87.7447274598
 20
92.2438319097
 30
0.0
 10
88.13488491
 20
92.2150860492
 30
0.0
 10
88.7017745205
 20
92.0643120838
 30
0.0
 10
89.4264549387
 20
91.668052427
 30
0.0
 10
90.227111654
 20
90.9589879773
 30
0.0
 10
90.9348899214
 20
90.0530985005
 30
0.0
 10
91.4919026999
 20
89.0235447584
 30
0.0
 10
91.8534207982
 20
87.9547772872
 30
0.0
 10
91.950260744
 20
87.2268711445
 30
0.0
 10
91.950260744
 20
86.8806834012
 30
0.0
  0
SPLINE
  5
239
100
AcDbEntity
  8
0
100
AcDbSpline
 62
7
  6
CONTINUOUS
 70
0
 71
3
 72
17
 73
13
 74
0
 42
0.0000001
 43
0.0000001
 44
0.0000000001
 40
0.0
 40
0.0
 40
0.0
 40
0.0
 40
0.0428592926
 40
0.087485474
 40
0.1353198781
 40
0.1872819044
 40
0.3045421965
 40
0.4382074305
 40
0.582548911
 40
0.7297129633
 40
0.8713059682
 40
1.0
 40
1.0
 40
1.0
 40
1.0
 10
76.4548364545
 20
98.1650659431
 30
0.0
 10
76.5546778428
 20
98.222719111
 30
0.0
 10
76.7747960425
 20
98.314119967
 30
0.0
 10
77.1380815826
 20
98.3674432275
 30
0.0
 10
77.5282390328
 20
98.338697367
 30
0.0
 10
78.0951286433
 20
98.1879234016
 30
0.0
 10
78.8198090615
 20
97.7916637448
 30
0.0
 10
79.6204657768
 20
97.0825992951
 30
0.0
 10
80.3282440442
 20
96.1767098183
 30
0.0
 10
80.8852568227
 20
95.1471560762
 30
0.0
 10
81.246774921
 20
94.078388605
 30
0.0
 10
81.3436148668
 20
93.3504824623
 30
0.0
 10
81.3436148668
 20
93.004294719
 30
0.0
  0
SPLINE
  5
23A
100
AcDbEntity
  8
0
100
AcDbSpline
 62
7
  6
CONTINUOUS
 70
0
 71
3
 72
17
 73
13
 74
0
 42
0.0000001
 43
0.0000001
 44
0.0000000001
 40
0.0
 40
0.0
 40
0.0
 40
0.0
 40
0.0428592926
 40
0.087485474
 40
0.1353198781
 40
0.1872819044
 40
0.3045421965
 40
0.4382074305
 40
0.582548911
 40
0.7297129633
 40
0.8713059682
 40
1.0
 40
1.0
 40
1.0
 40
1.0
 10
65.5653466873
 20
104.4519735627
 30
0.0
 10
65.6651880756
 20
104.5096267306
 30
0.0
 10
65.8853062752
 20
104.6010275866
 30
0.0
 10
66.2485918153
 20
104.6543508471
 30
0.0
 10
66.6387492656
 20
104.6256049866
 30
0.0
 10
67.205638876
 20
104.4748310212
 30
0.0
 10
67.9303192943
 20
104.0785713644
 30
0.0
 10
68.7309760095
 20
103.3695069148
 30
0.0
 10
69.438754277
 20
102.4636174379
 30
0.0
 10
69.9957670554
 20
101.4340636958
 30
0.0
 10
70.3572851537
 20
100.3652962246
 30
0.0
 10
70.4541250996
 20
99.637390082
 30
0.0
 10
70.4541250996
 20
99.2912023386
 30
0.0
  0
SPLINE
  5
23B
100
AcDbEntity
  8
0
100
AcDbSpline
 62
7
  6
CONTINUOUS
 70
0
 71
3
 72
17
 73
13
 74
0
 42
0.0000001
 43
0.0000001
 44
0.0000000001
 40
0.0
 40
0.0
 40
0.0
 40
0.0
 40
0.0428592926
 40
0.087485474
 40
0.1353198781
 40
0.1872819044
 40
0.3045421965
 40
0.4382074305
 40
0.582548911
 40
0.7297129633
 40
0.8713059682
 40
1.0
 40
1.0
 40
1.0
 40
1.0
 10
56.0193653978
 20
109.9632237488
 30
0.0
 10
56.1192067861
 20
110.0208769166
 30
0.0
 10
56.3393249857
 20
110.1122777726
 30
0.0
 10
56.7026105258
 20
110.1656010331
 30
0.0
 10
57.0927679761
 20
110.1368551727
 30
0.0
 10
57.6596575865
 20
109.9860812073
 30
0.0
 10
58.3843380048
 20
109.5898215504
 30
0.0
 10
59.18499472
 20
108.8807571008
 30
0.0
 10
59.8927729875
 20
107.9748676239
 30
0.0
 10
60.4497857659
 20
106.9453138818
 30
0.0
 10
60.8113038643
 20
105.8765464106
 30
0.0
 10
60.9081438101
 20
105.148640268
 30
0.0
 10
60.9081438101
 20
104.8024525247
 30
0.0
  0
SPLINE
  5
23C
100
AcDbEntity
  8
0
100
AcDbSpline
 62
7
  6
CONTINUOUS
 70
0
 71
3
 72
17
 73
13
 74
0
 42
0.0000001
 43
0.0000001
 44
0.0000000001
 40
0.0
 40
0.0
 40
0.0
 40
0.0
 40
0.0428592926
 40
0.087485474
 40
0.1353198781
 40
0.1872819044
 40
0.3045421965
 40
0.4382074305
 40
0.582548911
 40
0.7297129633
 40
0.8713059682
 40
1.0
 40
1.0
 40
1.0
 40
1.0
 10
46.4733841083
 20
115.4744739348
 30
0.0
 10
46.5732254966
 20
115.5321271026
 30
0.0
 10
46.7933436963
 20
115.6235279586
 30
0.0
 10
47.1566292363
 20
115.6768512192
 30
0.0
 10
47.5467866866
 20
115.6481053587
 30
0.0
 10
48.113676297
 20
115.4973313933
 30
0.0
 10
48.8383567153
 20
115.1010717364
 30
0.0
 10
49.6390134305
 20
114.3920072868
 30
0.0
 10
50.346791698
 20
113.48611781
 30
0.0
 10
50.9038044764
 20
112.4565640678
 30
0.0
 10
51.2653225748
 20
111.3877965967
 30
0.0
 10
51.3621625206
 20
110.659890454
 30
0.0
 10
51.3621625206
 20
110.3137027107
 30
0.0
  0
SPLINE
  5
23D
100
AcDbEntity
  8
0
100
AcDbSpline
 62
7
  6
CONTINUOUS
 70
0
 71
3
 72
17
 73
13
 74
0
 42
0.0000001
 43
0.0000001
 44
0.0000000001
 40
0.0
 40
0.0
 40
0.0
 40
0.0
 40
0.0428592926
 40
0.087485474
 40
0.1353198781
 40
0.1872819044
 40
0.3045421965
 40
0.4382074305
 40
0.582548911
 40
0.7297129633
 40
0.8713059682
 40
1.0
 40
1.0
 40
1.0
 40
1.0
 10
36.9274028188
 20
120.9857241208
 30
0.0
 10
37.0272442071
 20
121.0433772887
 30
0.0
 10
37.2473624068
 20
121.1347781446
 30
0.0
 10
37.6106479469
 20
121.1881014052
 30
0.0
 10
38.0008053971
 20
121.1593555447
 30
0.0
 10
38.5676950076
 20
121.0085815793
 30
0.0
 10
39.2923754258
 20
120.6123219225
 30
0.0
 10
40.0930321411
 20
119.9032574728
 30
0.0
 10
40.8008104085
 20
118.997367996
 30
0.0
 10
41.3578231869
 20
117.9678142538
 30
0.0
 10
41.7193412853
 20
116.8990467827
 30
0.0
 10
41.8161812311
 20
116.17114064
 30
0.0
 10
41.8161812311
 20
115.8249528967
 30
0.0
  0
SPLINE
  5
23E
100
AcDbEntity
  8
0
100
AcDbSpline
 62
7
  6
CONTINUOUS
 70
0
 71
3
 72
17
 73
13
 74
0
 42
0.0000001
 43
0.0000001
 44
0.0000000001
 40
0.0
 40
0.0
 40
0.0
 40
0.0
 40
0.0428592926
 40
0.087485474
 40
0.1353198781
 40
0.1872819044
 40
0.3045421965
 40
0.4382074305
 40
0.582548911
 40
0.7297129633
 40
0.8713059682
 40
1.0
 40
1.0
 40
1.0
 40
1.0
 10
100.9208329446
 20
93.3888885129
 30
0.0
 10
101.0206743329
 20
93.4465416807
 30
0.0
 10
101.2407925326
 20
93.5379425367
 30
0.0
 10
101.6040780727
 20
93.5912657972
 30
0.0
 10
101.9942355229
 20
93.5625199368
 30
0.0
 10
102.5611251334
 20
93.4117459714
 30
0.0
 10
103.2858055516
 20
93.0154863145
 30
0.0
 10
104.0864622669
 20
92.3064218649
 30
0.0
 10
104.7942405343
 20
91.400532388
 30
0.0
 10
105.3512533127
 20
90.3709786459
 30
0.0
 10
105.7127714111
 20
89.3022111747
 30
0.0
 10
105.8096113569
 20
88.5743050321
 30
0.0
 10
105.8096113569
 20
88.2281172888
 30
0.0
  0
SPLINE
  5
23F
100
AcDbEntity
  8
0
100
AcDbSpline
 62
7
  6
CONTINUOUS
 70
0
 71
3
 72
17
 73
13
 74
0
 42
0.0000001
 43
0.0000001
 44
0.0000000001
 40
0.0
 40
0.0
 40
0.0
 40
0.0
 40
0.0428592926
 40
0.087485474
 40
0.1353198781
 40
0.1872819044
 40
0.3045421965
 40
0.4382074305
 40
0.582548911
 40
0.7297129633
 40
0.8713059682
 40
1.0
 40
1.0
 40
1.0
 40
1.0
 10
91.6576955452
 20
98.7368423971
 30
0.0
 10
91.7575369335
 20
98.7944955649
 30
0.0
 10
91.9776551331
 20
98.8858964209
 30
0.0
 10
92.3409406732
 20
98.9392196814
 30
0.0
 10
92.7310981235
 20
98.910473821
 30
0.0
 10
93.2979877339
 20
98.7596998556
 30
0.0
 10
94.0226681522
 20
98.3634401987
 30
0.0
 10
94.8233248674
 20
97.6543757491
 30
0.0
 10
95.5311031349
 20
96.7484862723
 30
0.0
 10
96.0881159133
 20
95.7189325301
 30
0.0
 10
96.4496340117
 20
94.6501650589
 30
0.0
 10
96.5464739575
 20
93.9222589163
 30
0.0
 10
96.5464739575
 20
93.576071173
 30
0.0
  0
SPLINE
  5
240
100
AcDbEntity
  8
0
100
AcDbSpline
 62
7
  6
CONTINUOUS
 70
0
 71
3
 72
17
 73
13
 74
0
 42
0.0000001
 43
0.0000001
 44
0.0000000001
 40
0.0
 40
0.0
 40
0.0
 40
0.0
 40
0.0428592926
 40
0.087485474
 40
0.1353198781
 40
0.1872819044
 40
0.3045421965
 40
0.4382074305
 40
0.582548911
 40
0.7297129633
 40
0.8713059682
 40
1.0
 40
1.0
 40
1.0
 40
1.0
 10
82.3945581458
 20
104.0847962813
 30
0.0
 10
82.4943995341
 20
104.1424494491
 30
0.0
 10
82.7145177337
 20
104.2338503051
 30
0.0
 10
83.0778032738
 20
104.2871735657
 30
0.0
 10
83.4679607241
 20
104.2584277052
 30
0.0
 10
84.0348503345
 20
104.1076537398
 30
0.0
 10
84.7595307528
 20
103.7113940829
 30
0.0
 10
85.560187468
 20
103.0023296333
 30
0.0
 10
86.2679657355
 20
102.0964401565
 30
0.0
 10
86.8249785139
 20
101.0668864143
 30
0.0
 10
87.1864966122
 20
99.9981189432
 30
0.0
 10
87.2833365581
 20
99.2702128005
 30
0.0
 10
87.2833365581
 20
98.9240250572
 30
0.0
  0
SPLINE
  5
241
100
AcDbEntity
  8
0
100
AcDbSpline
 62
7
  6
CONTINUOUS
 70
0
 71
3
 72
17
 73
13
 74
0
 42
0.0000001
 43
0.0000001
 44
0.0000000001
 40
0.0
 40
0.0
 40
0.0
 40
0.0
 40
0.0428592926
 40
0.087485474
 40
0.1353198781
 40
0.1872819044
 40
0.3045421965
 40
0.4382074305
 40
0.582548911
 40
0.7297129633
 40
0.8713059682
 40
1.0
 40
1.0
 40
1.0
 40
1.0
 10
70.3736928183
 20
111.0248891081
 30
0.0
 10
70.4735342066
 20
111.082542276
 30
0.0
 10
70.6936524062
 20
111.173943132
 30
0.0
 10
71.0569379463
 20
111.2272663925
 30
0.0
 10
71.4470953966
 20
111.198520532
 30
0.0
 10
72.013985007
 20
111.0477465666
 30
0.0
 10
72.7386654253
 20
110.6514869098
 30
0.0
 10
73.5393221405
 20
109.9424224602
 30
0.0
 10
74.247100408
 20
109.0365329833
 30
0.0
 10
74.8041131864
 20
108.0069792412
 30
0.0
 10
75.1656312847
 20
106.93821177
 30
0.0
 10
75.2624712306
 20
106.2103056273
 30
0.0
 10
75.2624712306
 20
105.864117884
 30
0.0
  0
SPLINE
  5
242
100
AcDbEntity
  8
0
100
AcDbSpline
 62
7
  6
CONTINUOUS
 70
0
 71
3
 72
17
 73
13
 74
0
 42
0.0000001
 43
0.0000001
 44
0.0000000001
 40
0.0
 40
0.0
 40
0.0
 40
0.0
 40
0.0428592926
 40
0.087485474
 40
0.1353198781
 40
0.1872819044
 40
0.3045421965
 40
0.4382074305
 40
0.582548911
 40
0.7297129633
 40
0.8713059682
 40
1.0
 40
1.0
 40
1.0
 40
1.0
 10
60.8277115288
 20
116.5361392942
 30
0.0
 10
60.9275529171
 20
116.593792462
 30
0.0
 10
61.1476711167
 20
116.685193318
 30
0.0
 10
61.5109566568
 20
116.7385165785
 30
0.0
 10
61.9011141071
 20
116.7097707181
 30
0.0
 10
62.4680037175
 20
116.5589967527
 30
0.0
 10
63.1926841358
 20
116.1627370958
 30
0.0
 10
63.993340851
 20
115.4536726462
 30
0.0
 10
64.7011191185
 20
114.5477831693
 30
0.0
 10
65.2581318969
 20
113.5182294272
 30
0.0
 10
65.6196499953
 20
112.449461956
 30
0.0
 10
65.7164899411
 20
111.7215558134
 30
0.0
 10
65.7164899411
 20
111.3753680701
 30
0.0
  0
SPLINE
  5
243
100
AcDbEntity
  8
0
100
AcDbSpline
 62
7
  6
CONTINUOUS
 70
0
 71
3
 72
11
 73
7
 74
0
 42
0.0000001
 43
0.0000001
 44
0.0000000001
 40
0.0
 40
0.0
 40
0.0
 40
0.0
 40
0.289775222
 40
0.5490688033
 40
0.782225076
 40
1.0
 40
1.0
 40
1.0
 40
1.0
 10
116.6637456379
 20
48.934098934
 30
0.0
 10
116.883196528
 20
48.8074017698
 30
0.0
 10
117.3195985359
 20
48.5996923299
 30
0.0
 10
117.9904648756
 20
48.4378356803
 30
0.0
 10
118.6198384056
 20
48.4537093134
 30
0.0
 10
118.9987927158
 20
48.5912913891
 30
0.0
 10
119.1637160688
 20
48.6865093688
 30
0.0
  0
SPLINE
  5
244
100
AcDbEntity
  8
0
100
AcDbSpline
 62
7
  6
CONTINUOUS
 70
0
 71
3
 72
15
 73
11
 74
0
 42
0.0000001
 43
0.0000001
 44
0.0000000001
 40
0.0
 40
0.0
 40
0.0
 40
0.0
 40
0.1141474765
 40
0.2373368178
 40
0.3669776594
 40
0.5000010819
 40
0.633024354
 40
0.7626647561
 40
0.8858534048
 40
1.0
 40
1.0
 40
1.0
 40
1.0
 10
16.9612743922
 20
110.578557407
 30
0.0
 10
16.9612743922
 20
110.2990973204
 30
0.0
 10
17.0124983515
 20
109.7175024433
 30
0.0
 10
17.216517808
 20
108.8401162101
 30
0.0
 10
17.5434999026
 20
107.9514138826
 30
0.0
 10
17.9809791862
 20
107.0847896299
 30
0.0
 10
18.5127614283
 20
106.2726127476
 30
0.0
 10
19.1189109999
 20
105.5450923613
 30
0.0
 10
19.7767403707
 20
104.9297207317
 30
0.0
 10
20.2548039834
 20
104.5945681425
 30
0.0
 10
20.4968230179
 20
104.4548415488
 30
0.0
  0
SPLINE
  5
245
100
AcDbEntity
  8
0
100
AcDbSpline
 62
7
  6
CONTINUOUS
 70
0
 71
3
 72
11
 73
7
 74
0
 42
0.0000001
 43
0.0000001
 44
0.0000000001
 40
0.0
 40
0.0
 40
0.0
 40
0.0
 40
0.2897482139
 40
0.549082553
 40
0.782223544
 40
1.0
 40
1.0
 40
1.0
 40
1.0
 10
25.8001459565
 20
138.1356446607
 30
0.0
 10
25.8001459565
 20
137.9076017883
 30
0.0
 10
25.7656248773
 20
137.4739788994
 30
0.0
 10
25.5899541794
 20
136.8782112832
 30
0.0
 10
25.2942910794
 20
136.3948240328
 30
0.0
 10
25.0165792036
 20
136.1613040663
 30
0.0
 10
24.8681293672
 20
136.0756300111
 30
0.0
  0
SPLINE
  5
246
100
AcDbEntity
  8
0
100
AcDbSpline
 62
7
  6
CONTINUOUS
 70
0
 71
3
 72
11
 73
7
 74
0
 42
0.0000001
 43
0.0000001
 44
0.0000000001
 40
0.0
 40
0.0
 40
0.0
 40
0.0
 40
0.2897482139
 40
0.549082553
 40
0.782223544
 40
1.0
 40
1.0
 40
1.0
 40
1.0
 10
25.8001459565
 20
112.0075673125
 30
0.0
 10
25.8001459565
 20
111.7795244401
 30
0.0
 10
25.7656248773
 20
111.3459015513
 30
0.0
 10
25.5899541794
 20
110.750133935
 30
0.0
 10
25.2942910794
 20
110.2667466847
 30
0.0
 10
25.0165792036
 20
110.0332267182
 30
0.0
 10
24.8681293672
 20
109.947552663
 30
0.0
  0
SPLINE
  5
247
100
AcDbEntity
  8
0
100
AcDbSpline
 62
7
  6
CONTINUOUS
 70
0
 71
3
 72
11
 73
7
 74
0
 42
0.0000001
 43
0.0000001
 44
0.0000000001
 40
0.0
 40
0.0
 40
0.0
 40
0.0
 40
0.2897482139
 40
0.549082553
 40
0.782223544
 40
1.0
 40
1.0
 40
1.0
 40
1.0
 10
117.7244102256
 20
85.064346573
 30
0.0
 10
117.7244102256
 20
84.8363037006
 30
0.0
 10
117.6898891464
 20
84.4026808118
 30
0.0
 10
117.5142184485
 20
83.8069131955
 30
0.0
 10
117.2185553485
 20
83.3235259452
 30
0.0
 10
116.9408434727
 20
83.0900059787
 30
0.0
 10
116.7923936363
 20
83.0043319235
 30
0.0
  0
SPLINE
  5
248
100
AcDbEntity
  8
0
100
AcDbSpline
 62
7
  6
CONTINUOUS
 70
0
 71
3
 72
11
 73
7
 74
0
 42
0.0000001
 43
0.0000001
 44
0.0000000001
 40
0.0
 40
0.0
 40
0.0
 40
0.0
 40
0.2897482139
 40
0.549082553
 40
0.782223544
 40
1.0
 40
1.0
 40
1.0
 40
1.0
 10
117.7244102256
 20
58.9362692249
 30
0.0
 10
117.7244102256
 20
58.7082263525
 30
0.0
 10
117.6898891464
 20
58.2746034636
 30
0.0
 10
117.5142184485
 20
57.6788358474
 30
0.0
 10
117.2185553485
 20
57.195448597
 30
0.0
 10
116.9408434727
 20
56.9619286305
 30
0.0
 10
116.7923936363
 20
56.8762545753
 30
0.0
  0
SPLINE
  5
249
100
AcDbEntity
  8
0
100
AcDbSpline
 62
7
  6
CONTINUOUS
 70
0
 71
3
 72
11
 73
7
 74
0
 42
0.0000001
 43
0.0000001
 44
0.0000000001
 40
0.0
 40
0.0
 40
0.0
 40
0.0
 40
0.2897016594
 40
0.5490895814
 40
0.7822189142
 40
1.0
 40
1.0
 40
1.0
 40
1.0
 10
37.0785460726
 20
109.2112132759
 30
0.0
 10
37.0785460726
 20
109.0060080138
 30
0.0
 10
37.0474341553
 20
108.6157490933
 30
0.0
 10
36.8893922423
 20
108.0795498345
 30
0.0
 10
36.6232827613
 20
107.6444548361
 30
0.0
 10
36.3733244964
 20
107.4343326839
 30
0.0
 10
36.2397357112
 20
107.3571921634
 30
0.0
  0
SPLINE
  5
24A
100
AcDbEntity
  8
0
100
AcDbSpline
 62
7
  6
CONTINUOUS
 70
0
 71
3
 72
11
 73
7
 74
0
 42
0.0000001
 43
0.0000001
 44
0.0000000001
 40
0.0
 40
0.0
 40
0.0
 40
0.0
 40
0.2897016594
 40
0.5490895814
 40
0.7822189142
 40
1.0
 40
1.0
 40
1.0
 40
1.0
 10
46.6245273621
 20
103.6999630899
 30
0.0
 10
46.6245273621
 20
103.4947578278
 30
0.0
 10
46.5934154447
 20
103.1044989072
 30
0.0
 10
46.4353735318
 20
102.5682996485
 30
0.0
 10
46.1692640508
 20
102.13320465
 30
0.0
 10
45.9193057859
 20
101.9230824979
 30
0.0
 10
45.7857170007
 20
101.8459419774
 30
0.0
  0
SPLINE
  5
24B
100
AcDbEntity
  8
0
100
AcDbSpline
 62
7
  6
CONTINUOUS
 70
0
 71
3
 72
11
 73
7
 74
0
 42
0.0000001
 43
0.0000001
 44
0.0000000001
 40
0.0
 40
0.0
 40
0.0
 40
0.0
 40
0.2897016594
 40
0.5490895814
 40
0.7822189142
 40
1.0
 40
1.0
 40
1.0
 40
1.0
 10
56.1705086516
 20
98.1887129038
 30
0.0
 10
56.1705086516
 20
97.9835076417
 30
0.0
 10
56.1393967342
 20
97.5932487212
 30
0.0
 10
55.9813548213
 20
97.0570494625
 30
0.0
 10
55.7152453403
 20
96.621954464
 30
0.0
 10
55.4652870754
 20
96.4118323118
 30
0.0
 10
55.3316982902
 20
96.3346917914
 30
0.0
  0
SPLINE
  5
24C
100
AcDbEntity
  8
0
100
AcDbSpline
 62
7
  6
CONTINUOUS
 70
0
 71
3
 72
11
 73
7
 74
0
 42
0.0000001
 43
0.0000001
 44
0.0000000001
 40
0.0
 40
0.0
 40
0.0
 40
0.0
 40
0.2897016594
 40
0.5490895814
 40
0.7822189142
 40
1.0
 40
1.0
 40
1.0
 40
1.0
 10
65.7164899411
 20
92.6774627178
 30
0.0
 10
65.7164899411
 20
92.4722574557
 30
0.0
 10
65.6853780237
 20
92.0819985352
 30
0.0
 10
65.5273361108
 20
91.5457992764
 30
0.0
 10
65.2612266297
 20
91.110704278
 30
0.0
 10
65.0112683649
 20
90.9005821258
 30
0.0
 10
64.8776795796
 20
90.8234416053
 30
0.0
  0
SPLINE
  5
24D
100
AcDbEntity
  8
0
100
AcDbSpline
 62
7
  6
CONTINUOUS
 70
0
 71
3
 72
11
 73
7
 74
0
 42
0.0000001
 43
0.0000001
 44
0.0000000001
 40
0.0
 40
0.0
 40
0.0
 40
0.0
 40
0.2897016594
 40
0.5490895814
 40
0.7822189142
 40
1.0
 40
1.0
 40
1.0
 40
1.0
 10
75.2624712306
 20
87.1662125318
 30
0.0
 10
75.2624712306
 20
86.9610072697
 30
0.0
 10
75.2313593132
 20
86.5707483492
 30
0.0
 10
75.0733174003
 20
86.0345490904
 30
0.0
 10
74.8072079192
 20
85.599454092
 30
0.0
 10
74.5572496544
 20
85.3893319398
 30
0.0
 10
74.4236608691
 20
85.3121914193
 30
0.0
  0
SPLINE
  5
24E
100
AcDbEntity
  8
0
100
AcDbSpline
 62
7
  6
CONTINUOUS
 70
0
 71
3
 72
11
 73
7
 74
0
 42
0.0000001
 43
0.0000001
 44
0.0000000001
 40
0.0
 40
0.0
 40
0.0
 40
0.0
 40
0.2897016594
 40
0.5490895814
 40
0.7822189142
 40
1.0
 40
1.0
 40
1.0
 40
1.0
 10
87.2833365581
 20
80.2261197049
 30
0.0
 10
87.2833365581
 20
80.0209144429
 30
0.0
 10
87.2522246407
 20
79.6306555223
 30
0.0
 10
87.0941827278
 20
79.0944562636
 30
0.0
 10
86.8280732467
 20
78.6593612651
 30
0.0
 10
86.5781149819
 20
78.449239113
 30
0.0
 10
86.4445261966
 20
78.3720985925
 30
0.0
  0
SPLINE
  5
24F
100
AcDbEntity
  8
0
100
AcDbSpline
 62
7
  6
CONTINUOUS
 70
0
 71
3
 72
11
 73
7
 74
0
 42
0.0000001
 43
0.0000001
 44
0.0000000001
 40
0.0
 40
0.0
 40
0.0
 40
0.0
 40
0.2897016594
 40
0.5490895814
 40
0.7822189142
 40
1.0
 40
1.0
 40
1.0
 40
1.0
 10
96.5464739575
 20
74.8781658207
 30
0.0
 10
96.5464739575
 20
74.6729605586
 30
0.0
 10
96.5153620401
 20
74.2827016381
 30
0.0
 10
96.3573201272
 20
73.7465023794
 30
0.0
 10
96.0912106462
 20
73.3114073809
 30
0.0
 10
95.8412523813
 20
73.1012852287
 30
0.0
 10
95.7076635961
 20
73.0241447082
 30
0.0
  0
SPLINE
  5
250
100
AcDbEntity
  8
0
100
AcDbSpline
 62
7
  6
CONTINUOUS
 70
0
 71
3
 72
11
 73
7
 74
0
 42
0.0000001
 43
0.0000001
 44
0.0000000001
 40
0.0
 40
0.0
 40
0.0
 40
0.0
 40
0.2897016594
 40
0.5490895814
 40
0.7822189142
 40
1.0
 40
1.0
 40
1.0
 40
1.0
 10
105.8096113569
 20
69.5302119365
 30
0.0
 10
105.8096113569
 20
69.3250066744
 30
0.0
 10
105.7784994395
 20
68.9347477539
 30
0.0
 10
105.6204575266
 20
68.3985484951
 30
0.0
 10
105.3543480456
 20
67.9634534967
 30
0.0
 10
105.1043897807
 20
67.7533313445
 30
0.0
 10
104.9708009955
 20
67.676190824
 30
0.0
  0
SPLINE
  5
251
100
AcDbEntity
  8
0
100
AcDbSpline
 62
7
  6
CONTINUOUS
 70
0
 71
3
 72
11
 73
7
 74
0
 42
0.0000001
 43
0.0000001
 44
0.0000000001
 40
0.0
 40
0.0
 40
0.0
 40
0.0
 40
0.2897016594
 40
0.5490895814
 40
0.7822189142
 40
1.0
 40
1.0
 40
1.0
 40
1.0
 10
37.0785460726
 20
127.9091186281
 30
0.0
 10
37.0785460726
 20
127.7039133661
 30
0.0
 10
37.0474341553
 20
127.3136544455
 30
0.0
 10
36.8893922423
 20
126.7774551868
 30
0.0
 10
36.6232827613
 20
126.3423601883
 30
0.0
 10
36.3733244964
 20
126.1322380362
 30
0.0
 10
36.2397357112
 20
126.0550975157
 30
0.0
  0
SPLINE
  5
252
100
AcDbEntity
  8
0
100
AcDbSpline
 62
7
  6
CONTINUOUS
 70
0
 71
3
 72
11
 73
7
 74
0
 42
0.0000001
 43
0.0000001
 44
0.0000000001
 40
0.0
 40
0.0
 40
0.0
 40
0.0
 40
0.2897016594
 40
0.5490895814
 40
0.7822189142
 40
1.0
 40
1.0
 40
1.0
 40
1.0
 10
46.6245273621
 20
122.3978684421
 30
0.0
 10
46.6245273621
 20
122.19266318
 30
0.0
 10
46.5934154447
 20
121.8024042595
 30
0.0
 10
46.4353735318
 20
121.2662050008
 30
0.0
 10
46.1692640508
 20
120.8311100023
 30
0.0
 10
45.9193057859
 20
120.6209878501
 30
0.0
 10
45.7857170007
 20
120.5438473296
 30
0.0
  0
SPLINE
  5
253
100
AcDbEntity
  8
0
100
AcDbSpline
 62
7
  6
CONTINUOUS
 70
0
 71
3
 72
11
 73
7
 74
0
 42
0.0000001
 43
0.0000001
 44
0.0000000001
 40
0.0
 40
0.0
 40
0.0
 40
0.0
 40
0.2897016594
 40
0.5490895814
 40
0.7822189142
 40
1.0
 40
1.0
 40
1.0
 40
1.0
 10
56.1705086516
 20
116.8866182561
 30
0.0
 10
56.1705086516
 20
116.681412994
 30
0.0
 10
56.1393967342
 20
116.2911540735
 30
0.0
 10
55.9813548213
 20
115.7549548147
 30
0.0
 10
55.7152453403
 20
115.3198598163
 30
0.0
 10
55.4652870754
 20
115.1097376641
 30
0.0
 10
55.3316982902
 20
115.0325971436
 30
0.0
  0
SPLINE
  5
254
100
AcDbEntity
  8
0
100
AcDbSpline
 62
7
  6
CONTINUOUS
 70
0
 71
3
 72
11
 73
7
 74
0
 42
0.0000001
 43
0.0000001
 44
0.0000000001
 40
0.0
 40
0.0
 40
0.0
 40
0.0
 40
0.2897016594
 40
0.5490895814
 40
0.7822189142
 40
1.0
 40
1.0
 40
1.0
 40
1.0
 10
65.7164899411
 20
111.3753680701
 30
0.0
 10
65.7164899411
 20
111.170162808
 30
0.0
 10
65.6853780237
 20
110.7799038875
 30
0.0
 10
65.5273361108
 20
110.2437046287
 30
0.0
 10
65.2612266297
 20
109.8086096303
 30
0.0
 10
65.0112683649
 20
109.5984874781
 30
0.0
 10
64.8776795796
 20
109.5213469576
 30
0.0
  0
SPLINE
  5
255
100
AcDbEntity
  8
0
100
AcDbSpline
 62
7
  6
CONTINUOUS
 70
0
 71
3
 72
11
 73
7
 74
0
 42
0.0000001
 43
0.0000001
 44
0.0000000001
 40
0.0
 40
0.0
 40
0.0
 40
0.0
 40
0.2897016594
 40
0.5490895814
 40
0.7822189142
 40
1.0
 40
1.0
 40
1.0
 40
1.0
 10
75.2624712306
 20
105.864117884
 30
0.0
 10
75.2624712306
 20
105.658912622
 30
0.0
 10
75.2313593132
 20
105.2686537014
 30
0.0
 10
75.0733174003
 20
104.7324544427
 30
0.0
 10
74.8072079192
 20
104.2973594442
 30
0.0
 10
74.5572496544
 20
104.0872372921
 30
0.0
 10
74.4236608691
 20
104.0100967716
 30
0.0
  0
SPLINE
  5
256
100
AcDbEntity
  8
0
100
AcDbSpline
 62
7
  6
CONTINUOUS
 70
0
 71
3
 72
11
 73
7
 74
0
 42
0.0000001
 43
0.0000001
 44
0.0000000001
 40
0.0
 40
0.0
 40
0.0
 40
0.0
 40
0.2897016594
 40
0.5490895814
 40
0.7822189142
 40
1.0
 40
1.0
 40
1.0
 40
1.0
 10
87.2833365581
 20
98.9240250572
 30
0.0
 10
87.2833365581
 20
98.7188197951
 30
0.0
 10
87.2522246407
 20
98.3285608746
 30
0.0
 10
87.0941827278
 20
97.7923616158
 30
0.0
 10
86.8280732467
 20
97.3572666174
 30
0.0
 10
86.5781149819
 20
97.1471444652
 30
0.0
 10
86.4445261966
 20
97.0700039447
 30
0.0
  0
SPLINE
  5
257
100
AcDbEntity
  8
0
100
AcDbSpline
 62
7
  6
CONTINUOUS
 70
0
 71
3
 72
11
 73
7
 74
0
 42
0.0000001
 43
0.0000001
 44
0.0000000001
 40
0.0
 40
0.0
 40
0.0
 40
0.0
 40
0.2897016594
 40
0.5490895814
 40
0.7822189142
 40
1.0
 40
1.0
 40
1.0
 40
1.0
 10
96.5464739575
 20
93.576071173
 30
0.0
 10
96.5464739575
 20
93.3708659109
 30
0.0
 10
96.5153620401
 20
92.9806069904
 30
0.0
 10
96.3573201272
 20
92.4444077316
 30
0.0
 10
96.0912106462
 20
92.0093127332
 30
0.0
 10
95.8412523813
 20
91.799190581
 30
0.0
 10
95.7076635961
 20
91.7220500605
 30
0.0
  0
SPLINE
  5
258
100
AcDbEntity
  8
0
100
AcDbSpline
 62
7
  6
CONTINUOUS
 70
0
 71
3
 72
11
 73
7
 74
0
 42
0.0000001
 43
0.0000001
 44
0.0000000001
 40
0.0
 40
0.0
 40
0.0
 40
0.0
 40
0.2897016594
 40
0.5490895814
 40
0.7822189142
 40
1.0
 40
1.0
 40
1.0
 40
1.0
 10
105.8096113569
 20
88.2281172888
 30
0.0
 10
105.8096113569
 20
88.0229120267
 30
0.0
 10
105.7784994395
 20
87.6326531062
 30
0.0
 10
105.6204575266
 20
87.0964538474
 30
0.0
 10
105.3543480456
 20
86.661358849
 30
0.0
 10
105.1043897807
 20
86.4512366968
 30
0.0
 10
104.9708009955
 20
86.3740961763
 30
0.0
  0
SPLINE
  5
259
100
AcDbEntity
  8
0
100
AcDbSpline
 62
7
  6
CONTINUOUS
 70
0
 71
3
 72
11
 73
7
 74
0
 42
0.0000001
 43
0.0000001
 44
0.0000000001
 40
0.0
 40
0.0
 40
0.0
 40
0.0
 40
0.2897016594
 40
0.5490895814
 40
0.7822189142
 40
1.0
 40
1.0
 40
1.0
 40
1.0
 10
41.8161812311
 20
115.8249528967
 30
0.0
 10
41.8161812311
 20
115.6197476346
 30
0.0
 10
41.7850693137
 20
115.2294887141
 30
0.0
 10
41.6270274008
 20
114.6932894554
 30
0.0
 10
41.3609179198
 20
114.2581944569
 30
0.0
 10
41.1109596549
 20
114.0480723047
 30
0.0
 10
40.9773708697
 20
113.9709317843
 30
0.0
  0
SPLINE
  5
25A
100
AcDbEntity
  8
0
100
AcDbSpline
 62
7
  6
CONTINUOUS
 70
0
 71
3
 72
11
 73
7
 74
0
 42
0.0000001
 43
0.0000001
 44
0.0000000001
 40
0.0
 40
0.0
 40
0.0
 40
0.0
 40
0.2897016594
 40
0.5490895814
 40
0.7822189142
 40
1.0
 40
1.0
 40
1.0
 40
1.0
 10
51.3621625206
 20
110.3137027107
 30
0.0
 10
51.3621625206
 20
110.1084974486
 30
0.0
 10
51.3310506032
 20
109.7182385281
 30
0.0
 10
51.1730086903
 20
109.1820392693
 30
0.0
 10
50.9068992093
 20
108.7469442709
 30
0.0
 10
50.6569409444
 20
108.5368221187
 30
0.0
 10
50.5233521592
 20
108.4596815982
 30
0.0
  0
SPLINE
  5
25B
100
AcDbEntity
  8
0
100
AcDbSpline
 62
7
  6
CONTINUOUS
 70
0
 71
3
 72
11
 73
7
 74
0
 42
0.0000001
 43
0.0000001
 44
0.0000000001
 40
0.0
 40
0.0
 40
0.0
 40
0.0
 40
0.2897016594
 40
0.5490895814
 40
0.7822189142
 40
1.0
 40
1.0
 40
1.0
 40
1.0
 10
60.9081438101
 20
104.8024525247
 30
0.0
 10
60.9081438101
 20
104.5972472626
 30
0.0
 10
60.8770318927
 20
104.2069883421
 30
0.0
 10
60.7189899798
 20
103.6707890833
 30
0.0
 10
60.4528804988
 20
103.2356940849
 30
0.0
 10
60.2029222339
 20
103.0255719327
 30
0.0
 10
60.0693334486
 20
102.9484314122
 30
0.0
  0
SPLINE
  5
25C
100
AcDbEntity
  8
0
100
AcDbSpline
 62
7
  6
CONTINUOUS
 70
0
 71
3
 72
11
 73
7
 74
0
 42
0.0000001
 43
0.0000001
 44
0.0000000001
 40
0.0
 40
0.0
 40
0.0
 40
0.0
 40
0.2897016594
 40
0.5490895814
 40
0.7822189142
 40
1.0
 40
1.0
 40
1.0
 40
1.0
 10
70.4541250996
 20
99.2912023386
 30
0.0
 10
70.4541250996
 20
99.0859970766
 30
0.0
 10
70.4230131822
 20
98.695738156
 30
0.0
 10
70.2649712693
 20
98.1595388973
 30
0.0
 10
69.9988617882
 20
97.7244438988
 30
0.0
 10
69.7489035234
 20
97.5143217467
 30
0.0
 10
69.6153147381
 20
97.4371812262
 30
0.0
  0
SPLINE
  5
25D
100
AcDbEntity
  8
0
100
AcDbSpline
 62
7
  6
CONTINUOUS
 70
0
 71
3
 72
11
 73
7
 74
0
 42
0.0000001
 43
0.0000001
 44
0.0000000001
 40
0.0
 40
0.0
 40
0.0
 40
0.0
 40
0.2897016594
 40
0.5490895814
 40
0.7822189142
 40
1.0
 40
1.0
 40
1.0
 40
1.0
 10
81.3436148668
 20
93.004294719
 30
0.0
 10
81.3436148668
 20
92.799089457
 30
0.0
 10
81.3125029495
 20
92.4088305364
 30
0.0
 10
81.1544610365
 20
91.8726312777
 30
0.0
 10
80.8883515555
 20
91.4375362792
 30
0.0
 10
80.6383932906
 20
91.2274141271
 30
0.0
 10
80.5048045054
 20
91.1502736066
 30
0.0
  0
SPLINE
  5
25E
100
AcDbEntity
  8
0
100
AcDbSpline
 62
7
  6
CONTINUOUS
 70
0
 71
3
 72
11
 73
7
 74
0
 42
0.0000001
 43
0.0000001
 44
0.0000000001
 40
0.0
 40
0.0
 40
0.0
 40
0.0
 40
0.2897016594
 40
0.5490895814
 40
0.7822189142
 40
1.0
 40
1.0
 40
1.0
 40
1.0
 10
91.950260744
 20
86.8806834012
 30
0.0
 10
91.950260744
 20
86.6754781392
 30
0.0
 10
91.9191488267
 20
86.2852192186
 30
0.0
 10
91.7611069138
 20
85.7490199599
 30
0.0
 10
91.4949974327
 20
85.3139249614
 30
0.0
 10
91.2450391679
 20
85.1038028093
 30
0.0
 10
91.1114503826
 20
85.0266622888
 30
0.0
  0
SPLINE
  5
25F
100
AcDbEntity
  8
0
100
AcDbSpline
 62
7
  6
CONTINUOUS
 70
0
 71
3
 72
11
 73
7
 74
0
 42
0.0000001
 43
0.0000001
 44
0.0000000001
 40
0.0
 40
0.0
 40
0.0
 40
0.0
 40
0.2897016594
 40
0.5490895814
 40
0.7822189142
 40
1.0
 40
1.0
 40
1.0
 40
1.0
 10
101.2133981434
 20
81.532729517
 30
0.0
 10
101.2133981434
 20
81.3275242549
 30
0.0
 10
101.1822862261
 20
80.9372653344
 30
0.0
 10
101.0242443132
 20
80.4010660757
 30
0.0
 10
100.7581348321
 20
79.9659710772
 30
0.0
 10
100.5081765673
 20
79.755848925
 30
0.0
 10
100.374587782
 20
79.6787084045
 30
0.0
  0
SPLINE
  5
260
100
AcDbEntity
  8
0
100
AcDbSpline
 62
7
  6
CONTINUOUS
 70
0
 71
3
 72
17
 73
13
 74
0
 42
0.0000001
 43
0.0000001
 44
0.0000000001
 40
0.0
 40
0.0
 40
0.0
 40
0.0
 40
0.0428592926
 40
0.087485474
 40
0.1353198781
 40
0.1872819044
 40
0.3045421965
 40
0.4382074305
 40
0.582548911
 40
0.7297129633
 40
0.8713059682
 40
1.0
 40
1.0
 40
1.0
 40
1.0
 10
51.2817302393
 20
122.0473894802
 30
0.0
 10
51.3815716276
 20
122.105042648
 30
0.0
 10
51.6016898273
 20
122.196443504
 30
0.0
 10
51.9649753673
 20
122.2497667645
 30
0.0
 10
52.3551328176
 20
122.2210209041
 30
0.0
 10
52.922022428
 20
122.0702469387
 30
0.0
 10
53.6467028463
 20
121.6739872818
 30
0.0
 10
54.4473595615
 20
120.9649228322
 30
0.0
 10
55.155137829
 20
120.0590333554
 30
0.0
 10
55.7121506074
 20
119.0294796132
 30
0.0
 10
56.0736687058
 20
117.9607121421
 30
0.0
 10
56.1705086516
 20
117.2328059994
 30
0.0
 10
56.1705086516
 20
116.8866182561
 30
0.0
  0
SPLINE
  5
261
100
AcDbEntity
  8
0
100
AcDbSpline
 62
7
  6
CONTINUOUS
 70
0
 71
3
 72
17
 73
13
 74
0
 42
0.0000001
 43
0.0000001
 44
0.0000000001
 40
0.0
 40
0.0
 40
0.0
 40
0.0
 40
0.0428592926
 40
0.087485474
 40
0.1353198781
 40
0.1872819044
 40
0.3045421965
 40
0.4382074305
 40
0.582548911
 40
0.7297129633
 40
0.8713059682
 40
1.0
 40
1.0
 40
1.0
 40
1.0
 10
41.7357489498
 20
127.5586396662
 30
0.0
 10
41.8355903381
 20
127.6162928341
 30
0.0
 10
42.0557085378
 20
127.70769369
 30
0.0
 10
42.4189940779
 20
127.7610169506
 30
0.0
 10
42.8091515281
 20
127.7322710901
 30
0.0
 10
43.3760411386
 20
127.5814971247
 30
0.0
 10
44.1007215568
 20
127.1852374679
 30
0.0
 10
44.9013782721
 20
126.4761730182
 30
0.0
 10
45.6091565395
 20
125.5702835414
 30
0.0
 10
46.1661693179
 20
124.5407297992
 30
0.0
 10
46.5276874163
 20
123.4719623281
 30
0.0
 10
46.6245273621
 20
122.7440561854
 30
0.0
 10
46.6245273621
 20
122.3978684421
 30
0.0
  0
SPLINE
  5
262
100
AcDbEntity
  8
0
100
AcDbSpline
 62
7
  6
CONTINUOUS
 70
0
 71
3
 72
17
 73
13
 74
0
 42
0.0000001
 43
0.0000001
 44
0.0000000001
 40
0.0
 40
0.0
 40
0.0
 40
0.0
 40
0.0428592926
 40
0.087485474
 40
0.1353198781
 40
0.1872819044
 40
0.3045421965
 40
0.4382074305
 40
0.582548911
 40
0.7297129633
 40
0.8713059682
 40
1.0
 40
1.0
 40
1.0
 40
1.0
 10
32.1897676603
 20
133.0698898522
 30
0.0
 10
32.2896090486
 20
133.1275430201
 30
0.0
 10
32.5097272483
 20
133.2189438761
 30
0.0
 10
32.8730127884
 20
133.2722671366
 30
0.0
 10
33.2631702386
 20
133.2435212761
 30
0.0
 10
33.8300598491
 20
133.0927473107
 30
0.0
 10
34.5547402673
 20
132.6964876539
 30
0.0
 10
35.3553969826
 20
131.9874232042
 30
0.0
 10
36.06317525
 20
131.0815337274
 30
0.0
 10
36.6201880285
 20
130.0519799853
 30
0.0
 10
36.9817061268
 20
128.9832125141
 30
0.0
 10
37.0785460726
 20
128.2553063714
 30
0.0
 10
37.0785460726
 20
127.9091186281
 30
0.0
  0
SPLINE
  5
263
100
AcDbEntity
  8
0
100
AcDbSpline
 62
7
  6
CONTINUOUS
 70
0
 71
3
 72
17
 73
13
 74
0
 42
0.0000001
 43
0.0000001
 44
0.0000000001
 40
0.0
 40
0.0
 40
0.0
 40
0.0
 40
0.0428592926
 40
0.087485474
 40
0.1353198781
 40
0.1872819044
 40
0.3045421965
 40
0.4382074305
 40
0.582548911
 40
0.7297129633
 40
0.8713059682
 40
1.0
 40
1.0
 40
1.0
 40
1.0
 10
100.9208329446
 20
74.6909831606
 30
0.0
 10
101.0206743329
 20
74.7486363284
 30
0.0
 10
101.2407925326
 20
74.8400371844
 30
0.0
 10
101.6040780727
 20
74.893360445
 30
0.0
 10
101.9942355229
 20
74.8646145845
 30
0.0
 10
102.5611251334
 20
74.7138406191
 30
0.0
 10
103.2858055516
 20
74.3175809623
 30
0.0
 10
104.0864622669
 20
73.6085165126
 30
0.0
 10
104.7942405343
 20
72.7026270358
 30
0.0
 10
105.3512533127
 20
71.6730732936
 30
0.0
 10
105.7127714111
 20
70.6043058225
 30
0.0
 10
105.8096113569
 20
69.8763996798
 30
0.0
 10
105.8096113569
 20
69.5302119365
 30
0.0
  0
SPLINE
  5
264
100
AcDbEntity
  8
0
100
AcDbSpline
 62
7
  6
CONTINUOUS
 70
0
 71
3
 72
11
 73
7
 74
0
 42
0.0000001
 43
0.0000001
 44
0.0000000001
 40
0.0
 40
0.0
 40
0.0
 40
0.0
 40
0.2177739674
 40
0.4509298424
 40
0.7102237828
 40
1.0
 40
1.0
 40
1.0
 40
1.0
 10
17.996852587
 20
152.0595713075
 30
0.0
 10
17.8319255495
 20
151.9643512005
 30
0.0
 10
17.5232909152
 20
151.7049521351
 30
0.0
 10
17.1948515364
 20
151.1678199275
 30
0.0
 10
16.9995902764
 20
150.5058841125
 30
0.0
 10
16.9612743922
 20
150.0240797017
 30
0.0
 10
16.9612743922
 20
149.7706734292
 30
0.0
  0
SPLINE
  5
265
100
AcDbEntity
  8
0
100
AcDbSpline
 62
7
  6
CONTINUOUS
 70
0
 71
3
 72
11
 73
7
 74
0
 42
0.0000001
 43
0.0000001
 44
0.0000000001
 40
0.0
 40
0.0
 40
0.0
 40
0.0
 40
0.217774924
 40
0.4509311967
 40
0.710224778
 40
1.0
 40
1.0
 40
1.0
 40
1.0
 10
29.3105139824
 20
158.5914777694
 30
0.0
 10
29.4754373354
 20
158.6866957491
 30
0.0
 10
29.8543916457
 20
158.8242778248
 30
0.0
 10
30.4837651757
 20
158.8401514579
 30
0.0
 10
31.1546315154
 20
158.6782948083
 30
0.0
 10
31.5910335232
 20
158.4705853684
 30
0.0
 10
31.8104844133
 20
158.3438882042
 30
0.0
  0
SPLINE
  5
266
100
AcDbEntity
  8
0
100
AcDbSpline
 62
7
  6
CONTINUOUS
 70
0
 71
3
 72
17
 73
13
 74
0
 42
0.0000001
 43
0.0000001
 44
0.0000000001
 40
0.0
 40
0.0
 40
0.0
 40
0.0
 40
0.0428592926
 40
0.087485474
 40
0.1353198781
 40
0.1872819044
 40
0.3045421965
 40
0.4382074305
 40
0.582548911
 40
0.7297129633
 40
0.8713059682
 40
1.0
 40
1.0
 40
1.0
 40
1.0
 10
91.6576955452
 20
80.0389370448
 30
0.0
 10
91.7575369335
 20
80.0965902127
 30
0.0
 10
91.9776551331
 20
80.1879910686
 30
0.0
 10
92.3409406732
 20
80.2413143292
 30
0.0
 10
92.7310981235
 20
80.2125684687
 30
0.0
 10
93.2979877339
 20
80.0617945033
 30
0.0
 10
94.0226681522
 20
79.6655348465
 30
0.0
 10
94.8233248674
 20
78.9564703968
 30
0.0
 10
95.5311031349
 20
78.05058092
 30
0.0
 10
96.0881159133
 20
77.0210271778
 30
0.0
 10
96.4496340117
 20
75.9522597067
 30
0.0
 10
96.5464739575
 20
75.224353564
 30
0.0
 10
96.5464739575
 20
74.8781658207
 30
0.0
  0
SPLINE
  5
267
100
AcDbEntity
  8
0
100
AcDbSpline
 62
7
  6
CONTINUOUS
 70
0
 71
3
 72
17
 73
13
 74
0
 42
0.0000001
 43
0.0000001
 44
0.0000000001
 40
0.0
 40
0.0
 40
0.0
 40
0.0
 40
0.0428592926
 40
0.087485474
 40
0.1353198781
 40
0.1872819044
 40
0.3045421965
 40
0.4382074305
 40
0.582548911
 40
0.7297129633
 40
0.8713059682
 40
1.0
 40
1.0
 40
1.0
 40
1.0
 10
82.3945581458
 20
85.386890929
 30
0.0
 10
82.4943995341
 20
85.4445440969
 30
0.0
 10
82.7145177337
 20
85.5359449529
 30
0.0
 10
83.0778032738
 20
85.5892682134
 30
0.0
 10
83.4679607241
 20
85.5605223529
 30
0.0
 10
84.0348503345
 20
85.4097483875
 30
0.0
 10
84.7595307528
 20
85.0134887307
 30
0.0
 10
85.560187468
 20
84.304424281
 30
0.0
 10
86.2679657355
 20
83.3985348042
 30
0.0
 10
86.8249785139
 20
82.3689810621
 30
0.0
 10
87.1864966122
 20
81.3002135909
 30
0.0
 10
87.2833365581
 20
80.5723074482
 30
0.0
 10
87.2833365581
 20
80.2261197049
 30
0.0
  0
SPLINE
  5
268
100
AcDbEntity
  8
0
100
AcDbSpline
 62
7
  6
CONTINUOUS
 70
0
 71
3
 72
17
 73
13
 74
0
 42
0.0000001
 43
0.0000001
 44
0.0000000001
 40
0.0
 40
0.0
 40
0.0
 40
0.0
 40
0.0428577772
 40
0.0874861529
 40
0.1353174479
 40
0.1872826063
 40
0.3045432665
 40
0.4382104366
 40
0.5825529587
 40
0.7297133251
 40
0.871303479
 40
1.0
 40
1.0
 40
1.0
 40
1.0
 10
20.3681750195
 20
143.8698261009
 30
0.0
 10
20.4791218304
 20
143.9338562368
 30
0.0
 10
20.7236441978
 20
144.0355533546
 30
0.0
 10
21.1273253531
 20
144.0946193557
 30
0.0
 10
21.5608397893
 20
144.0628406955
 30
0.0
 10
22.1907048659
 20
143.8951920112
 30
0.0
 10
22.9959497137
 20
143.4550004718
 30
0.0
 10
23.8855710278
 20
142.6671029247
 30
0.0
 10
24.6719652798
 20
141.6605447995
 30
0.0
 10
25.2908504677
 20
140.5166003792
 30
0.0
 10
25.6925422021
 20
139.3290926752
 30
0.0
 10
25.8001459565
 20
138.5203063412
 30
0.0
 10
25.8001459565
 20
138.1356446607
 30
0.0
  0
SPLINE
  5
269
100
AcDbEntity
  8
0
100
AcDbSpline
 62
7
  6
CONTINUOUS
 70
0
 71
3
 72
17
 73
13
 74
0
 42
0.0000001
 43
0.0000001
 44
0.0000000001
 40
0.0
 40
0.0
 40
0.0
 40
0.0
 40
0.0428592926
 40
0.087485474
 40
0.1353198781
 40
0.1872819044
 40
0.3045421965
 40
0.4382074305
 40
0.582548911
 40
0.7297129633
 40
0.8713059682
 40
1.0
 40
1.0
 40
1.0
 40
1.0
 10
70.3736928183
 20
92.3269837559
 30
0.0
 10
70.4735342066
 20
92.3846369237
 30
0.0
 10
70.6936524062
 20
92.4760377797
 30
0.0
 10
71.0569379463
 20
92.5293610402
 30
0.0
 10
71.4470953966
 20
92.5006151798
 30
0.0
 10
72.013985007
 20
92.3498412144
 30
0.0
 10
72.7386654253
 20
91.9535815575
 30
0.0
 10
73.5393221405
 20
91.2445171079
 30
0.0
 10
74.247100408
 20
90.3386276311
 30
0.0
 10
74.8041131864
 20
89.3090738889
 30
0.0
 10
75.1656312847
 20
88.2403064177
 30
0.0
 10
75.2624712306
 20
87.5124002751
 30
0.0
 10
75.2624712306
 20
87.1662125318
 30
0.0
  0
SPLINE
  5
26A
100
AcDbEntity
  8
0
100
AcDbSpline
 62
7
  6
CONTINUOUS
 70
0
 71
3
 72
17
 73
13
 74
0
 42
0.0000001
 43
0.0000001
 44
0.0000000001
 40
0.0
 40
0.0
 40
0.0
 40
0.0
 40
0.0428592926
 40
0.087485474
 40
0.1353198781
 40
0.1872819044
 40
0.3045421965
 40
0.4382074305
 40
0.582548911
 40
0.7297129633
 40
0.8713059682
 40
1.0
 40
1.0
 40
1.0
 40
1.0
 10
60.8277115288
 20
97.8382339419
 30
0.0
 10
60.9275529171
 20
97.8958871097
 30
0.0
 10
61.1476711167
 20
97.9872879657
 30
0.0
 10
61.5109566568
 20
98.0406112263
 30
0.0
 10
61.9011141071
 20
98.0118653658
 30
0.0
 10
62.4680037175
 20
97.8610914004
 30
0.0
 10
63.1926841358
 20
97.4648317436
 30
0.0
 10
63.993340851
 20
96.7557672939
 30
0.0
 10
64.7011191185
 20
95.8498778171
 30
0.0
 10
65.2581318969
 20
94.8203240749
 30
0.0
 10
65.6196499953
 20
93.7515566038
 30
0.0
 10
65.7164899411
 20
93.0236504611
 30
0.0
 10
65.7164899411
 20
92.6774627178
 30
0.0
  0
SPLINE
  5
26B
100
AcDbEntity
  8
0
100
AcDbSpline
 62
7
  6
CONTINUOUS
 70
0
 71
3
 72
17
 73
13
 74
0
 42
0.0000001
 43
0.0000001
 44
0.0000000001
 40
0.0
 40
0.0
 40
0.0
 40
0.0
 40
0.0428577772
 40
0.0874861529
 40
0.1353174479
 40
0.1872826063
 40
0.3045432665
 40
0.4382104366
 40
0.5825529587
 40
0.7297133251
 40
0.871303479
 40
1.0
 40
1.0
 40
1.0
 40
1.0
 10
20.3681750195
 20
117.7417487528
 30
0.0
 10
20.4791218304
 20
117.8057788887
 30
0.0
 10
20.7236441978
 20
117.9074760065
 30
0.0
 10
21.1273253531
 20
117.9665420075
 30
0.0
 10
21.5608397893
 20
117.9347633474
 30
0.0
 10
22.1907048659
 20
117.7671146631
 30
0.0
 10
22.9959497137
 20
117.3269231236
 30
0.0
 10
23.8855710278
 20
116.5390255766
 30
0.0
 10
24.6719652798
 20
115.5324674513
 30
0.0
 10
25.2908504677
 20
114.3885230311
 30
0.0
 10
25.6925422021
 20
113.2010153271
 30
0.0
 10
25.8001459565
 20
112.3922289931
 30
0.0
 10
25.8001459565
 20
112.0075673125
 30
0.0
  0
SPLINE
  5
26C
100
AcDbEntity
  8
0
100
AcDbSpline
 62
7
  6
CONTINUOUS
 70
0
 71
3
 72
17
 73
13
 74
0
 42
0.0000001
 43
0.0000001
 44
0.0000000001
 40
0.0
 40
0.0
 40
0.0
 40
0.0
 40
0.0428592926
 40
0.087485474
 40
0.1353198781
 40
0.1872819044
 40
0.3045421965
 40
0.4382074305
 40
0.582548911
 40
0.7297129633
 40
0.8713059682
 40
1.0
 40
1.0
 40
1.0
 40
1.0
 10
51.2817302393
 20
103.3494841279
 30
0.0
 10
51.3815716276
 20
103.4071372958
 30
0.0
 10
51.6016898273
 20
103.4985381517
 30
0.0
 10
51.9649753673
 20
103.5518614123
 30
0.0
 10
52.3551328176
 20
103.5231155518
 30
0.0
 10
52.922022428
 20
103.3723415864
 30
0.0
 10
53.6467028463
 20
102.9760819296
 30
0.0
 10
54.4473595615
 20
102.2670174799
 30
0.0
 10
55.155137829
 20
101.3611280031
 30
0.0
 10
55.7121506074
 20
100.3315742609
 30
0.0
 10
56.0736687058
 20
99.2628067898
 30
0.0
 10
56.1705086516
 20
98.5349006471
 30
0.0
 10
56.1705086516
 20
98.1887129038
 30
0.0
  0
SPLINE
  5
26D
100
AcDbEntity
  8
0
100
AcDbSpline
 62
7
  6
CONTINUOUS
 70
0
 71
3
 72
17
 73
13
 74
0
 42
0.0000001
 43
0.0000001
 44
0.0000000001
 40
0.0
 40
0.0
 40
0.0
 40
0.0
 40
0.0428592926
 40
0.087485474
 40
0.1353198781
 40
0.1872819044
 40
0.3045421965
 40
0.4382074305
 40
0.582548911
 40
0.7297129633
 40
0.8713059682
 40
1.0
 40
1.0
 40
1.0
 40
1.0
 10
41.7357489498
 20
108.8607343139
 30
0.0
 10
41.8355903381
 20
108.9183874818
 30
0.0
 10
42.0557085378
 20
109.0097883378
 30
0.0
 10
42.4189940779
 20
109.0631115983
 30
0.0
 10
42.8091515281
 20
109.0343657378
 30
0.0
 10
43.3760411386
 20
108.8835917724
 30
0.0
 10
44.1007215568
 20
108.4873321156
 30
0.0
 10
44.9013782721
 20
107.778267666
 30
0.0
 10
45.6091565395
 20
106.8723781891
 30
0.0
 10
46.1661693179
 20
105.842824447
 30
0.0
 10
46.5276874163
 20
104.7740569758
 30
0.0
 10
46.6245273621
 20
104.0461508332
 30
0.0
 10
46.6245273621
 20
103.6999630899
 30
0.0
  0
SPLINE
  5
26E
100
AcDbEntity
  8
0
100
AcDbSpline
 62
7
  6
CONTINUOUS
 70
0
 71
3
 72
17
 73
13
 74
0
 42
0.0000001
 43
0.0000001
 44
0.0000000001
 40
0.0
 40
0.0
 40
0.0
 40
0.0
 40
0.0428577772
 40
0.0874861529
 40
0.1353174479
 40
0.1872826063
 40
0.3045432665
 40
0.4382104366
 40
0.5825529587
 40
0.7297133251
 40
0.871303479
 40
1.0
 40
1.0
 40
1.0
 40
1.0
 10
112.2924392887
 20
90.7985280133
 30
0.0
 10
112.4033860995
 20
90.8625581492
 30
0.0
 10
112.6479084669
 20
90.964255267
 30
0.0
 10
113.0515896222
 20
91.023321268
 30
0.0
 10
113.4851040585
 20
90.9915426079
 30
0.0
 10
114.114969135
 20
90.8238939236
 30
0.0
 10
114.9202139828
 20
90.3837023841
 30
0.0
 10
115.8098352969
 20
89.5958048371
 30
0.0
 10
116.596229549
 20
88.5892467118
 30
0.0
 10
117.2151147368
 20
87.4453022916
 30
0.0
 10
117.6168064712
 20
86.2577945876
 30
0.0
 10
117.7244102256
 20
85.4490082536
 30
0.0
 10
117.7244102256
 20
85.064346573
 30
0.0
  0
SPLINE
  5
26F
100
AcDbEntity
  8
0
100
AcDbSpline
 62
7
  6
CONTINUOUS
 70
0
 71
3
 72
17
 73
13
 74
0
 42
0.0000001
 43
0.0000001
 44
0.0000000001
 40
0.0
 40
0.0
 40
0.0
 40
0.0
 40
0.0428592926
 40
0.087485474
 40
0.1353198781
 40
0.1872819044
 40
0.3045421965
 40
0.4382074305
 40
0.582548911
 40
0.7297129633
 40
0.8713059682
 40
1.0
 40
1.0
 40
1.0
 40
1.0
 10
32.1897676603
 20
114.3719845
 30
0.0
 10
32.2896090486
 20
114.4296376678
 30
0.0
 10
32.5097272483
 20
114.5210385238
 30
0.0
 10
32.8730127884
 20
114.5743617843
 30
0.0
 10
33.2631702386
 20
114.5456159239
 30
0.0
 10
33.8300598491
 20
114.3948419585
 30
0.0
 10
34.5547402673
 20
113.9985823016
 30
0.0
 10
35.3553969826
 20
113.289517852
 30
0.0
 10
36.06317525
 20
112.3836283751
 30
0.0
 10
36.6201880285
 20
111.354074633
 30
0.0
 10
36.9817061268
 20
110.2853071618
 30
0.0
 10
37.0785460726
 20
109.5574010192
 30
0.0
 10
37.0785460726
 20
109.2112132759
 30
0.0
  0
SPLINE
  5
270
100
AcDbEntity
  8
0
100
AcDbSpline
 62
7
  6
CONTINUOUS
 70
0
 71
3
 72
17
 73
13
 74
0
 42
0.0000001
 43
0.0000001
 44
0.0000000001
 40
0.0
 40
0.0
 40
0.0
 40
0.0
 40
0.0428577772
 40
0.0874861529
 40
0.1353174479
 40
0.1872826063
 40
0.3045432665
 40
0.4382104366
 40
0.5825529587
 40
0.7297133251
 40
0.871303479
 40
1.0
 40
1.0
 40
1.0
 40
1.0
 10
112.2924392887
 20
64.6704506652
 30
0.0
 10
112.4033860995
 20
64.7344808011
 30
0.0
 10
112.6479084669
 20
64.8361779189
 30
0.0
 10
113.0515896222
 20
64.8952439199
 30
0.0
 10
113.4851040585
 20
64.8634652597
 30
0.0
 10
114.114969135
 20
64.6958165754
 30
0.0
 10
114.9202139828
 20
64.255625036
 30
0.0
 10
115.8098352969
 20
63.467727489
 30
0.0
 10
116.596229549
 20
62.4611693637
 30
0.0
 10
117.2151147368
 20
61.3172249434
 30
0.0
 10
117.6168064712
 20
60.1297172395
 30
0.0
 10
117.7244102256
 20
59.3209309055
 30
0.0
 10
117.7244102256
 20
58.9362692249
 30
0.0
  0
SPLINE
  5
271
100
AcDbEntity
  8
0
100
AcDbSpline
 62
7
  6
CONTINUOUS
 70
0
 71
3
 72
17
 73
13
 74
0
 42
0.0000001
 43
0.0000001
 44
0.0000000001
 40
0.0
 40
0.0
 40
0.0
 40
0.0
 40
0.0428592926
 40
0.087485474
 40
0.1353198781
 40
0.1872819044
 40
0.3045421965
 40
0.4382074305
 40
0.582548911
 40
0.7297129633
 40
0.8713059682
 40
1.0
 40
1.0
 40
1.0
 40
1.0
 10
100.374587782
 20
79.6787084045
 30
0.0
 10
100.2747463937
 20
79.6210552367
 30
0.0
 10
100.0546281941
 20
79.5296543807
 30
0.0
 10
99.691342654
 20
79.4763311202
 30
0.0
 10
99.3011852037
 20
79.5050769806
 30
0.0
 10
98.7342955933
 20
79.655850946
 30
0.0
 10
98.009615175
 20
80.0521106029
 30
0.0
 10
97.2089584598
 20
80.7611750525
 30
0.0
 10
96.5011801923
 20
81.6670645294
 30
0.0
 10
95.9441674139
 20
82.6966182715
 30
0.0
 10
95.5826493156
 20
83.7653857427
 30
0.0
 10
95.4858093698
 20
84.4932918853
 30
0.0
 10
95.4858093698
 20
84.8394796286
 30
0.0
  0
SPLINE
  5
272
100
AcDbEntity
  8
0
100
AcDbSpline
 62
7
  6
CONTINUOUS
 70
0
 71
3
 72
11
 73
7
 74
0
 42
0.0000001
 43
0.0000001
 44
0.0000000001
 40
0.0
 40
0.0
 40
0.0
 40
0.0
 40
0.2897016594
 40
0.5490895814
 40
0.7822189142
 40
1.0
 40
1.0
 40
1.0
 40
1.0
 10
64.7265363259
 20
102.5979524503
 30
0.0
 10
64.7265363259
 20
102.8031577123
 30
0.0
 10
64.7576482432
 20
103.1934166329
 30
0.0
 10
64.9156901561
 20
103.7296158916
 30
0.0
 10
65.1817996372
 20
104.1647108901
 30
0.0
 10
65.431757902
 20
104.3748330422
 30
0.0
 10
65.5653466873
 20
104.4519735627
 30
0.0
  0
SPLINE
  5
273
100
AcDbEntity
  8
0
100
AcDbSpline
 62
7
  6
CONTINUOUS
 70
0
 71
3
 72
11
 73
7
 74
0
 42
0.0000001
 43
0.0000001
 44
0.0000000001
 40
0.0
 40
0.0
 40
0.0
 40
0.0
 40
0.2897482139
 40
0.549082553
 40
0.782223544
 40
1.0
 40
1.0
 40
1.0
 40
1.0
 10
19.4361584302
 20
141.8098114514
 30
0.0
 10
19.4361584302
 20
142.0378543238
 30
0.0
 10
19.4706795095
 20
142.4714772126
 30
0.0
 10
19.6463502074
 20
143.0672448289
 30
0.0
 10
19.9420133073
 20
143.5506320792
 30
0.0
 10
20.2197251831
 20
143.7841520457
 30
0.0
 10
20.3681750195
 20
143.8698261009
 30
0.0
  0
SPLINE
  5
274
100
AcDbEntity
  8
0
100
AcDbSpline
 62
7
  6
CONTINUOUS
 70
0
 71
3
 72
11
 73
7
 74
0
 42
0.0000001
 43
0.0000001
 44
0.0000000001
 40
0.0
 40
0.0
 40
0.0
 40
0.0
 40
0.2897016594
 40
0.5490895814
 40
0.7822189142
 40
1.0
 40
1.0
 40
1.0
 40
1.0
 10
75.6160260931
 20
96.3110448307
 30
0.0
 10
75.6160260931
 20
96.5162500927
 30
0.0
 10
75.6471380105
 20
96.9065090133
 30
0.0
 10
75.8051799234
 20
97.442708272
 30
0.0
 10
76.0712894044
 20
97.8778032705
 30
0.0
 10
76.3212476693
 20
98.0879254226
 30
0.0
 10
76.4548364545
 20
98.1650659431
 30
0.0
  0
SPLINE
  5
275
100
AcDbEntity
  8
0
100
AcDbSpline
 62
7
  6
CONTINUOUS
 70
0
 71
3
 72
11
 73
7
 74
0
 42
0.0000001
 43
0.0000001
 44
0.0000000001
 40
0.0
 40
0.0
 40
0.0
 40
0.0
 40
0.2897016594
 40
0.5490895814
 40
0.7822189142
 40
1.0
 40
1.0
 40
1.0
 40
1.0
 10
86.2226719703
 20
90.1874335128
 30
0.0
 10
86.2226719703
 20
90.3926387749
 30
0.0
 10
86.2537838877
 20
90.7828976955
 30
0.0
 10
86.4118258006
 20
91.3190969542
 30
0.0
 10
86.6779352817
 20
91.7541919527
 30
0.0
 10
86.9278935465
 20
91.9643141048
 30
0.0
 10
87.0614823318
 20
92.0414546253
 30
0.0
  0
SPLINE
  5
276
100
AcDbEntity
  8
0
100
AcDbSpline
 62
7
  6
CONTINUOUS
 70
0
 71
3
 72
11
 73
7
 74
0
 42
0.0000001
 43
0.0000001
 44
0.0000000001
 40
0.0
 40
0.0
 40
0.0
 40
0.0
 40
0.2897482139
 40
0.549082553
 40
0.782223544
 40
1.0
 40
1.0
 40
1.0
 40
1.0
 10
19.4361584302
 20
115.6817341032
 30
0.0
 10
19.4361584302
 20
115.9097769756
 30
0.0
 10
19.4706795095
 20
116.3433998645
 30
0.0
 10
19.6463502074
 20
116.9391674807
 30
0.0
 10
19.9420133073
 20
117.4225547311
 30
0.0
 10
20.2197251831
 20
117.6560746976
 30
0.0
 10
20.3681750195
 20
117.7417487528
 30
0.0
  0
SPLINE
  5
277
100
AcDbEntity
  8
0
100
AcDbSpline
 62
7
  6
CONTINUOUS
 70
0
 71
3
 72
11
 73
7
 74
0
 42
0.0000001
 43
0.0000001
 44
0.0000000001
 40
0.0
 40
0.0
 40
0.0
 40
0.0
 40
0.2897016594
 40
0.5490895814
 40
0.7822189142
 40
1.0
 40
1.0
 40
1.0
 40
1.0
 10
95.4858093698
 20
84.8394796286
 30
0.0
 10
95.4858093698
 20
85.0446848907
 30
0.0
 10
95.5169212871
 20
85.4349438112
 30
0.0
 10
95.6749632
 20
85.97114307
 30
0.0
 10
95.9410726811
 20
86.4062380684
 30
0.0
 10
96.1910309459
 20
86.6163602206
 30
0.0
 10
96.3246197312
 20
86.6935007411
 30
0.0
  0
SPLINE
  5
278
100
AcDbEntity
  8
0
100
AcDbSpline
 62
7
  6
CONTINUOUS
 70
0
 71
3
 72
17
 73
13
 74
0
 42
0.0000001
 43
0.0000001
 44
0.0000000001
 40
0.0
 40
0.0
 40
0.0
 40
0.0
 40
0.0428592926
 40
0.087485474
 40
0.1353198781
 40
0.1872819044
 40
0.3045421965
 40
0.4382074305
 40
0.582548911
 40
0.7297129633
 40
0.8713059682
 40
1.0
 40
1.0
 40
1.0
 40
1.0
 10
64.8776795796
 20
109.5213469576
 30
0.0
 10
64.7778381914
 20
109.4636937897
 30
0.0
 10
64.5577199917
 20
109.3722929338
 30
0.0
 10
64.1944344516
 20
109.3189696732
 30
0.0
 10
63.8042770014
 20
109.3477155337
 30
0.0
 10
63.2373873909
 20
109.4984894991
 30
0.0
 10
62.5127069727
 20
109.8947491559
 30
0.0
 10
61.7120502574
 20
110.6038136056
 30
0.0
 10
61.00427199
 20
111.5097030824
 30
0.0
 10
60.4472592115
 20
112.5392568246
 30
0.0
 10
60.0857411132
 20
113.6080242957
 30
0.0
 10
59.9889011674
 20
114.3359304384
 30
0.0
 10
59.9889011674
 20
114.6821181817
 30
0.0
  0
SPLINE
  5
279
100
AcDbEntity
  8
0
100
AcDbSpline
 62
7
  6
CONTINUOUS
 70
0
 71
3
 72
17
 73
13
 74
0
 42
0.0000001
 43
0.0000001
 44
0.0000000001
 40
0.0
 40
0.0
 40
0.0
 40
0.0
 40
0.0428592926
 40
0.087485474
 40
0.1353198781
 40
0.1872819044
 40
0.3045421965
 40
0.4382074305
 40
0.582548911
 40
0.7297129633
 40
0.8713059682
 40
1.0
 40
1.0
 40
1.0
 40
1.0
 10
95.7076635961
 20
91.7220500605
 30
0.0
 10
95.6078222078
 20
91.6643968927
 30
0.0
 10
95.3877040081
 20
91.5729960367
 30
0.0
 10
95.024418468
 20
91.5196727761
 30
0.0
 10
94.6342610178
 20
91.5484186366
 30
0.0
 10
94.0673714073
 20
91.699192602
 30
0.0
 10
93.3426909891
 20
92.0954522588
 30
0.0
 10
92.5420342738
 20
92.8045167085
 30
0.0
 10
91.8342560064
 20
93.7104061853
 30
0.0
 10
91.2772432279
 20
94.7399599275
 30
0.0
 10
90.9157251296
 20
95.8087273986
 30
0.0
 10
90.8188851838
 20
96.5366335413
 30
0.0
 10
90.8188851838
 20
96.8828212846
 30
0.0
  0
SPLINE
  5
27A
100
AcDbEntity
  8
0
100
AcDbSpline
 62
7
  6
CONTINUOUS
 70
0
 71
3
 72
11
 73
7
 74
0
 42
0.0000001
 43
0.0000001
 44
0.0000000001
 40
0.0
 40
0.0
 40
0.0
 40
0.0
 40
0.2897482139
 40
0.549082553
 40
0.782223544
 40
1.0
 40
1.0
 40
1.0
 40
1.0
 10
111.3604226993
 20
88.7385133637
 30
0.0
 10
111.3604226993
 20
88.9665562361
 30
0.0
 10
111.3949437786
 20
89.400179125
 30
0.0
 10
111.5706144765
 20
89.9959467412
 30
0.0
 10
111.8662775764
 20
90.4793339916
 30
0.0
 10
112.1439894522
 20
90.7128539581
 30
0.0
 10
112.2924392887
 20
90.7985280133
 30
0.0
  0
SPLINE
  5
27B
100
AcDbEntity
  8
0
100
AcDbSpline
 62
7
  6
CONTINUOUS
 70
0
 71
3
 72
17
 73
13
 74
0
 42
0.0000001
 43
0.0000001
 44
0.0000000001
 40
0.0
 40
0.0
 40
0.0
 40
0.0
 40
0.0428592926
 40
0.087485474
 40
0.1353198781
 40
0.1872819044
 40
0.3045421965
 40
0.4382074305
 40
0.582548911
 40
0.7297129633
 40
0.8713059682
 40
1.0
 40
1.0
 40
1.0
 40
1.0
 10
55.3316982902
 20
115.0325971436
 30
0.0
 10
55.2318569019
 20
114.9749439758
 30
0.0
 10
55.0117387022
 20
114.8835431198
 30
0.0
 10
54.6484531621
 20
114.8302198593
 30
0.0
 10
54.2582957119
 20
114.8589657197
 30
0.0
 10
53.6914061014
 20
115.0097396851
 30
0.0
 10
52.9667256832
 20
115.405999342
 30
0.0
 10
52.1660689679
 20
116.1150637916
 30
0.0
 10
51.4582907005
 20
117.0209532684
 30
0.0
 10
50.9012779221
 20
118.0505070106
 30
0.0
 10
50.5397598237
 20
119.1192744817
 30
0.0
 10
50.4429198779
 20
119.8471806244
 30
0.0
 10
50.4429198779
 20
120.1933683677
 30
0.0
  0
SPLINE
  5
27C
100
AcDbEntity
  8
0
100
AcDbSpline
 62
7
  6
CONTINUOUS
 70
0
 71
3
 72
17
 73
13
 74
0
 42
0.0000001
 43
0.0000001
 44
0.0000000001
 40
0.0
 40
0.0
 40
0.0
 40
0.0
 40
0.0428592926
 40
0.087485474
 40
0.1353198781
 40
0.1872819044
 40
0.3045421965
 40
0.4382074305
 40
0.582548911
 40
0.7297129633
 40
0.8713059682
 40
1.0
 40
1.0
 40
1.0
 40
1.0
 10
74.4236608691
 20
104.0100967716
 30
0.0
 10
74.3238194808
 20
103.9524436037
 30
0.0
 10
74.1037012812
 20
103.8610427477
 30
0.0
 10
73.7404157411
 20
103.8077194872
 30
0.0
 10
73.3502582908
 20
103.8364653477
 30
0.0
 10
72.7833686804
 20
103.9872393131
 30
0.0
 10
72.0586882621
 20
104.3834989699
 30
0.0
 10
71.2580315469
 20
105.0925634196
 30
0.0
 10
70.5502532794
 20
105.9984528964
 30
0.0
 10
69.993240501
 20
107.0280066385
 30
0.0
 10
69.6317224027
 20
108.0967741097
 30
0.0
 10
69.5348824569
 20
108.8246802524
 30
0.0
 10
69.5348824569
 20
109.1708679957
 30
0.0
  0
SPLINE
  5
27D
100
AcDbEntity
  8
0
100
AcDbSpline
 62
7
  6
CONTINUOUS
 70
0
 71
3
 72
11
 73
7
 74
0
 42
0.0000001
 43
0.0000001
 44
0.0000000001
 40
0.0
 40
0.0
 40
0.0
 40
0.0
 40
0.2897482139
 40
0.549082553
 40
0.782223544
 40
1.0
 40
1.0
 40
1.0
 40
1.0
 10
111.3604226993
 20
62.6104360156
 30
0.0
 10
111.3604226993
 20
62.838478888
 30
0.0
 10
111.3949437786
 20
63.2721017768
 30
0.0
 10
111.5706144765
 20
63.8678693931
 30
0.0
 10
111.8662775764
 20
64.3512566434
 30
0.0
 10
112.1439894522
 20
64.5847766099
 30
0.0
 10
112.2924392887
 20
64.6704506652
 30
0.0
  0
SPLINE
  5
27E
100
AcDbEntity
  8
0
100
AcDbSpline
 62
7
  6
CONTINUOUS
 70
0
 71
3
 72
17
 73
13
 74
0
 42
0.0000001
 43
0.0000001
 44
0.0000000001
 40
0.0
 40
0.0
 40
0.0
 40
0.0
 40
0.0428592926
 40
0.087485474
 40
0.1353198781
 40
0.1872819044
 40
0.3045421965
 40
0.4382074305
 40
0.582548911
 40
0.7297129633
 40
0.8713059682
 40
1.0
 40
1.0
 40
1.0
 40
1.0
 10
45.7857170007
 20
120.5438473296
 30
0.0
 10
45.6858756124
 20
120.4861941618
 30
0.0
 10
45.4657574127
 20
120.3947933058
 30
0.0
 10
45.1024718726
 20
120.3414700453
 30
0.0
 10
44.7123144224
 20
120.3702159057
 30
0.0
 10
44.1454248119
 20
120.5209898711
 30
0.0
 10
43.4207443937
 20
120.917249528
 30
0.0
 10
42.6200876785
 20
121.6263139776
 30
0.0
 10
41.912309411
 20
122.5322034545
 30
0.0
 10
41.3552966326
 20
123.5617571966
 30
0.0
 10
40.9937785342
 20
124.6305246678
 30
0.0
 10
40.8969385884
 20
125.3584308104
 30
0.0
 10
40.8969385884
 20
125.7046185537
 30
0.0
  0
SPLINE
  5
27F
100
AcDbEntity
  8
0
100
AcDbSpline
 62
7
  6
CONTINUOUS
 70
0
 71
3
 72
17
 73
13
 74
0
 42
0.0000001
 43
0.0000001
 44
0.0000000001
 40
0.0
 40
0.0
 40
0.0
 40
0.0
 40
0.0428592926
 40
0.087485474
 40
0.1353198781
 40
0.1872819044
 40
0.3045421965
 40
0.4382074305
 40
0.582548911
 40
0.7297129633
 40
0.8713059682
 40
1.0
 40
1.0
 40
1.0
 40
1.0
 10
69.6153147381
 20
97.4371812262
 30
0.0
 10
69.5154733498
 20
97.3795280583
 30
0.0
 10
69.2953551502
 20
97.2881272023
 30
0.0
 10
68.9320696101
 20
97.2348039418
 30
0.0
 10
68.5419121598
 20
97.2635498023
 30
0.0
 10
67.9750225494
 20
97.4143237677
 30
0.0
 10
67.2503421311
 20
97.8105834245
 30
0.0
 10
66.4496854159
 20
98.5196478742
 30
0.0
 10
65.7419071484
 20
99.425537351
 30
0.0
 10
65.18489437
 20
100.4550910931
 30
0.0
 10
64.8233762717
 20
101.5238585643
 30
0.0
 10
64.7265363259
 20
102.251764707
 30
0.0
 10
64.7265363259
 20
102.5979524503
 30
0.0
  0
SPLINE
  5
280
100
AcDbEntity
  8
0
100
AcDbSpline
 62
7
  6
CONTINUOUS
 70
0
 71
3
 72
11
 73
7
 74
0
 42
0.0000001
 43
0.0000001
 44
0.0000000001
 40
0.0
 40
0.0
 40
0.0
 40
0.0
 40
0.2897016594
 40
0.5490895814
 40
0.7822189142
 40
1.0
 40
1.0
 40
1.0
 40
1.0
 10
31.3509572989
 20
112.5179633875
 30
0.0
 10
31.3509572989
 20
112.7231686496
 30
0.0
 10
31.3820692163
 20
113.1134275701
 30
0.0
 10
31.5401111292
 20
113.6496268289
 30
0.0
 10
31.8062206102
 20
114.0847218273
 30
0.0
 10
32.0561788751
 20
114.2948439795
 30
0.0
 10
32.1897676603
 20
114.3719845
 30
0.0
  0
SPLINE
  5
281
100
AcDbEntity
  8
0
100
AcDbSpline
 62
7
  6
CONTINUOUS
 70
0
 71
3
 72
17
 73
13
 74
0
 42
0.0000001
 43
0.0000001
 44
0.0000000001
 40
0.0
 40
0.0
 40
0.0
 40
0.0
 40
0.0428592926
 40
0.087485474
 40
0.1353198781
 40
0.1872819044
 40
0.3045421965
 40
0.4382074305
 40
0.582548911
 40
0.7297129633
 40
0.8713059682
 40
1.0
 40
1.0
 40
1.0
 40
1.0
 10
36.2397357112
 20
126.0550975157
 30
0.0
 10
36.1398943229
 20
125.9974443478
 30
0.0
 10
35.9197761233
 20
125.9060434918
 30
0.0
 10
35.5564905832
 20
125.8527202313
 30
0.0
 10
35.1663331329
 20
125.8814660918
 30
0.0
 10
34.5994435225
 20
126.0322400572
 30
0.0
 10
33.8747631042
 20
126.428499714
 30
0.0
 10
33.074106389
 20
127.1375641637
 30
0.0
 10
32.3663281215
 20
128.0434536405
 30
0.0
 10
31.8093153431
 20
129.0730073826
 30
0.0
 10
31.4477972447
 20
130.1417748538
 30
0.0
 10
31.3509572989
 20
130.8696809965
 30
0.0
 10
31.3509572989
 20
131.2158687398
 30
0.0
  0
SPLINE
  5
282
100
AcDbEntity
  8
0
100
AcDbSpline
 62
7
  6
CONTINUOUS
 70
0
 71
3
 72
11
 73
7
 74
0
 42
0.0000001
 43
0.0000001
 44
0.0000000001
 40
0.0
 40
0.0
 40
0.0
 40
0.0
 40
0.2408494359
 40
0.4993865365
 40
0.7582590677
 40
1.0
 40
1.0
 40
1.0
 40
1.0
 10
22.999082552
 20
143.354616313
 30
0.0
 10
23.0466694856
 20
142.9106420554
 30
0.0
 10
23.2638409795
 20
142.0014929722
 30
0.0
 10
23.8523121143
 20
140.7166395065
 30
0.0
 10
24.6637348813
 20
139.557599758
 30
0.0
 10
25.3388286451
 20
138.9080100517
 30
0.0
 10
25.6983328029
 20
138.6404037554
 30
0.0
  0
SPLINE
  5
283
100
AcDbEntity
  8
0
100
AcDbSpline
 62
7
  6
CONTINUOUS
 70
0
 71
3
 72
17
 73
13
 74
0
 42
0.0000001
 43
0.0000001
 44
0.0000000001
 40
0.0
 40
0.0
 40
0.0
 40
0.0
 40
0.0428592926
 40
0.087485474
 40
0.1353198781
 40
0.1872819044
 40
0.3045421965
 40
0.4382074305
 40
0.582548911
 40
0.7297129633
 40
0.8713059682
 40
1.0
 40
1.0
 40
1.0
 40
1.0
 10
80.5048045054
 20
91.1502736066
 30
0.0
 10
80.4049631171
 20
91.0926204387
 30
0.0
 10
80.1848449175
 20
91.0012195827
 30
0.0
 10
79.8215593774
 20
90.9478963222
 30
0.0
 10
79.4314019271
 20
90.9766421827
 30
0.0
 10
78.8645123167
 20
91.1274161481
 30
0.0
 10
78.1398318984
 20
91.5236758049
 30
0.0
 10
77.3391751832
 20
92.2327402545
 30
0.0
 10
76.6313969157
 20
93.1386297314
 30
0.0
 10
76.0743841373
 20
94.1681834735
 30
0.0
 10
75.7128660389
 20
95.2369509447
 30
0.0
 10
75.6160260931
 20
95.9648570873
 30
0.0
 10
75.6160260931
 20
96.3110448307
 30
0.0
  0
SPLINE
  5
284
100
AcDbEntity
  8
0
100
AcDbSpline
 62
7
  6
CONTINUOUS
 70
0
 71
3
 72
11
 73
7
 74
0
 42
0.0000001
 43
0.0000001
 44
0.0000000001
 40
0.0
 40
0.0
 40
0.0
 40
0.0
 40
0.2897016594
 40
0.5490895814
 40
0.7822189142
 40
1.0
 40
1.0
 40
1.0
 40
1.0
 10
40.8969385884
 20
107.0067132015
 30
0.0
 10
40.8969385884
 20
107.2119184635
 30
0.0
 10
40.9280505058
 20
107.6021773841
 30
0.0
 10
41.0860924187
 20
108.1383766428
 30
0.0
 10
41.3522018997
 20
108.5734716413
 30
0.0
 10
41.6021601646
 20
108.7835937934
 30
0.0
 10
41.7357489498
 20
108.8607343139
 30
0.0
  0
SPLINE
  5
285
100
AcDbEntity
  8
0
100
AcDbSpline
 62
7
  6
CONTINUOUS
 70
0
 71
3
 72
11
 73
7
 74
0
 42
0.0000001
 43
0.0000001
 44
0.0000000001
 40
0.0
 40
0.0
 40
0.0
 40
0.0
 40
0.2408494359
 40
0.4993865365
 40
0.7582590677
 40
1.0
 40
1.0
 40
1.0
 40
1.0
 10
22.999082552
 20
117.2265389649
 30
0.0
 10
23.0466694856
 20
116.7825647072
 30
0.0
 10
23.2638409795
 20
115.8734156241
 30
0.0
 10
23.8523121143
 20
114.5885621583
 30
0.0
 10
24.6637348813
 20
113.4295224099
 30
0.0
 10
25.3388286451
 20
112.7799327035
 30
0.0
 10
25.6983328029
 20
112.5123264072
 30
0.0
  0
SPLINE
  5
286
100
AcDbEntity
  8
0
100
AcDbSpline
 62
7
  6
CONTINUOUS
 70
0
 71
3
 72
11
 73
7
 74
0
 42
0.0000001
 43
0.0000001
 44
0.0000000001
 40
0.0
 40
0.0
 40
0.0
 40
0.0
 40
0.2897016594
 40
0.5490895814
 40
0.7822189142
 40
1.0
 40
1.0
 40
1.0
 40
1.0
 10
50.4429198779
 20
101.4954630154
 30
0.0
 10
50.4429198779
 20
101.7006682775
 30
0.0
 10
50.4740317952
 20
102.0909271981
 30
0.0
 10
50.6320737082
 20
102.6271264568
 30
0.0
 10
50.8981831892
 20
103.0622214552
 30
0.0
 10
51.1481414541
 20
103.2723436074
 30
0.0
 10
51.2817302393
 20
103.3494841279
 30
0.0
  0
SPLINE
  5
287
100
AcDbEntity
  8
0
100
AcDbSpline
 62
7
  6
CONTINUOUS
 70
0
 71
3
 72
11
 73
7
 74
0
 42
0.0000001
 43
0.0000001
 44
0.0000000001
 40
0.0
 40
0.0
 40
0.0
 40
0.0
 40
0.2408494359
 40
0.4993865365
 40
0.7582590677
 40
1.0
 40
1.0
 40
1.0
 40
1.0
 10
114.9233468211
 20
90.2833182254
 30
0.0
 10
114.9709337547
 20
89.8393439677
 30
0.0
 10
115.1881052486
 20
88.9301948846
 30
0.0
 10
115.7765763834
 20
87.6453414188
 30
0.0
 10
116.5879991504
 20
86.4863016704
 30
0.0
 10
117.2630929142
 20
85.836711964
 30
0.0
 10
117.622597072
 20
85.5691056677
 30
0.0
  0
SPLINE
  5
288
100
AcDbEntity
  8
0
100
AcDbSpline
 62
7
  6
CONTINUOUS
 70
0
 71
3
 72
17
 73
13
 74
0
 42
0.0000001
 43
0.0000001
 44
0.0000000001
 40
0.0
 40
0.0
 40
0.0
 40
0.0
 40
0.0428592926
 40
0.087485474
 40
0.1353198781
 40
0.1872819044
 40
0.3045421965
 40
0.4382074305
 40
0.582548911
 40
0.7297129633
 40
0.8713059682
 40
1.0
 40
1.0
 40
1.0
 40
1.0
 10
104.9708009955
 20
67.676190824
 30
0.0
 10
104.8709596072
 20
67.6185376562
 30
0.0
 10
104.6508414075
 20
67.5271368002
 30
0.0
 10
104.2875558675
 20
67.4738135397
 30
0.0
 10
103.8973984172
 20
67.5025594001
 30
0.0
 10
103.3305088067
 20
67.6533333655
 30
0.0
 10
102.6058283885
 20
68.0495930224
 30
0.0
 10
101.8051716733
 20
68.758657472
 30
0.0
 10
101.0973934058
 20
69.6645469488
 30
0.0
 10
100.5403806274
 20
70.694100691
 30
0.0
 10
100.178862529
 20
71.7628681622
 30
0.0
 10
100.0820225832
 20
72.4907743048
 30
0.0
 10
100.0820225832
 20
72.8369620481
 30
0.0
  0
SPLINE
  5
289
100
AcDbEntity
  8
0
100
AcDbSpline
 62
7
  6
CONTINUOUS
 70
0
 71
3
 72
17
 73
13
 74
0
 42
0.0000001
 43
0.0000001
 44
0.0000000001
 40
0.0
 40
0.0
 40
0.0
 40
0.0
 40
0.0428592926
 40
0.087485474
 40
0.1353198781
 40
0.1872819044
 40
0.3045421965
 40
0.4382074305
 40
0.582548911
 40
0.7297129633
 40
0.8713059682
 40
1.0
 40
1.0
 40
1.0
 40
1.0
 10
104.9708009955
 20
86.3740961763
 30
0.0
 10
104.8709596072
 20
86.3164430084
 30
0.0
 10
104.6508414075
 20
86.2250421525
 30
0.0
 10
104.2875558675
 20
86.1717188919
 30
0.0
 10
103.8973984172
 20
86.2004647524
 30
0.0
 10
103.3305088067
 20
86.3512387178
 30
0.0
 10
102.6058283885
 20
86.7474983746
 30
0.0
 10
101.8051716733
 20
87.4565628243
 30
0.0
 10
101.0973934058
 20
88.3624523011
 30
0.0
 10
100.5403806274
 20
89.3920060433
 30
0.0
 10
100.178862529
 20
90.4607735144
 30
0.0
 10
100.0820225832
 20
91.1886796571
 30
0.0
 10
100.0820225832
 20
91.5348674004
 30
0.0
  0
SPLINE
  5
28A
100
AcDbEntity
  8
0
100
AcDbSpline
 62
7
  6
CONTINUOUS
 70
0
 71
3
 72
11
 73
7
 74
0
 42
0.0000001
 43
0.0000001
 44
0.0000000001
 40
0.0
 40
0.0
 40
0.0
 40
0.0
 40
0.2408494359
 40
0.4993865365
 40
0.7582590677
 40
1.0
 40
1.0
 40
1.0
 40
1.0
 10
114.9233468211
 20
64.1552408773
 30
0.0
 10
114.9709337547
 20
63.7112666196
 30
0.0
 10
115.1881052486
 20
62.8021175364
 30
0.0
 10
115.7765763834
 20
61.5172640707
 30
0.0
 10
116.5879991504
 20
60.3582243222
 30
0.0
 10
117.2630929142
 20
59.7086346159
 30
0.0
 10
117.622597072
 20
59.4410283196
 30
0.0
  0
SPLINE
  5
28B
100
AcDbEntity
  8
0
100
AcDbSpline
 62
7
  6
CONTINUOUS
 70
0
 71
3
 72
11
 73
7
 74
0
 42
0.0000001
 43
0.0000001
 44
0.0000000001
 40
0.0
 40
0.0
 40
0.0
 40
0.0
 40
0.2897016594
 40
0.5490895814
 40
0.7822189142
 40
1.0
 40
1.0
 40
1.0
 40
1.0
 10
59.9889011674
 20
95.9842128294
 30
0.0
 10
59.9889011674
 20
96.1894180915
 30
0.0
 10
60.0200130847
 20
96.579677012
 30
0.0
 10
60.1780549976
 20
97.1158762708
 30
0.0
 10
60.4441644787
 20
97.5509712692
 30
0.0
 10
60.6941227435
 20
97.7610934214
 30
0.0
 10
60.8277115288
 20
97.8382339419
 30
0.0
  0
SPLINE
  5
28C
100
AcDbEntity
  8
0
100
AcDbSpline
 62
7
  6
CONTINUOUS
 70
0
 71
3
 72
11
 73
7
 74
0
 42
0.0000001
 43
0.0000001
 44
0.0000000001
 40
0.0
 40
0.0
 40
0.0
 40
0.0
 40
0.2897016594
 40
0.5490895814
 40
0.7822189142
 40
1.0
 40
1.0
 40
1.0
 40
1.0
 10
69.5348824569
 20
90.4729626434
 30
0.0
 10
69.5348824569
 20
90.6781679055
 30
0.0
 10
69.5659943742
 20
91.068426826
 30
0.0
 10
69.7240362871
 20
91.6046260848
 30
0.0
 10
69.9901457682
 20
92.0397210832
 30
0.0
 10
70.240104033
 20
92.2498432354
 30
0.0
 10
70.3736928183
 20
92.3269837559
 30
0.0
  0
SPLINE
  5
28D
100
AcDbEntity
  8
0
100
AcDbSpline
 62
7
  6
CONTINUOUS
 70
0
 71
3
 72
11
 73
7
 74
0
 42
0.0000001
 43
0.0000001
 44
0.0000000001
 40
0.0
 40
0.0
 40
0.0
 40
0.0
 40
0.2897016594
 40
0.5490895814
 40
0.7822189142
 40
1.0
 40
1.0
 40
1.0
 40
1.0
 10
81.5557477844
 20
83.5328698165
 30
0.0
 10
81.5557477844
 20
83.7380750786
 30
0.0
 10
81.5868597017
 20
84.1283339992
 30
0.0
 10
81.7449016146
 20
84.6645332579
 30
0.0
 10
82.0110110957
 20
85.0996282564
 30
0.0
 10
82.2609693605
 20
85.3097504085
 30
0.0
 10
82.3945581458
 20
85.386890929
 30
0.0
  0
SPLINE
  5
28E
100
AcDbEntity
  8
0
100
AcDbSpline
 62
7
  6
CONTINUOUS
 70
0
 71
3
 72
11
 73
7
 74
0
 42
0.0000001
 43
0.0000001
 44
0.0000000001
 40
0.0
 40
0.0
 40
0.0
 40
0.0
 40
0.2177739674
 40
0.4509298424
 40
0.7102237828
 40
1.0
 40
1.0
 40
1.0
 40
1.0
 10
119.1637160688
 20
48.6865093688
 30
0.0
 10
119.3286431063
 20
48.7817294758
 30
0.0
 10
119.6372777406
 20
49.0411285412
 30
0.0
 10
119.9657171194
 20
49.5782607487
 30
0.0
 10
120.1609783794
 20
50.2401965637
 30
0.0
 10
120.1992942636
 20
50.7220009745
 30
0.0
 10
120.1992942636
 20
50.975407247
 30
0.0
  0
SPLINE
  5
28F
100
AcDbEntity
  8
0
100
AcDbSpline
 62
7
  6
CONTINUOUS
 70
0
 71
3
 72
11
 73
7
 74
0
 42
0.0000001
 43
0.0000001
 44
0.0000000001
 40
0.0
 40
0.0
 40
0.0
 40
0.0
 40
0.2897016594
 40
0.5490895814
 40
0.7822189142
 40
1.0
 40
1.0
 40
1.0
 40
1.0
 10
90.8188851838
 20
78.1849159323
 30
0.0
 10
90.8188851838
 20
78.3901211944
 30
0.0
 10
90.8499971011
 20
78.7803801149
 30
0.0
 10
91.0080390141
 20
79.3165793737
 30
0.0
 10
91.2741484951
 20
79.7516743721
 30
0.0
 10
91.52410676
 20
79.9617965243
 30
0.0
 10
91.6576955452
 20
80.0389370448
 30
0.0
  0
SPLINE
  5
290
100
AcDbEntity
  8
0
100
AcDbSpline
 62
7
  6
CONTINUOUS
 70
0
 71
3
 72
17
 73
13
 74
0
 42
0.0000001
 43
0.0000001
 44
0.0000000001
 40
0.0
 40
0.0
 40
0.0
 40
0.0
 40
0.0428592926
 40
0.087485474
 40
0.1353198781
 40
0.1872819044
 40
0.3045421965
 40
0.4382074305
 40
0.582548911
 40
0.7297129633
 40
0.8713059682
 40
1.0
 40
1.0
 40
1.0
 40
1.0
 10
95.7076635961
 20
73.0241447082
 30
0.0
 10
95.6078222078
 20
72.9664915404
 30
0.0
 10
95.3877040081
 20
72.8750906844
 30
0.0
 10
95.024418468
 20
72.8217674239
 30
0.0
 10
94.6342610178
 20
72.8505132843
 30
0.0
 10
94.0673714073
 20
73.0012872497
 30
0.0
 10
93.3426909891
 20
73.3975469066
 30
0.0
 10
92.5420342738
 20
74.1066113562
 30
0.0
 10
91.8342560064
 20
75.0125008331
 30
0.0
 10
91.2772432279
 20
76.0420545752
 30
0.0
 10
90.9157251296
 20
77.1108220464
 30
0.0
 10
90.8188851838
 20
77.838728189
 30
0.0
 10
90.8188851838
 20
78.1849159323
 30
0.0
  0
SPLINE
  5
291
100
AcDbEntity
  8
0
100
AcDbSpline
 62
7
  6
CONTINUOUS
 70
0
 71
3
 72
17
 73
13
 74
0
 42
0.0000001
 43
0.0000001
 44
0.0000000001
 40
0.0
 40
0.0
 40
0.0
 40
0.0
 40
0.0428577772
 40
0.0874861529
 40
0.1353174479
 40
0.1872826063
 40
0.3045432665
 40
0.4382104366
 40
0.5825529587
 40
0.7297133251
 40
0.871303479
 40
1.0
 40
1.0
 40
1.0
 40
1.0
 10
24.8681293672
 20
136.0756300111
 30
0.0
 10
24.7571825563
 20
136.0115998752
 30
0.0
 10
24.5126601889
 20
135.9099027574
 30
0.0
 10
24.1089790336
 20
135.8508367564
 30
0.0
 10
23.6754645974
 20
135.8826154165
 30
0.0
 10
23.0455995208
 20
136.0502641008
 30
0.0
 10
22.240354673
 20
136.4904556403
 30
0.0
 10
21.3507333589
 20
137.2783531873
 30
0.0
 10
20.5643391069
 20
138.2849113126
 30
0.0
 10
19.945453919
 20
139.4288557328
 30
0.0
 10
19.5437621846
 20
140.6163634368
 30
0.0
 10
19.4361584302
 20
141.4251497708
 30
0.0
 10
19.4361584302
 20
141.8098114514
 30
0.0
  0
SPLINE
  5
292
100
AcDbEntity
  8
0
100
AcDbSpline
 62
7
  6
CONTINUOUS
 70
0
 71
3
 72
11
 73
7
 74
0
 42
0.0000001
 43
0.0000001
 44
0.0000000001
 40
0.0
 40
0.0
 40
0.0
 40
0.0
 40
0.289775222
 40
0.5490688033
 40
0.782225076
 40
1.0
 40
1.0
 40
1.0
 40
1.0
 10
20.4968230179
 20
151.8119817423
 30
0.0
 10
20.2773721278
 20
151.9386789065
 30
0.0
 10
19.8409701199
 20
152.1463883463
 30
0.0
 10
19.1701037803
 20
152.308244996
 30
0.0
 10
18.5407302502
 20
152.2923713628
 30
0.0
 10
18.16177594
 20
152.1547892872
 30
0.0
 10
17.996852587
 20
152.0595713075
 30
0.0
  0
SPLINE
  5
293
100
AcDbEntity
  8
0
100
AcDbSpline
 62
7
  6
CONTINUOUS
 70
0
 71
3
 72
11
 73
7
 74
0
 42
0.0000001
 43
0.0000001
 44
0.0000000001
 40
0.0
 40
0.0
 40
0.0
 40
0.0
 40
0.2897016594
 40
0.5490895814
 40
0.7822189142
 40
1.0
 40
1.0
 40
1.0
 40
1.0
 10
100.0820225832
 20
72.8369620481
 30
0.0
 10
100.0820225832
 20
73.0421673102
 30
0.0
 10
100.1131345006
 20
73.4324262307
 30
0.0
 10
100.2711764135
 20
73.9686254895
 30
0.0
 10
100.5372858945
 20
74.4037204879
 30
0.0
 10
100.7872441594
 20
74.6138426401
 30
0.0
 10
100.9208329446
 20
74.6909831606
 30
0.0
  0
SPLINE
  5
294
100
AcDbEntity
  8
0
100
AcDbSpline
 62
7
  6
CONTINUOUS
 70
0
 71
3
 72
15
 73
11
 74
0
 42
0.0000001
 43
0.0000001
 44
0.0000000001
 40
0.0
 40
0.0
 40
0.0
 40
0.0
 40
0.1141474765
 40
0.2373368178
 40
0.3669776594
 40
0.5000010819
 40
0.633024354
 40
0.7626647561
 40
0.8858534048
 40
1.0
 40
1.0
 40
1.0
 40
1.0
 10
120.1992942636
 20
90.1675232693
 30
0.0
 10
120.1992942636
 20
90.4469833559
 30
0.0
 10
120.1480703043
 20
91.0285782329
 30
0.0
 10
119.9440508479
 20
91.9059644662
 30
0.0
 10
119.6170687532
 20
92.7946667936
 30
0.0
 10
119.1795894697
 20
93.6612910463
 30
0.0
 10
118.6478072275
 20
94.4734679287
 30
0.0
 10
118.041657656
 20
95.2009883149
 30
0.0
 10
117.3838282851
 20
95.8163599445
 30
0.0
 10
116.9057646725
 20
96.1515125338
 30
0.0
 10
116.6637456379
 20
96.2912391275
 30
0.0
  0
SPLINE
  5
295
100
AcDbEntity
  8
0
100
AcDbSpline
 62
7
  6
CONTINUOUS
 70
0
 71
3
 72
17
 73
13
 74
0
 42
0.0000001
 43
0.0000001
 44
0.0000000001
 40
0.0
 40
0.0
 40
0.0
 40
0.0
 40
0.0428592926
 40
0.087485474
 40
0.1353198781
 40
0.1872819044
 40
0.3045421965
 40
0.4382074305
 40
0.582548911
 40
0.7297129633
 40
0.8713059682
 40
1.0
 40
1.0
 40
1.0
 40
1.0
 10
86.4445261966
 20
78.3720985925
 30
0.0
 10
86.3446848083
 20
78.3144454246
 30
0.0
 10
86.1245666087
 20
78.2230445686
 30
0.0
 10
85.7612810686
 20
78.1697213081
 30
0.0
 10
85.3711236183
 20
78.1984671686
 30
0.0
 10
84.8042340079
 20
78.349241134
 30
0.0
 10
84.0795535896
 20
78.7455007908
 30
0.0
 10
83.2788968744
 20
79.4545652404
 30
0.0
 10
82.5711186069
 20
80.3604547173
 30
0.0
 10
82.0141058285
 20
81.3900084594
 30
0.0
 10
81.6525877302
 20
82.4587759306
 30
0.0
 10
81.5557477844
 20
83.1866820732
 30
0.0
 10
81.5557477844
 20
83.5328698165
 30
0.0
  0
SPLINE
  5
296
100
AcDbEntity
  8
0
100
AcDbSpline
 62
7
  6
CONTINUOUS
 70
0
 71
3
 72
11
 73
7
 74
0
 42
0.0000001
 43
0.0000001
 44
0.0000000001
 40
0.0
 40
0.0
 40
0.0
 40
0.0
 40
0.2897016594
 40
0.5490895814
 40
0.7822189142
 40
1.0
 40
1.0
 40
1.0
 40
1.0
 10
31.3509572989
 20
131.2158687398
 30
0.0
 10
31.3509572989
 20
131.4210740018
 30
0.0
 10
31.3820692163
 20
131.8113329224
 30
0.0
 10
31.5401111292
 20
132.3475321811
 30
0.0
 10
31.8062206102
 20
132.7826271796
 30
0.0
 10
32.0561788751
 20
132.9927493317
 30
0.0
 10
32.1897676603
 20
133.0698898522
 30
0.0
  0
SPLINE
  5
297
100
AcDbEntity
  8
0
100
AcDbSpline
 62
7
  6
CONTINUOUS
 70
0
 71
3
 72
17
 73
13
 74
0
 42
0.0000001
 43
0.0000001
 44
0.0000000001
 40
0.0
 40
0.0
 40
0.0
 40
0.0
 40
0.0428592926
 40
0.087485474
 40
0.1353198781
 40
0.1872819044
 40
0.3045421965
 40
0.4382074305
 40
0.582548911
 40
0.7297129633
 40
0.8713059682
 40
1.0
 40
1.0
 40
1.0
 40
1.0
 10
60.0693334486
 20
102.9484314122
 30
0.0
 10
59.9694920604
 20
102.8907782444
 30
0.0
 10
59.7493738607
 20
102.7993773884
 30
0.0
 10
59.3860883206
 20
102.7460541278
 30
0.0
 10
58.9959308704
 20
102.7747999883
 30
0.0
 10
58.4290412599
 20
102.9255739537
 30
0.0
 10
57.7043608417
 20
103.3218336105
 30
0.0
 10
56.9037041264
 20
104.0308980602
 30
0.0
 10
56.195925859
 20
104.936787537
 30
0.0
 10
55.6389130805
 20
105.9663412792
 30
0.0
 10
55.2773949822
 20
107.0351087503
 30
0.0
 10
55.1805550364
 20
107.763014893
 30
0.0
 10
55.1805550364
 20
108.1092026363
 30
0.0
  0
SPLINE
  5
298
100
AcDbEntity
  8
0
100
AcDbSpline
 62
7
  6
CONTINUOUS
 70
0
 71
3
 72
11
 73
7
 74
0
 42
0.0000001
 43
0.0000001
 44
0.0000000001
 40
0.0
 40
0.0
 40
0.0
 40
0.0
 40
0.2897016594
 40
0.5490895814
 40
0.7822189142
 40
1.0
 40
1.0
 40
1.0
 40
1.0
 10
40.8969385884
 20
125.7046185537
 30
0.0
 10
40.8969385884
 20
125.9098238158
 30
0.0
 10
40.9280505058
 20
126.3000827363
 30
0.0
 10
41.0860924187
 20
126.8362819951
 30
0.0
 10
41.3522018997
 20
127.2713769935
 30
0.0
 10
41.6021601646
 20
127.4814991457
 30
0.0
 10
41.7357489498
 20
127.5586396662
 30
0.0
  0
SPLINE
  5
299
100
AcDbEntity
  8
0
100
AcDbSpline
 62
7
  6
CONTINUOUS
 70
0
 71
3
 72
17
 73
13
 74
0
 42
0.0000001
 43
0.0000001
 44
0.0000000001
 40
0.0
 40
0.0
 40
0.0
 40
0.0
 40
0.0428592926
 40
0.087485474
 40
0.1353198781
 40
0.1872819044
 40
0.3045421965
 40
0.4382074305
 40
0.582548911
 40
0.7297129633
 40
0.8713059682
 40
1.0
 40
1.0
 40
1.0
 40
1.0
 10
40.9773708697
 20
113.9709317843
 30
0.0
 10
40.8775294814
 20
113.9132786164
 30
0.0
 10
40.6574112817
 20
113.8218777604
 30
0.0
 10
40.2941257417
 20
113.7685544999
 30
0.0
 10
39.9039682914
 20
113.7973003603
 30
0.0
 10
39.3370786809
 20
113.9480743258
 30
0.0
 10
38.6123982627
 20
114.3443339826
 30
0.0
 10
37.8117415475
 20
115.0533984322
 30
0.0
 10
37.10396328
 20
115.9592879091
 30
0.0
 10
36.5469505016
 20
116.9888416512
 30
0.0
 10
36.1854324032
 20
118.0576091224
 30
0.0
 10
36.0885924574
 20
118.785515265
 30
0.0
 10
36.0885924574
 20
119.1317030083
 30
0.0
  0
SPLINE
  5
29A
100
AcDbEntity
  8
0
100
AcDbSpline
 62
7
  6
CONTINUOUS
 70
0
 71
3
 72
17
 73
13
 74
0
 42
0.0000001
 43
0.0000001
 44
0.0000000001
 40
0.0
 40
0.0
 40
0.0
 40
0.0
 40
0.0428592926
 40
0.087485474
 40
0.1353198781
 40
0.1872819044
 40
0.3045421965
 40
0.4382074305
 40
0.582548911
 40
0.7297129633
 40
0.8713059682
 40
1.0
 40
1.0
 40
1.0
 40
1.0
 10
74.4236608691
 20
85.3121914193
 30
0.0
 10
74.3238194808
 20
85.2545382515
 30
0.0
 10
74.1037012812
 20
85.1631373955
 30
0.0
 10
73.7404157411
 20
85.1098141349
 30
0.0
 10
73.3502582908
 20
85.1385599954
 30
0.0
 10
72.7833686804
 20
85.2893339608
 30
0.0
 10
72.0586882621
 20
85.6855936176
 30
0.0
 10
71.2580315469
 20
86.3946580673
 30
0.0
 10
70.5502532794
 20
87.3005475441
 30
0.0
 10
69.993240501
 20
88.3301012863
 30
0.0
 10
69.6317224027
 20
89.3988687574
 30
0.0
 10
69.5348824569
 20
90.1267749001
 30
0.0
 10
69.5348824569
 20
90.4729626434
 30
0.0
  0
SPLINE
  5
29B
100
AcDbEntity
  8
0
100
AcDbSpline
 62
7
  6
CONTINUOUS
 70
0
 71
3
 72
17
 73
13
 74
0
 42
0.0000001
 43
0.0000001
 44
0.0000000001
 40
0.0
 40
0.0
 40
0.0
 40
0.0
 40
0.0428577772
 40
0.0874861529
 40
0.1353174479
 40
0.1872826063
 40
0.3045432665
 40
0.4382104366
 40
0.5825529587
 40
0.7297133251
 40
0.871303479
 40
1.0
 40
1.0
 40
1.0
 40
1.0
 10
24.8681293672
 20
109.947552663
 30
0.0
 10
24.7571825563
 20
109.8835225271
 30
0.0
 10
24.5126601889
 20
109.7818254093
 30
0.0
 10
24.1089790336
 20
109.7227594082
 30
0.0
 10
23.6754645974
 20
109.7545380684
 30
0.0
 10
23.0455995208
 20
109.9221867527
 30
0.0
 10
22.240354673
 20
110.3623782921
 30
0.0
 10
21.3507333589
 20
111.1502758392
 30
0.0
 10
20.5643391069
 20
112.1568339644
 30
0.0
 10
19.945453919
 20
113.3007783847
 30
0.0
 10
19.5437621846
 20
114.4882860887
 30
0.0
 10
19.4361584302
 20
115.2970724227
 30
0.0
 10
19.4361584302
 20
115.6817341032
 30
0.0
  0
SPLINE
  5
29C
100
AcDbEntity
  8
0
100
AcDbSpline
 62
7
  6
CONTINUOUS
 70
0
 71
3
 72
11
 73
7
 74
0
 42
0.0000001
 43
0.0000001
 44
0.0000000001
 40
0.0
 40
0.0
 40
0.0
 40
0.0
 40
0.2897016594
 40
0.5490895814
 40
0.7822189142
 40
1.0
 40
1.0
 40
1.0
 40
1.0
 10
50.4429198779
 20
120.1933683677
 30
0.0
 10
50.4429198779
 20
120.3985736298
 30
0.0
 10
50.4740317952
 20
120.7888325503
 30
0.0
 10
50.6320737082
 20
121.3250318091
 30
0.0
 10
50.8981831892
 20
121.7601268075
 30
0.0
 10
51.1481414541
 20
121.9702489597
 30
0.0
 10
51.2817302393
 20
122.0473894802
 30
0.0
  0
SPLINE
  5
29D
100
AcDbEntity
  8
0
100
AcDbSpline
 62
7
  6
CONTINUOUS
 70
0
 71
3
 72
17
 73
13
 74
0
 42
0.0000001
 43
0.0000001
 44
0.0000000001
 40
0.0
 40
0.0
 40
0.0
 40
0.0
 40
0.0428592926
 40
0.087485474
 40
0.1353198781
 40
0.1872819044
 40
0.3045421965
 40
0.4382074305
 40
0.582548911
 40
0.7297129633
 40
0.8713059682
 40
1.0
 40
1.0
 40
1.0
 40
1.0
 10
86.4445261966
 20
97.0700039447
 30
0.0
 10
86.3446848083
 20
97.0123507769
 30
0.0
 10
86.1245666087
 20
96.9209499209
 30
0.0
 10
85.7612810686
 20
96.8676266604
 30
0.0
 10
85.3711236183
 20
96.8963725208
 30
0.0
 10
84.8042340079
 20
97.0471464862
 30
0.0
 10
84.0795535896
 20
97.4434061431
 30
0.0
 10
83.2788968744
 20
98.1524705927
 30
0.0
 10
82.5711186069
 20
99.0583600695
 30
0.0
 10
82.0141058285
 20
100.0879138117
 30
0.0
 10
81.6525877302
 20
101.1566812829
 30
0.0
 10
81.5557477844
 20
101.8845874255
 30
0.0
 10
81.5557477844
 20
102.2307751688
 30
0.0
  0
SPLINE
  5
29E
100
AcDbEntity
  8
0
100
AcDbSpline
 62
7
  6
CONTINUOUS
 70
0
 71
3
 72
11
 73
7
 74
0
 42
0.0000001
 43
0.0000001
 44
0.0000000001
 40
0.0
 40
0.0
 40
0.0
 40
0.0
 40
0.2897016594
 40
0.5490895814
 40
0.7822189142
 40
1.0
 40
1.0
 40
1.0
 40
1.0
 10
59.9889011674
 20
114.6821181817
 30
0.0
 10
59.9889011674
 20
114.8873234438
 30
0.0
 10
60.0200130847
 20
115.2775823643
 30
0.0
 10
60.1780549976
 20
115.813781623
 30
0.0
 10
60.4441644787
 20
116.2488766215
 30
0.0
 10
60.6941227435
 20
116.4589987737
 30
0.0
 10
60.8277115288
 20
116.5361392942
 30
0.0
  0
SPLINE
  5
29F
100
AcDbEntity
  8
0
100
AcDbSpline
 62
7
  6
CONTINUOUS
 70
0
 71
3
 72
17
 73
13
 74
0
 42
0.0000001
 43
0.0000001
 44
0.0000000001
 40
0.0
 40
0.0
 40
0.0
 40
0.0
 40
0.0428592926
 40
0.087485474
 40
0.1353198781
 40
0.1872819044
 40
0.3045421965
 40
0.4382074305
 40
0.582548911
 40
0.7297129633
 40
0.8713059682
 40
1.0
 40
1.0
 40
1.0
 40
1.0
 10
64.8776795796
 20
90.8234416053
 30
0.0
 10
64.7778381914
 20
90.7657884375
 30
0.0
 10
64.5577199917
 20
90.6743875815
 30
0.0
 10
64.1944344516
 20
90.621064321
 30
0.0
 10
63.8042770014
 20
90.6498101814
 30
0.0
 10
63.2373873909
 20
90.8005841468
 30
0.0
 10
62.5127069727
 20
91.1968438037
 30
0.0
 10
61.7120502574
 20
91.9059082533
 30
0.0
 10
61.00427199
 20
92.8117977301
 30
0.0
 10
60.4472592115
 20
93.8413514723
 30
0.0
 10
60.0857411132
 20
94.9101189435
 30
0.0
 10
59.9889011674
 20
95.6380250861
 30
0.0
 10
59.9889011674
 20
95.9842128294
 30
0.0
  0
SPLINE
  5
2A0
100
AcDbEntity
  8
0
100
AcDbSpline
 62
7
  6
CONTINUOUS
 70
0
 71
3
 72
11
 73
7
 74
0
 42
0.0000001
 43
0.0000001
 44
0.0000000001
 40
0.0
 40
0.0
 40
0.0
 40
0.0
 40
0.2897016594
 40
0.5490895814
 40
0.7822189142
 40
1.0
 40
1.0
 40
1.0
 40
1.0
 10
69.5348824569
 20
109.1708679957
 30
0.0
 10
69.5348824569
 20
109.3760732577
 30
0.0
 10
69.5659943742
 20
109.7663321783
 30
0.0
 10
69.7240362871
 20
110.302531437
 30
0.0
 10
69.9901457682
 20
110.7376264355
 30
0.0
 10
70.240104033
 20
110.9477485876
 30
0.0
 10
70.3736928183
 20
111.0248891081
 30
0.0
  0
SPLINE
  5
2A1
100
AcDbEntity
  8
0
100
AcDbSpline
 62
7
  6
CONTINUOUS
 70
0
 71
3
 72
11
 73
7
 74
0
 42
0.0000001
 43
0.0000001
 44
0.0000000001
 40
0.0
 40
0.0
 40
0.0
 40
0.0
 40
0.2897016594
 40
0.5490895814
 40
0.7822189142
 40
1.0
 40
1.0
 40
1.0
 40
1.0
 10
81.5557477844
 20
102.2307751688
 30
0.0
 10
81.5557477844
 20
102.4359804309
 30
0.0
 10
81.5868597017
 20
102.8262393514
 30
0.0
 10
81.7449016146
 20
103.3624386102
 30
0.0
 10
82.0110110957
 20
103.7975336086
 30
0.0
 10
82.2609693605
 20
104.0076557608
 30
0.0
 10
82.3945581458
 20
104.0847962813
 30
0.0
  0
SPLINE
  5
2A2
100
AcDbEntity
  8
0
100
AcDbSpline
 62
7
  6
CONTINUOUS
 70
0
 71
3
 72
17
 73
13
 74
0
 42
0.0000001
 43
0.0000001
 44
0.0000000001
 40
0.0
 40
0.0
 40
0.0
 40
0.0
 40
0.0428592926
 40
0.087485474
 40
0.1353198781
 40
0.1872819044
 40
0.3045421965
 40
0.4382074305
 40
0.582548911
 40
0.7297129633
 40
0.8713059682
 40
1.0
 40
1.0
 40
1.0
 40
1.0
 10
55.3316982902
 20
96.3346917914
 30
0.0
 10
55.2318569019
 20
96.2770386235
 30
0.0
 10
55.0117387022
 20
96.1856377675
 30
0.0
 10
54.6484531621
 20
96.132314507
 30
0.0
 10
54.2582957119
 20
96.1610603675
 30
0.0
 10
53.6914061014
 20
96.3118343329
 30
0.0
 10
52.9667256832
 20
96.7080939897
 30
0.0
 10
52.1660689679
 20
97.4171584393
 30
0.0
 10
51.4582907005
 20
98.3230479162
 30
0.0
 10
50.9012779221
 20
99.3526016583
 30
0.0
 10
50.5397598237
 20
100.4213691295
 30
0.0
 10
50.4429198779
 20
101.1492752721
 30
0.0
 10
50.4429198779
 20
101.4954630154
 30
0.0
  0
SPLINE
  5
2A3
100
AcDbEntity
  8
0
100
AcDbSpline
 62
7
  6
CONTINUOUS
 70
0
 71
3
 72
17
 73
13
 74
0
 42
0.0000001
 43
0.0000001
 44
0.0000000001
 40
0.0
 40
0.0
 40
0.0
 40
0.0
 40
0.0428577772
 40
0.0874861529
 40
0.1353174479
 40
0.1872826063
 40
0.3045432665
 40
0.4382104366
 40
0.5825529587
 40
0.7297133251
 40
0.871303479
 40
1.0
 40
1.0
 40
1.0
 40
1.0
 10
116.7923936363
 20
83.0043319235
 30
0.0
 10
116.6814468254
 20
82.9403017876
 30
0.0
 10
116.436924458
 20
82.8386046698
 30
0.0
 10
116.0332433027
 20
82.7795386687
 30
0.0
 10
115.5997288665
 20
82.8113173289
 30
0.0
 10
114.9698637899
 20
82.9789660132
 30
0.0
 10
114.1646189421
 20
83.4191575526
 30
0.0
 10
113.274997628
 20
84.2070550997
 30
0.0
 10
112.488603376
 20
85.2136132249
 30
0.0
 10
111.8697181881
 20
86.3575576452
 30
0.0
 10
111.4680264537
 20
87.5450653492
 30
0.0
 10
111.3604226993
 20
88.3538516832
 30
0.0
 10
111.3604226993
 20
88.7385133637
 30
0.0
  0
SPLINE
  5
2A4
100
AcDbEntity
  8
0
100
AcDbSpline
 62
7
  6
CONTINUOUS
 70
0
 71
3
 72
17
 73
13
 74
0
 42
0.0000001
 43
0.0000001
 44
0.0000000001
 40
0.0
 40
0.0
 40
0.0
 40
0.0
 40
0.0428592926
 40
0.087485474
 40
0.1353198781
 40
0.1872819044
 40
0.3045421965
 40
0.4382074305
 40
0.582548911
 40
0.7297129633
 40
0.8713059682
 40
1.0
 40
1.0
 40
1.0
 40
1.0
 10
50.5233521592
 20
108.4596815982
 30
0.0
 10
50.4235107709
 20
108.4020284304
 30
0.0
 10
50.2033925712
 20
108.3106275744
 30
0.0
 10
49.8401070311
 20
108.2573043139
 30
0.0
 10
49.4499495809
 20
108.2860501743
 30
0.0
 10
48.8830599704
 20
108.4368241397
 30
0.0
 10
48.1583795522
 20
108.8330837966
 30
0.0
 10
47.3577228369
 20
109.5421482462
 30
0.0
 10
46.6499445695
 20
110.448037723
 30
0.0
 10
46.0929317911
 20
111.4775914652
 30
0.0
 10
45.7314136927
 20
112.5463589363
 30
0.0
 10
45.6345737469
 20
113.274265079
 30
0.0
 10
45.6345737469
 20
113.6204528223
 30
0.0
  0
SPLINE
  5
2A5
100
AcDbEntity
  8
0
100
AcDbSpline
 62
7
  6
CONTINUOUS
 70
0
 71
3
 72
11
 73
7
 74
0
 42
0.0000001
 43
0.0000001
 44
0.0000000001
 40
0.0
 40
0.0
 40
0.0
 40
0.0
 40
0.2897016594
 40
0.5490895814
 40
0.7822189142
 40
1.0
 40
1.0
 40
1.0
 40
1.0
 10
90.8188851838
 20
96.8828212846
 30
0.0
 10
90.8188851838
 20
97.0880265467
 30
0.0
 10
90.8499971011
 20
97.4782854672
 30
0.0
 10
91.0080390141
 20
98.014484726
 30
0.0
 10
91.2741484951
 20
98.4495797244
 30
0.0
 10
91.52410676
 20
98.6597018766
 30
0.0
 10
91.6576955452
 20
98.7368423971
 30
0.0
  0
SPLINE
  5
2A6
100
AcDbEntity
  8
0
100
AcDbSpline
 62
7
  6
CONTINUOUS
 70
0
 71
3
 72
17
 73
13
 74
0
 42
0.0000001
 43
0.0000001
 44
0.0000000001
 40
0.0
 40
0.0
 40
0.0
 40
0.0
 40
0.0428592926
 40
0.087485474
 40
0.1353198781
 40
0.1872819044
 40
0.3045421965
 40
0.4382074305
 40
0.582548911
 40
0.7297129633
 40
0.8713059682
 40
1.0
 40
1.0
 40
1.0
 40
1.0
 10
45.7857170007
 20
101.8459419774
 30
0.0
 10
45.6858756124
 20
101.7882888095
 30
0.0
 10
45.4657574127
 20
101.6968879535
 30
0.0
 10
45.1024718726
 20
101.643564693
 30
0.0
 10
44.7123144224
 20
101.6723105535
 30
0.0
 10
44.1454248119
 20
101.8230845189
 30
0.0
 10
43.4207443937
 20
102.2193441757
 30
0.0
 10
42.6200876785
 20
102.9284086254
 30
0.0
 10
41.912309411
 20
103.8342981022
 30
0.0
 10
41.3552966326
 20
104.8638518443
 30
0.0
 10
40.9937785342
 20
105.9326193155
 30
0.0
 10
40.8969385884
 20
106.6605254582
 30
0.0
 10
40.8969385884
 20
107.0067132015
 30
0.0
  0
SPLINE
  5
2A7
100
AcDbEntity
  8
0
100
AcDbSpline
 62
7
  6
CONTINUOUS
 70
0
 71
3
 72
11
 73
7
 74
0
 42
0.0000001
 43
0.0000001
 44
0.0000000001
 40
0.0
 40
0.0
 40
0.0
 40
0.0
 40
0.2897016594
 40
0.5490895814
 40
0.7822189142
 40
1.0
 40
1.0
 40
1.0
 40
1.0
 10
100.0820225832
 20
91.5348674004
 30
0.0
 10
100.0820225832
 20
91.7400726625
 30
0.0
 10
100.1131345006
 20
92.130331583
 30
0.0
 10
100.2711764135
 20
92.6665308417
 30
0.0
 10
100.5372858945
 20
93.1016258402
 30
0.0
 10
100.7872441594
 20
93.3117479924
 30
0.0
 10
100.9208329446
 20
93.3888885129
 30
0.0
  0
SPLINE
  5
2A8
100
AcDbEntity
  8
0
100
AcDbSpline
 62
7
  6
CONTINUOUS
 70
0
 71
3
 72
11
 73
7
 74
0
 42
0.0000001
 43
0.0000001
 44
0.0000000001
 40
0.0
 40
0.0
 40
0.0
 40
0.0
 40
0.2897016594
 40
0.5490895814
 40
0.7822189142
 40
1.0
 40
1.0
 40
1.0
 40
1.0
 10
36.0885924574
 20
119.1317030083
 30
0.0
 10
36.0885924574
 20
119.3369082704
 30
0.0
 10
36.1197043748
 20
119.7271671909
 30
0.0
 10
36.2777462877
 20
120.2633664497
 30
0.0
 10
36.5438557687
 20
120.6984614481
 30
0.0
 10
36.7938140336
 20
120.9085836003
 30
0.0
 10
36.9274028188
 20
120.9857241208
 30
0.0
  0
SPLINE
  5
2A9
100
AcDbEntity
  8
0
100
AcDbSpline
 62
7
  6
CONTINUOUS
 70
0
 71
3
 72
17
 73
13
 74
0
 42
0.0000001
 43
0.0000001
 44
0.0000000001
 40
0.0
 40
0.0
 40
0.0
 40
0.0
 40
0.0428592926
 40
0.087485474
 40
0.1353198781
 40
0.1872819044
 40
0.3045421965
 40
0.4382074305
 40
0.582548911
 40
0.7297129633
 40
0.8713059682
 40
1.0
 40
1.0
 40
1.0
 40
1.0
 10
91.1114503826
 20
85.0266622888
 30
0.0
 10
91.0116089943
 20
84.9690091209
 30
0.0
 10
90.7914907947
 20
84.8776082649
 30
0.0
 10
90.4282052546
 20
84.8242850044
 30
0.0
 10
90.0380478043
 20
84.8530308649
 30
0.0
 10
89.4711581939
 20
85.0038048303
 30
0.0
 10
88.7464777756
 20
85.4000644871
 30
0.0
 10
87.9458210604
 20
86.1091289367
 30
0.0
 10
87.2380427929
 20
87.0150184136
 30
0.0
 10
86.6810300145
 20
88.0445721557
 30
0.0
 10
86.3195119161
 20
89.1133396269
 30
0.0
 10
86.2226719703
 20
89.8412457695
 30
0.0
 10
86.2226719703
 20
90.1874335128
 30
0.0
  0
SPLINE
  5
2AA
100
AcDbEntity
  8
0
100
AcDbSpline
 62
7
  6
CONTINUOUS
 70
0
 71
3
 72
17
 73
13
 74
0
 42
0.0000001
 43
0.0000001
 44
0.0000000001
 40
0.0
 40
0.0
 40
0.0
 40
0.0
 40
0.0428592926
 40
0.087485474
 40
0.1353198781
 40
0.1872819044
 40
0.3045421965
 40
0.4382074305
 40
0.582548911
 40
0.7297129633
 40
0.8713059682
 40
1.0
 40
1.0
 40
1.0
 40
1.0
 10
36.2397357112
 20
107.3571921634
 30
0.0
 10
36.1398943229
 20
107.2995389956
 30
0.0
 10
35.9197761233
 20
107.2081381396
 30
0.0
 10
35.5564905832
 20
107.154814879
 30
0.0
 10
35.1663331329
 20
107.1835607395
 30
0.0
 10
34.5994435225
 20
107.3343347049
 30
0.0
 10
33.8747631042
 20
107.7305943617
 30
0.0
 10
33.074106389
 20
108.4396588114
 30
0.0
 10
32.3663281215
 20
109.3455482882
 30
0.0
 10
31.8093153431
 20
110.3751020304
 30
0.0
 10
31.4477972447
 20
111.4438695015
 30
0.0
 10
31.3509572989
 20
112.1717756442
 30
0.0
 10
31.3509572989
 20
112.5179633875
 30
0.0
  0
SPLINE
  5
2AB
100
AcDbEntity
  8
0
100
AcDbSpline
 62
7
  6
CONTINUOUS
 70
0
 71
3
 72
17
 73
13
 74
0
 42
0.0000001
 43
0.0000001
 44
0.0000000001
 40
0.0
 40
0.0
 40
0.0
 40
0.0
 40
0.0428577772
 40
0.0874861529
 40
0.1353174479
 40
0.1872826063
 40
0.3045432665
 40
0.4382104366
 40
0.5825529587
 40
0.7297133251
 40
0.871303479
 40
1.0
 40
1.0
 40
1.0
 40
1.0
 10
116.7923936363
 20
56.8762545753
 30
0.0
 10
116.6814468254
 20
56.8122244394
 30
0.0
 10
116.436924458
 20
56.7105273216
 30
0.0
 10
116.0332433027
 20
56.6514613206
 30
0.0
 10
115.5997288665
 20
56.6832399807
 30
0.0
 10
114.9698637899
 20
56.850888665
 30
0.0
 10
114.1646189421
 20
57.2910802045
 30
0.0
 10
113.274997628
 20
58.0789777515
 30
0.0
 10
112.488603376
 20
59.0855358768
 30
0.0
 10
111.8697181881
 20
60.229480297
 30
0.0
 10
111.4680264537
 20
61.416988001
 30
0.0
 10
111.3604226993
 20
62.225774335
 30
0.0
 10
111.3604226993
 20
62.6104360156
 30
0.0
  0
SPLINE
  5
2AC
100
AcDbEntity
  8
0
100
AcDbSpline
 62
7
  6
CONTINUOUS
 70
0
 71
3
 72
11
 73
7
 74
0
 42
0.0000001
 43
0.0000001
 44
0.0000000001
 40
0.0
 40
0.0
 40
0.0
 40
0.0
 40
0.2897016594
 40
0.5490895814
 40
0.7822189142
 40
1.0
 40
1.0
 40
1.0
 40
1.0
 10
45.6345737469
 20
113.6204528223
 30
0.0
 10
45.6345737469
 20
113.8256580844
 30
0.0
 10
45.6656856642
 20
114.2159170049
 30
0.0
 10
45.8237275772
 20
114.7521162637
 30
0.0
 10
46.0898370582
 20
115.1872112621
 30
0.0
 10
46.3397953231
 20
115.3973334143
 30
0.0
 10
46.4733841083
 20
115.4744739348
 30
0.0
  0
SPLINE
  5
2AD
100
AcDbEntity
  8
0
100
AcDbSpline
 62
7
  6
CONTINUOUS
 70
0
 71
3
 72
11
 73
7
 74
0
 42
0.0000001
 43
0.0000001
 44
0.0000000001
 40
0.0
 40
0.0
 40
0.0
 40
0.0
 40
0.2897016594
 40
0.5490895814
 40
0.7822189142
 40
1.0
 40
1.0
 40
1.0
 40
1.0
 10
55.1805550364
 20
108.1092026363
 30
0.0
 10
55.1805550364
 20
108.3144078984
 30
0.0
 10
55.2116669537
 20
108.7046668189
 30
0.0
 10
55.3697088666
 20
109.2408660777
 30
0.0
 10
55.6358183477
 20
109.6759610761
 30
0.0
 10
55.8857766125
 20
109.8860832283
 30
0.0
 10
56.0193653978
 20
109.9632237488
 30
0.0
  0
ENDSEC
  0
SECTION
  2
OBJECTS
  0
DICTIONARY
  5
C
100
AcDbDictionary
280
0
281
1
  3
ACAD_GROUP
350
D
  3
ACAD_MLINESTYLE
350
17
  3
ACAD_LAYOUT
350
1A
  3
ACAD_PLOTSETTINGS
350
19
  3
ACAD_PLOTSTYLENAME
350
E
  0
DICTIONARY
  5
D
102
{ACAD_REACTORS
330
C
102
}
100
AcDbDictionary
280
0
281
1
  0
ACDBDICTIONARYWDFLT
  5
E
102
{ACAD_REACTORS
330
C
102
}
100
AcDbDictionary
281
1
  3
Normal
350
F
100
AcDbDictionaryWithDefault
340
F
  0
DICTIONARY
  5
17
102
{ACAD_REACTORS
330
C
102
}
100
AcDbDictionary
280
0
281
1
  3
Standard
350
18
  0
DICTIONARY
  5
19
102
{ACAD_REACTORS
330
C
102
}
100
AcDbDictionary
281
1
  0
DICTIONARY
  5
1A
102
{ACAD_REACTORS
330
C
102
}
100
AcDbDictionary
281
1
  3
Model
350
2AE
  3
Layout1
350
2AF
  0
ACDBPLACEHOLDER
  5
F
102
{ACAD_REACTORS
330
E
102
}
  0
MLINESTYLE
  5
18
102
{ACAD_REACTORS
330
17
102
}
100
AcDbMlineStyle
  2
STANDARD
 70
0
  3

 62
256
 51
90.0
 52
90.0
 71
2
 49
0.5
 62
256
  6
BYLAYER
 49
-0.5
 62
256
  6
BYLAYER
  0
LAYOUT
  5
2AE
102
{ACAD_REACTORS
330
1A
102
}
100
AcDbPlotSettings
  1

  2
none_device
  4

  6

 40
0.0
 41
0.0
 42
0.0
 43
0.0
 44
210.0
 45
297.0
 46
0.0
 47
0.0
 48
0.0
 49
0.0
140
0.0
141
0.0
142
1.0
143
1.0
 70
1024
 72
1
 73
0
 74
0
  7

 75
0
147
1.0
148
0.0
149
0.0
100
AcDbLayout
  1
Model
 70
0
 71
0
 10
0.0
 20
0.0
 11
210.0
 21
297.0
 12
0.0
 22
0.0
 32
0.0
 14
0.0
 24
0.0
 34
0.0
 15
0.0
 25
0.0
 35
0.0
146
0.0
 13
0.0
 23
0.0
 33
0.0
 16
1.0
 26
0.0
 36
0.0
 17
0.0
 27
1.0
 37
0.0
 76
0
330
210
345
0
346
0
  0
LAYOUT
  5
2AF
102
{ACAD_REACTORS
330
1A
102
}
100
AcDbPlotSettings
  1

  2
none_device
  4

  6

 40
0.0
 41
0.0
 42
0.0
 43
0.0
 44
210.0
 45
297.0
 46
0.0
 47
0.0
 48
0.0
 49
0.0
140
0.0
141
0.0
142
1.0
143
1.0
 70
0
 72
1
 73
0
 74
0
  7

 75
0
147
1.0
148
0.0
149
0.0
100
AcDbLayout
  1
Layout1
 70
0
 71
1
 10
0.0
 20
0.0
 11
210.0
 21
297.0
 12
0.0
 22
0.0
 32
0.0
 14
0.0
 24
0.0
 34
0.0
 15
0.0
 25
0.0
 35
0.0
146
0.0
 13
0.0
 23
0.0
 33
0.0
 16
1.0
 26
0.0
 36
0.0
 17
0.0
 27
1.0
 37
0.0
 76
0
330
211
345
0
346
0
  0
ENDSEC
  0
EOF
