999
DXF file: C:\Users\sesa63760\Dev\_Creo\CAD\MCADPP0003178_3D-CAD\drw0001_6.dxf
999
Pro/ENGINEER 2019471 by Parametric Technology Corporation
  0
SECTION
  2
HEADER
  9
$ACADVER
  1
AC1024
  9
$DWGCODEPAGE
  3
ANSI_1252
  9
$EXTMAX
 10
274.9339442124
 20
388.8351496718
 30
0.0
  9
$EXTMIN
 10
0.0
 20
0.0
 30
0.0
  9
$LIMMIN
 10
0.0
 20
0.0
  9
$LIMMAX
 10
274.9339442124
 20
388.8351496718
  9
$VIEWCTR
 10
137.4669721062
 20
194.4175748359
  9
$VIEWSIZE
 40
388.8351496718
  9
$CLAYER
  8
0
  9
$LTSCALE
 40
25.3462912379
  9
$CELTYPE
  6
BYLAYER
  9
$DIMSCALE
 40
1.0
  9
$DIMASZ
 40
3.2730231454
  9
$DIMEXO
 40
1.0
  9
$DIMDLI
 40
17.5119830371
  9
$DIMEXE
 40
1.0
  9
$DIMCEN
 40
4.1475749298
  9
$DIMLFAC
 40
1.0
  9
$DIMBLK
  1
_FILLED
  9
$DIMALT
 70
0
  9
$DIMALTF
 40
0.0393700787
  9
$DIMTXT
 40
4.5822324035
  9
$DIMTOL
 70
1
  9
$DIMLIM
 70
0
  9
$DIMTFAC
 40
1.0
  9
$DIMTP
 40
0.01
  9
$DIMTM
 40
0.01
  9
$DIMGAP
 40
0.625
  9
$DIMDSEP
 70
46
  9
$AUNITS
 70
0
  9
$PDMODE
 70
3
  9
$PDSIZE
 40
0.3125
  9
$HANDSEED
  5
4C4
  9
$TILEMODE
 70
1
  9
$MEASUREMENT
 70
1
  9
$INSUNITS
 70
4
  0
ENDSEC
  0
SECTION
  2
CLASSES
  0
CLASS
  1
ACDBDICTIONARYWDFLT
  2
AcDbDictionaryWithDefault
  3
AutoCAD 2000
 90
0
 91
1
280
0
281
0
  0
CLASS
  1
ACDBPLACEHOLDER
  2
AcDbPlaceHolder
  3
AutoCAD 2000
 90
0
 91
1
280
0
281
0
  0
CLASS
  1
LAYOUT
  2
AcDbLayout
  3
AutoCAD 2000
 90
0
 91
0
280
0
281
0
  0
ENDSEC
  0
SECTION
  2
TABLES
  0
TABLE
  2
VPORT
  5
8
100
AcDbSymbolTable
 70
2
  0
VPORT
  5
1F4
100
AcDbSymbolTableRecord
100
AcDbViewportTableRecord
  2
*ACTIVE
 70
0
 10
0.0
 20
0.0
 11
1.0
 21
1.0
 12
137.4669721062
 22
194.4175748359
 13
0.0
 23
0.0
 14
1.0
 24
1.0
 15
0.0
 25
0.0
 16
0.0
 26
0.0
 36
1.0
 17
0.0
 27
0.0
 37
0.0
 40
388.8351496718
 41
0.7070707071
 42
50.0
 43
0.0
 44
0.0
 50
0.0
 51
0.0
 71
0
 72
100
 73
1
 74
1
 75
0
 76
0
 77
0
 78
0
  0
ENDTAB
  0
TABLE
  2
LTYPE
  5
5
100
AcDbSymbolTable
 70
6
  0
LTYPE
  5
14
100
AcDbSymbolTableRecord
100
AcDbLinetypeTableRecord
  2
BYBLOCK
 70
0
  3

 72
65
 73
0
 40
0.0
  0
LTYPE
  5
15
100
AcDbSymbolTableRecord
100
AcDbLinetypeTableRecord
  2
BYLAYER
 70
0
  3

 72
65
 73
0
 40
0.0
  0
LTYPE
  5
16
100
AcDbSymbolTableRecord
100
AcDbLinetypeTableRecord
  2
CONTINUOUS
 70
64
  3
Solid line
 72
65
 73
0
 40
0.0
  0
LTYPE
  5
1F5
100
AcDbSymbolTableRecord
100
AcDbLinetypeTableRecord
  2
CENTER
 70
64
  3
____ _ ____ _ ____ _ ____ _ ____ _ ____ _ ____
 72
65
 73
4
 40
0.6
 49
0.375
 74
0
 49
-0.075
 74
0
 49
0.075
 74
0
 49
-0.075
 74
0
  0
LTYPE
  5
1F6
100
AcDbSymbolTableRecord
100
AcDbLinetypeTableRecord
  2
HIDDEN
 70
64
  3
- - - - - - - - - - - - - - - - - - - -
 72
65
 73
2
 40
0.2
 49
0.1
 74
0
 49
-0.1
 74
0
  0
LTYPE
  5
1F7
100
AcDbSymbolTableRecord
100
AcDbLinetypeTableRecord
  2
PHANTOM
 70
64
  3
_____ _ _ _____ _ _ _____ _ _ _____
 72
65
 73
6
 40
0.8
 49
0.45
 74
0
 49
-0.05
 74
0
 49
0.1
 74
0
 49
-0.05
 74
0
 49
0.1
 74
0
 49
-0.05
 74
0
  0
LTYPE
  5
1F8
100
AcDbSymbolTableRecord
100
AcDbLinetypeTableRecord
  2
DOT
 70
64
  3
. . . . . . . . . . . . . . . . . . . .
 72
65
 73
2
 40
0.2
 49
0.1
 74
0
 49
-0.1
 74
0
  0
LTYPE
  5
1F9
100
AcDbSymbolTableRecord
100
AcDbLinetypeTableRecord
  2
DASHED
 70
64
  3
- - - - - - - - - - - - - - - - - - - -
 72
65
 73
2
 40
0.2
 49
0.1
 74
0
 49
-0.1
 74
0
  0
ENDTAB
  0
TABLE
  2
LAYER
  5
2
100
AcDbSymbolTable
 70
36
  0
LAYER
  5
10
100
AcDbSymbolTableRecord
100
AcDbLayerTableRecord
  2
0
 70
0
 62
7
  6
CONTINUOUS
370
-3
390
F
  0
LAYER
  5
1FA
100
AcDbSymbolTableRecord
100
AcDbLayerTableRecord
  2
DEFAULT_1
 70
0
 62
7
  6
CENTER
370
-3
390
F
  0
LAYER
  5
1FB
100
AcDbSymbolTableRecord
100
AcDbLayerTableRecord
  2
DEFAULT_2
 70
0
 62
8
  6
HIDDEN
370
-3
390
F
  0
LAYER
  5
1FC
100
AcDbSymbolTableRecord
100
AcDbLayerTableRecord
  2
DEFAULT_3
 70
0
 62
7
  6
PHANTOM
370
-3
390
F
  0
LAYER
  5
1FD
100
AcDbSymbolTableRecord
100
AcDbLayerTableRecord
  2
00_COMPONENTS
 70
0
 62
7
  6
CONTINUOUS
370
-3
390
F
  0
LAYER
  5
1FE
100
AcDbSymbolTableRecord
100
AcDbLayerTableRecord
  2
01_1_DEFAULT_DATUMS
 70
0
 62
7
  6
CONTINUOUS
370
-3
390
F
  0
LAYER
  5
1FF
100
AcDbSymbolTableRecord
100
AcDbLayerTableRecord
  2
01_PLANES
 70
0
 62
7
  6
CONTINUOUS
370
-3
390
F
  0
LAYER
  5
200
100
AcDbSymbolTableRecord
100
AcDbLayerTableRecord
  2
02_COORD_SYS
 70
0
 62
7
  6
CONTINUOUS
370
-3
390
F
  0
LAYER
  5
201
100
AcDbSymbolTableRecord
100
AcDbLayerTableRecord
  2
03_AXES
 70
0
 62
7
  6
CONTINUOUS
370
-3
390
F
  0
LAYER
  5
202
100
AcDbSymbolTableRecord
100
AcDbLayerTableRecord
  2
04_POINTS
 70
0
 62
7
  6
CONTINUOUS
370
-3
390
F
  0
LAYER
  5
203
100
AcDbSymbolTableRecord
100
AcDbLayerTableRecord
  2
05_CURVES
 70
0
 62
7
  6
CONTINUOUS
370
-3
390
F
  0
LAYER
  5
204
100
AcDbSymbolTableRecord
100
AcDbLayerTableRecord
  2
06_SURFS
 70
0
 62
7
  6
CONTINUOUS
370
-3
390
F
  0
LAYER
  5
205
100
AcDbSymbolTableRecord
100
AcDbLayerTableRecord
  2
07_COSMETICS
 70
0
 62
7
  6
CONTINUOUS
370
-3
390
F
  0
LAYER
  5
206
100
AcDbSymbolTableRecord
100
AcDbLayerTableRecord
  2
10_NOTES
 70
0
 62
7
  6
CONTINUOUS
370
-3
390
F
  0
LAYER
  5
207
100
AcDbSymbolTableRecord
100
AcDbLayerTableRecord
  2
11_NOTES_PUB
 70
0
 62
7
  6
CONTINUOUS
370
-3
390
F
  0
LAYER
  5
208
100
AcDbSymbolTableRecord
100
AcDbLayerTableRecord
  2
13_REF_GTOL
 70
0
 62
7
  6
CONTINUOUS
370
-3
390
F
  0
LAYER
  5
209
100
AcDbSymbolTableRecord
100
AcDbLayerTableRecord
  2
16_MISC
 70
0
 62
7
  6
CONTINUOUS
370
-3
390
F
  0
LAYER
  5
20A
100
AcDbSymbolTableRecord
100
AcDbLayerTableRecord
  2
17_NO_PRINT
 70
0
 62
7
  6
CONTINUOUS
370
-3
390
F
  0
LAYER
  5
20B
100
AcDbSymbolTableRecord
100
AcDbLayerTableRecord
  2
18_DATUM_CAMS_JOINTS
 70
0
 62
7
  6
CONTINUOUS
370
-3
390
F
  0
LAYER
  5
20C
100
AcDbSymbolTableRecord
100
AcDbLayerTableRecord
  2
19_DATUM_FUNCTIONAL
 70
0
 62
7
  6
CONTINUOUS
370
-3
390
F
  0
LAYER
  5
20D
100
AcDbSymbolTableRecord
100
AcDbLayerTableRecord
  2
20_DATUM_KINEMATIC_SCHEME
 70
0
 62
7
  6
CONTINUOUS
370
-3
390
F
  0
ENDTAB
  0
TABLE
  2
STYLE
  5
3
100
AcDbSymbolTable
 70
1
  0
STYLE
  5
11
100
AcDbSymbolTableRecord
100
AcDbTextStyleTableRecord
  2
STANDARD
 70
0
 40
0.0
 41
0.8
 50
0.0
 71
0
 42
0.2
  3
txt
  4

  0
STYLE
  5
20E
100
AcDbSymbolTableRecord
100
AcDbTextStyleTableRecord
  2
TEXTSTYLE_1
 70
0
 40
0.0
 41
0.8
 50
0.0
 71
0
 42
0.2
  3
gdt
  4

  0
ENDTAB
  0
TABLE
  2
VIEW
  5
6
100
AcDbSymbolTable
 70
0
  0
ENDTAB
  0
TABLE
  2
UCS
  5
7
100
AcDbSymbolTable
 70
0
  0
ENDTAB
  0
TABLE
  2
APPID
  5
9
100
AcDbSymbolTable
 70
1
  0
APPID
  5
20F
100
AcDbSymbolTableRecord
100
AcDbRegAppTableRecord
  2
ACAD
 70
0
  0
ENDTAB
  0
TABLE
  2
BLOCK_RECORD
  5
1
100
AcDbSymbolTable
 70
0
  0
BLOCK_RECORD
  5
210
100
AcDbSymbolTableRecord
100
AcDbBlockTableRecord
  2
*Model_Space
  0
BLOCK_RECORD
  5
211
100
AcDbSymbolTableRecord
100
AcDbBlockTableRecord
  2
*Paper_Space
  0
BLOCK_RECORD
  5
212
100
AcDbSymbolTableRecord
100
AcDbBlockTableRecord
  2
_FILLED
  0
ENDTAB
  0
TABLE
  2
DIMSTYLE
  5
A
100
AcDbSymbolTable
 70
1
100
AcDbDimStyleTable
 71
0
  0
DIMSTYLE
105
213
100
AcDbSymbolTableRecord
100
AcDbDimStyleTableRecord
  2
STANDARD
 70
0
  3

  4

 40
1.0
 41
3.2730231454
 42
1.0
 43
0.38
 44
1.0
 45
0.0
 46
0.0
 47
0.01
 48
0.01
140
4.5822324035
141
0.09
142
0.0
143
25.4
144
1.0
145
0.0
146
1.0
147
0.625
 71
1
 72
0
 73
0
 74
0
 75
0
 76
0
 77
1
 78
8
 79
2
170
0
171
1
172
0
173
0
174
0
175
0
176
0
177
0
178
0
270
2
179
2
271
2
272
2
273
2
274
2
275
0
280
0
281
0
282
0
283
1
284
8
285
0
286
0
287
3
288
0
340
11
278
46
341
212
342
212
343
212
344
212
  0
ENDTAB
  0
ENDSEC
  0
SECTION
  2
BLOCKS
  0
BLOCK
  5
20
100
AcDbEntity
  8
0
100
AcDbBlockBegin
  2
*Model_Space
 70
0
 10
0.0
 20
0.0
 30
0.0
  3
*Model_Space
  1

  0
ENDBLK
  5
21
100
AcDbEntity
  8
0
100
AcDbBlockEnd
  0
BLOCK
  5
1C
100
AcDbEntity
  8
0
100
AcDbBlockBegin
  2
*Paper_Space
 70
0
 10
0.0
 20
0.0
 30
0.0
  3
*Paper_Space
  1

  0
ENDBLK
  5
1D
100
AcDbEntity
  8
0
100
AcDbBlockEnd
  0
BLOCK
  5
214
100
AcDbEntity
  8
0
100
AcDbBlockBegin
  2
_FILLED
 70
64
 10
0.0
 20
0.0
  3
_FILLED
  1

  0
SOLID
  5
215
100
AcDbEntity
  8
0
  6
BYBLOCK
 62
0
100
AcDbTrace
 10
0.0
 20
0.0
 11
-1.0
 21
0.25
 12
-1.0
 22
-0.25
 13
-1.0
 23
-0.25
  0
ENDBLK
  5
216
100
AcDbEntity
  8
0
  6
BYBLOCK
 62
0
100
AcDbBlockEnd
  0
ENDSEC
  0
SECTION
  2
ENTITIES
  0
LINE
  5
217
100
AcDbEntity
  8
0
100
AcDbLine
 62
7
  6
CONTINUOUS
 10
31.096524185
 20
146.2845423759
 11
31.096524185
 21
141.6618072958
  0
LINE
  5
218
100
AcDbEntity
  8
0
100
AcDbLine
 62
7
  6
CONTINUOUS
 10
32.976124185
 20
113.3091538825
 11
32.976124185
 21
205.5048424354
  0
LINE
  5
219
100
AcDbEntity
  8
0
100
AcDbLine
 62
7
  6
CONTINUOUS
 10
36.176524185
 20
113.309172576
 11
36.176524185
 21
205.5048424354
  0
LINE
  5
21A
100
AcDbEntity
  8
0
100
AcDbLine
 62
7
  6
CONTINUOUS
 10
39.478524185
 20
189.4391748359
 11
39.478524185
 21
99.4215748359
  0
LINE
  5
21B
100
AcDbEntity
  8
0
100
AcDbLine
 62
7
  6
CONTINUOUS
 10
40.977124185
 20
210.0159308307
 11
40.977124185
 21
196.98496337
  0
LINE
  5
21C
100
AcDbEntity
  8
0
100
AcDbLine
 62
7
  6
CONTINUOUS
 10
46.082524185
 20
92.8175748359
 11
149.155724185
 21
92.8175748359
  0
LINE
  5
21D
100
AcDbEntity
  8
0
100
AcDbLine
 62
7
  6
CONTINUOUS
 10
149.155724185
 20
95.4591748359
 11
46.082524185
 21
95.4591748359
  0
LINE
  5
21E
100
AcDbEntity
  8
0
100
AcDbLine
 62
7
  6
CONTINUOUS
 10
42.120124185
 20
99.4215748359
 11
42.120124185
 21
189.4391748359
  0
LINE
  5
21F
100
AcDbEntity
  8
0
100
AcDbLine
 62
7
  6
CONTINUOUS
 10
49.003524185
 20
92.8175748359
 11
49.003524185
 21
95.4591748359
  0
LINE
  5
220
100
AcDbEntity
  8
0
100
AcDbLine
 62
7
  6
CONTINUOUS
 10
55.353524185
 20
95.4591748359
 11
55.353524185
 21
92.8175748359
  0
LINE
  5
221
100
AcDbEntity
  8
0
100
AcDbLine
 62
7
  6
CONTINUOUS
 10
162.262124185
 20
113.309012113
 11
159.061724185
 21
113.309012113
  0
LINE
  5
222
100
AcDbEntity
  8
0
100
AcDbLine
 62
7
  6
CONTINUOUS
 10
32.976124185
 20
113.309012113
 11
36.176524185
 21
113.309012113
  0
LINE
  5
223
100
AcDbEntity
  8
0
100
AcDbLine
 62
7
  6
CONTINUOUS
 10
32.976124185
 20
113.6345122903
 11
36.176524185
 21
113.6345122903
  0
LINE
  5
224
100
AcDbEntity
  8
0
100
AcDbLine
 62
7
  6
CONTINUOUS
 10
159.061724185
 20
113.6345122903
 11
162.262124185
 21
113.6345122903
  0
LINE
  5
225
100
AcDbEntity
  8
0
100
AcDbLine
 62
7
  6
CONTINUOUS
 10
158.426724185
 20
114.6615748359
 11
155.759724185
 21
114.6615748359
  0
LINE
  5
226
100
AcDbEntity
  8
0
100
AcDbLine
 62
7
  6
CONTINUOUS
 10
155.759724185
 20
115.3180707691
 11
158.426724185
 21
115.3180707691
  0
LINE
  5
227
100
AcDbEntity
  8
0
100
AcDbLine
 62
7
  6
CONTINUOUS
 10
65.869124185
 20
203.5799324959
 11
65.869124185
 21
209.310606068
  0
LINE
  5
228
100
AcDbEntity
  8
0
100
AcDbLine
 62
7
  6
CONTINUOUS
 10
70.136324185
 20
207.8225744753
 11
70.136324185
 21
203.4856134035
  0
LINE
  5
229
100
AcDbEntity
  8
0
100
AcDbLine
 62
7
  6
CONTINUOUS
 10
71.590474185
 20
214.062466608
 11
71.590474185
 21
213.2101816329
  0
LINE
  5
22A
100
AcDbEntity
  8
0
100
AcDbLine
 62
7
  6
CONTINUOUS
 10
158.947424185
 20
117.7984748359
 11
162.427224185
 21
117.7984748359
  0
LINE
  5
22B
100
AcDbEntity
  8
0
100
AcDbLine
 62
7
  6
CONTINUOUS
 10
158.426724185
 20
117.8111748359
 11
158.947424185
 21
117.8111748359
  0
LINE
  5
22C
100
AcDbEntity
  8
0
100
AcDbLine
 62
7
  6
CONTINUOUS
 10
153.118124185
 20
120.2622748359
 11
151.022624185
 21
120.2622748359
  0
LINE
  5
22D
100
AcDbEntity
  8
0
100
AcDbLine
 62
7
  6
CONTINUOUS
 10
162.300224185
 20
121.8972111124
 11
162.427224185
 21
121.8972111124
  0
LINE
  5
22E
100
AcDbEntity
  8
0
100
AcDbLine
 62
7
  6
CONTINUOUS
 10
162.427224185
 20
123.2983776749
 11
162.300224185
 21
123.2983776749
  0
LINE
  5
22F
100
AcDbEntity
  8
0
100
AcDbLine
 62
7
  6
CONTINUOUS
 10
153.118124185
 20
124.8088748359
 11
151.022624185
 21
124.8088748359
  0
LINE
  5
230
100
AcDbEntity
  8
0
100
AcDbLine
 62
7
  6
CONTINUOUS
 10
36.176524185
 20
125.2682159463
 11
32.976124185
 21
125.2682159463
  0
LINE
  5
231
100
AcDbEntity
  8
0
100
AcDbLine
 62
7
  6
CONTINUOUS
 10
72.847774185
 20
213.2101816329
 11
72.847774185
 21
214.0624600291
  0
LINE
  5
232
100
AcDbEntity
  8
0
100
AcDbLine
 62
7
  6
CONTINUOUS
 10
74.301924185
 20
207.8233629421
 11
74.301924185
 21
203.4856134035
  0
LINE
  5
233
100
AcDbEntity
  8
0
100
AcDbLine
 62
7
  6
CONTINUOUS
 10
158.426724185
 20
127.2599748359
 11
158.947424185
 21
127.2599748359
  0
LINE
  5
234
100
AcDbEntity
  8
0
100
AcDbLine
 62
7
  6
CONTINUOUS
 10
158.947424185
 20
127.2726748359
 11
162.427224185
 21
127.2726748359
  0
LINE
  5
235
100
AcDbEntity
  8
0
100
AcDbLine
 62
7
  6
CONTINUOUS
 10
155.759724185
 20
134.0925748359
 11
153.118124185
 21
134.0925748359
  0
LINE
  5
236
100
AcDbEntity
  8
0
100
AcDbLine
 62
7
  6
CONTINUOUS
 10
81.744124185
 20
210.0159308307
 11
81.744124185
 21
213.0233230943
  0
LINE
  5
237
100
AcDbEntity
  8
0
100
AcDbLine
 62
7
  6
CONTINUOUS
 10
84.919124185
 20
211.9374091392
 11
84.919124185
 21
209.310673759
  0
LINE
  5
238
100
AcDbEntity
  8
0
100
AcDbLine
 62
7
  6
CONTINUOUS
 10
84.919124185
 20
202.4145331453
 11
84.919124185
 21
203.5798648049
  0
LINE
  5
239
100
AcDbEntity
  8
0
100
AcDbLine
 62
7
  6
CONTINUOUS
 10
88.094124185
 20
203.5798648049
 11
88.094124185
 21
201.3286191903
  0
LINE
  5
23A
100
AcDbEntity
  8
0
100
AcDbLine
 62
7
  6
CONTINUOUS
 10
39.478524185
 20
138.2581748359
 11
36.176524185
 21
138.2581748359
  0
LINE
  5
23B
100
AcDbEntity
  8
0
100
AcDbLine
 62
7
  6
CONTINUOUS
 10
158.426724185
 20
138.2581748359
 11
159.061724185
 21
138.2581748359
  0
LINE
  5
23C
100
AcDbEntity
  8
0
100
AcDbLine
 62
7
  6
CONTINUOUS
 10
155.759724185
 20
140.4425748359
 11
153.118124185
 21
140.4425748359
  0
LINE
  5
23D
100
AcDbEntity
  8
0
100
AcDbLine
 62
7
  6
CONTINUOUS
 10
32.976124185
 20
141.6617748359
 11
31.096524185
 21
141.6617748359
  0
LINE
  5
23E
100
AcDbEntity
  8
0
100
AcDbLine
 62
7
  6
CONTINUOUS
 10
162.262124185
 20
141.6617748359
 11
164.141724185
 21
141.6617748359
  0
LINE
  5
23F
100
AcDbEntity
  8
0
100
AcDbLine
 62
7
  6
CONTINUOUS
 10
153.118124185
 20
145.6899089077
 11
155.759724185
 21
145.6899089077
  0
LINE
  5
240
100
AcDbEntity
  8
0
100
AcDbLine
 62
7
  6
CONTINUOUS
 10
32.976124185
 20
146.2845748359
 11
31.096524185
 21
146.2845748359
  0
LINE
  5
241
100
AcDbEntity
  8
0
100
AcDbLine
 62
7
  6
CONTINUOUS
 10
162.262124185
 20
146.2845748359
 11
164.141724185
 21
146.2845748359
  0
LINE
  5
242
100
AcDbEntity
  8
0
100
AcDbLine
 62
7
  6
CONTINUOUS
 10
162.262124185
 20
147.8391164821
 11
164.700524185
 21
147.8391164821
  0
LINE
  5
243
100
AcDbEntity
  8
0
100
AcDbLine
 62
7
  6
CONTINUOUS
 10
162.262124185
 20
148.2220683401
 11
164.700524185
 21
148.2220683401
  0
LINE
  5
244
100
AcDbEntity
  8
0
100
AcDbLine
 62
7
  6
CONTINUOUS
 10
39.478524185
 20
149.6881748359
 11
36.176524185
 21
149.6881748359
  0
LINE
  5
245
100
AcDbEntity
  8
0
100
AcDbLine
 62
7
  6
CONTINUOUS
 10
158.426724185
 20
149.6881748359
 11
159.061724185
 21
149.6881748359
  0
LINE
  5
246
100
AcDbEntity
  8
0
100
AcDbLine
 62
7
  6
CONTINUOUS
 10
32.976124185
 20
150.3454494108
 11
36.176524185
 21
150.3454494108
  0
LINE
  5
247
100
AcDbEntity
  8
0
100
AcDbLine
 62
7
  6
CONTINUOUS
 10
159.061724185
 20
150.3454494108
 11
162.262124185
 21
150.3454494108
  0
LINE
  5
248
100
AcDbEntity
  8
0
100
AcDbLine
 62
7
  6
CONTINUOUS
 10
165.221224185
 20
151.4053467346
 11
168.701024185
 21
151.4053467346
  0
LINE
  5
249
100
AcDbEntity
  8
0
100
AcDbLine
 62
7
  6
CONTINUOUS
 10
164.700524185
 20
151.4180467346
 11
165.221224185
 21
151.4180467346
  0
LINE
  5
24A
100
AcDbEntity
  8
0
100
AcDbLine
 62
7
  6
CONTINUOUS
 10
159.061724185
 20
153.8691467346
 11
158.426724185
 21
153.8691467346
  0
LINE
  5
24B
100
AcDbEntity
  8
0
100
AcDbLine
 62
7
  6
CONTINUOUS
 10
168.574024185
 20
155.5040830111
 11
168.701024185
 21
155.5040830111
  0
LINE
  5
24C
100
AcDbEntity
  8
0
100
AcDbLine
 62
7
  6
CONTINUOUS
 10
158.947424185
 20
155.8984748359
 11
162.427224185
 21
155.8984748359
  0
LINE
  5
24D
100
AcDbEntity
  8
0
100
AcDbLine
 62
7
  6
CONTINUOUS
 10
158.426724185
 20
155.9111748359
 11
158.947424185
 21
155.9111748359
  0
LINE
  5
24E
100
AcDbEntity
  8
0
100
AcDbLine
 62
7
  6
CONTINUOUS
 10
107.144124185
 20
201.3286191903
 11
107.144124185
 21
203.5798648049
  0
LINE
  5
24F
100
AcDbEntity
  8
0
100
AcDbLine
 62
7
  6
CONTINUOUS
 10
110.319124185
 20
203.5798648049
 11
110.319124185
 21
202.4145331453
  0
LINE
  5
250
100
AcDbEntity
  8
0
100
AcDbLine
 62
7
  6
CONTINUOUS
 10
110.319124185
 20
209.310673759
 11
110.319124185
 21
211.9374091392
  0
LINE
  5
251
100
AcDbEntity
  8
0
100
AcDbLine
 62
7
  6
CONTINUOUS
 10
168.701024185
 20
156.9052495736
 11
168.574024185
 21
156.9052495736
  0
LINE
  5
252
100
AcDbEntity
  8
0
100
AcDbLine
 62
7
  6
CONTINUOUS
 10
164.700524185
 20
156.9093799806
 11
162.427224185
 21
156.9093799806
  0
LINE
  5
253
100
AcDbEntity
  8
0
100
AcDbLine
 62
7
  6
CONTINUOUS
 10
153.118124185
 20
158.3622748359
 11
151.022624185
 21
158.3622748359
  0
LINE
  5
254
100
AcDbEntity
  8
0
100
AcDbLine
 62
7
  6
CONTINUOUS
 10
165.221224185
 20
159.0501809782
 11
168.701024185
 21
159.0501809782
  0
LINE
  5
255
100
AcDbEntity
  8
0
100
AcDbLine
 62
7
  6
CONTINUOUS
 10
164.700524185
 20
159.0628809782
 11
165.221224185
 21
159.0628809782
  0
LINE
  5
256
100
AcDbEntity
  8
0
100
AcDbLine
 62
7
  6
CONTINUOUS
 10
162.300224185
 20
159.9972111124
 11
162.427224185
 21
159.9972111124
  0
LINE
  5
257
100
AcDbEntity
  8
0
100
AcDbLine
 62
7
  6
CONTINUOUS
 10
162.427224185
 20
161.3983776749
 11
162.300224185
 21
161.3983776749
  0
LINE
  5
258
100
AcDbEntity
  8
0
100
AcDbLine
 62
7
  6
CONTINUOUS
 10
181.5407241851
 20
162.0479488056
 11
159.950724185
 21
162.0479488056
  0
LINE
  5
259
100
AcDbEntity
  8
0
100
AcDbLine
 62
7
  6
CONTINUOUS
 10
153.118124185
 20
162.9088748359
 11
151.022624185
 21
162.9088748359
  0
LINE
  5
25A
100
AcDbEntity
  8
0
100
AcDbLine
 62
7
  6
CONTINUOUS
 10
155.759724185
 20
163.9807274007
 11
153.118124185
 21
163.9807274007
  0
LINE
  5
25B
100
AcDbEntity
  8
0
100
AcDbLine
 62
7
  6
CONTINUOUS
 10
153.118124185
 20
164.5100070462
 11
155.759724185
 21
164.5100070462
  0
LINE
  5
25C
100
AcDbEntity
  8
0
100
AcDbLine
 62
7
  6
CONTINUOUS
 10
113.494124185
 20
213.0233230943
 11
113.494124185
 21
210.0159308307
  0
LINE
  5
25D
100
AcDbEntity
  8
0
100
AcDbLine
 62
7
  6
CONTINUOUS
 10
120.936324185
 20
207.8225744753
 11
120.936324185
 21
203.4856134035
  0
LINE
  5
25E
100
AcDbEntity
  8
0
100
AcDbLine
 62
7
  6
CONTINUOUS
 10
183.064724185
 20
168.2852349038
 11
177.095724185
 21
168.2852349038
  0
LINE
  5
25F
100
AcDbEntity
  8
0
100
AcDbLine
 62
7
  6
CONTINUOUS
 10
122.390474185
 20
214.062466608
 11
122.390474185
 21
213.2101816329
  0
LINE
  5
260
100
AcDbEntity
  8
0
100
AcDbLine
 62
7
  6
CONTINUOUS
 10
123.647774185
 20
213.2101816329
 11
123.647774185
 21
214.0624600291
  0
LINE
  5
261
100
AcDbEntity
  8
0
100
AcDbLine
 62
7
  6
CONTINUOUS
 10
125.101924185
 20
207.8233629421
 11
125.101924185
 21
203.4856134035
  0
LINE
  5
262
100
AcDbEntity
  8
0
100
AcDbLine
 62
7
  6
CONTINUOUS
 10
129.369124185
 20
203.5799720265
 11
129.369124185
 21
209.3105665374
  0
LINE
  5
263
100
AcDbEntity
  8
0
100
AcDbLine
 62
7
  6
CONTINUOUS
 10
235.327349582
 20
238.5547906706
 11
235.5682509506
 21
238.6396529142
  0
LINE
  5
264
100
AcDbEntity
  8
0
100
AcDbLine
 62
7
  6
CONTINUOUS
 10
235.9907321891
 20
237.4436258743
 11
235.7498308205
 21
237.3587636308
  0
LINE
  5
265
100
AcDbEntity
  8
0
100
AcDbLine
 62
7
  6
CONTINUOUS
 10
155.759724185
 20
183.0891748359
 11
153.118124185
 21
183.0891748359
  0
LINE
  5
266
100
AcDbEntity
  8
0
100
AcDbLine
 62
7
  6
CONTINUOUS
 10
42.120124185
 20
183.0891748359
 11
39.478524185
 21
183.0891748359
  0
LINE
  5
267
100
AcDbEntity
  8
0
100
AcDbLine
 62
7
  6
CONTINUOUS
 10
247.987124185
 20
185.4005748359
 11
245.320124185
 21
185.4005748359
  0
LINE
  5
268
100
AcDbEntity
  8
0
100
AcDbLine
 62
7
  6
CONTINUOUS
 10
139.884724185
 20
92.8175748359
 11
139.884724185
 21
95.4591748359
  0
LWPOLYLINE
  5
269
100
AcDbEntity
  8
0
100
AcDbPolyline
 62
7
  6
CONTINUOUS
 90
4
 70
0
 10
158.5184042489
 20
193.9289810758
 10
158.2489159978
 20
193.9214812405
 10
157.7002134604
 20
193.9119770412
 10
157.254468649
 20
193.9095748359
  0
LINE
  5
26A
100
AcDbEntity
  8
0
100
AcDbLine
 62
7
  6
CONTINUOUS
 10
245.320124185
 20
189.3416815007
 11
247.987124185
 21
189.3416815007
  0
LINE
  5
26B
100
AcDbEntity
  8
0
100
AcDbLine
 62
7
  6
CONTINUOUS
 10
39.478524185
 20
189.4391748359
 11
42.120124185
 21
189.4391748359
  0
LINE
  5
26C
100
AcDbEntity
  8
0
100
AcDbLine
 62
7
  6
CONTINUOUS
 10
153.118124185
 20
189.4391748359
 11
155.759724185
 21
189.4391748359
  0
LINE
  5
26D
100
AcDbEntity
  8
0
100
AcDbLine
 62
7
  6
CONTINUOUS
 10
243.796124185
 20
192.7665748359
 11
229.699124185
 21
192.7665748359
  0
LINE
  5
26E
100
AcDbEntity
  8
0
100
AcDbLine
 62
7
  6
CONTINUOUS
 10
176.587724185
 20
193.5885802353
 11
181.540724185
 21
193.5885802353
  0
LINE
  5
26F
100
AcDbEntity
  8
0
100
AcDbLine
 62
7
  6
CONTINUOUS
 10
153.118124185
 20
193.6173469258
 11
155.759724185
 21
193.6173469258
  0
LINE
  5
270
100
AcDbEntity
  8
0
100
AcDbLine
 62
7
  6
CONTINUOUS
 10
159.950724185
 20
193.67713047
 11
167.8774200336
 21
193.67713047
  0
LINE
  5
271
100
AcDbEntity
  8
0
100
AcDbLine
 62
7
  6
CONTINUOUS
 10
175.8972239444
 20
193.67713047
 11
176.587724185
 21
193.67713047
  0
LINE
  5
272
100
AcDbEntity
  8
0
100
AcDbLine
 62
7
  6
CONTINUOUS
 10
181.540724185
 20
193.8210246013
 11
176.587724185
 21
193.8210246013
  0
LINE
  5
273
100
AcDbEntity
  8
0
100
AcDbLine
 62
7
  6
CONTINUOUS
 10
155.759724185
 20
193.9095748359
 11
158.426724185
 21
193.9095748359
  0
LINE
  5
274
100
AcDbEntity
  8
0
100
AcDbLine
 62
7
  6
CONTINUOUS
 10
159.950724185
 20
193.9095748359
 11
168.7097715068
 21
193.9095748359
  0
LINE
  5
275
100
AcDbEntity
  8
0
100
AcDbLine
 62
7
  6
CONTINUOUS
 10
175.066667648
 20
193.9095748359
 11
176.587724185
 21
193.9095748359
  0
LINE
  5
276
100
AcDbEntity
  8
0
100
AcDbLine
 62
7
  6
CONTINUOUS
 10
229.318124185
 20
195.0525748359
 11
228.251324185
 21
195.0525748359
  0
LINE
  5
277
100
AcDbEntity
  8
0
100
AcDbLine
 62
7
  6
CONTINUOUS
 10
178.7789308364
 20
173.6899374783
 11
178.6611953445
 21
173.7385195402
  0
LINE
  5
278
100
AcDbEntity
  8
0
100
AcDbLine
 62
7
  6
CONTINUOUS
 10
164.6302450663
 20
179.5282137471
 11
164.5125095744
 21
179.576795809
  0
LINE
  5
279
100
AcDbEntity
  8
0
100
AcDbLine
 62
7
  6
CONTINUOUS
 10
164.9985175335
 20
180.7456579518
 11
165.1162530254
 21
180.6970758899
  0
LINE
  5
27A
100
AcDbEntity
  8
0
100
AcDbLine
 62
7
  6
CONTINUOUS
 10
179.1472033036
 20
174.907381683
 11
179.2649387955
 21
174.8587996211
  0
LINE
  5
27B
100
AcDbEntity
  8
0
100
AcDbLine
 62
7
  6
CONTINUOUS
 10
165.1162530254
 20
182.9108317557
 11
164.9985175335
 21
182.9594138176
  0
LINE
  5
27C
100
AcDbEntity
  8
0
100
AcDbLine
 62
7
  6
CONTINUOUS
 10
146.234724185
 20
95.4591748359
 11
146.234724185
 21
92.8175748359
  0
LINE
  5
27D
100
AcDbEntity
  8
0
100
AcDbLine
 62
7
  6
CONTINUOUS
 10
151.022624185
 20
162.9088716981
 11
151.022624185
 21
158.3622779737
  0
LINE
  5
27E
100
AcDbEntity
  8
0
100
AcDbLine
 62
7
  6
CONTINUOUS
 10
151.022624185
 20
124.8088716981
 11
151.022624185
 21
120.2622779737
  0
LINE
  5
27F
100
AcDbEntity
  8
0
100
AcDbLine
 62
7
  6
CONTINUOUS
 10
177.2142890405
 20
196.0660503434
 11
177.4730563973
 21
196.0660503434
  0
LINE
  5
280
100
AcDbEntity
  8
0
100
AcDbLine
 62
7
  6
CONTINUOUS
 10
40.977124185
 20
196.98496337
 11
154.261124185
 21
196.98496337
  0
LINE
  5
281
100
AcDbEntity
  8
0
100
AcDbLine
 62
7
  6
CONTINUOUS
 10
235.033124185
 20
197.5290748359
 11
236.430124185
 21
197.5290748359
  0
LINE
  5
282
100
AcDbEntity
  8
0
100
AcDbLine
 62
7
  6
CONTINUOUS
 10
166.6780563973
 20
198.4536503434
 11
168.0750563973
 21
198.4536503434
  0
LINE
  5
283
100
AcDbEntity
  8
0
100
AcDbLine
 62
7
  6
CONTINUOUS
 10
228.251324185
 20
198.631956528
 11
229.318124185
 21
198.631956528
  0
LINE
  5
284
100
AcDbEntity
  8
0
100
AcDbLine
 62
7
  6
CONTINUOUS
 10
226.625724185
 20
199.1165748359
 11
228.149724185
 21
199.1165748359
  0
LINE
  5
285
100
AcDbEntity
  8
0
100
AcDbLine
 62
7
  6
CONTINUOUS
 10
229.318124185
 20
199.1165748359
 11
229.699124185
 21
199.1165748359
  0
LINE
  5
286
100
AcDbEntity
  8
0
100
AcDbLine
 62
7
  6
CONTINUOUS
 10
228.251324185
 20
200.3826810705
 11
229.318124185
 21
200.3826810705
  0
LINE
  5
287
100
AcDbEntity
  8
0
100
AcDbLine
 62
7
  6
CONTINUOUS
 10
228.149724185
 20
200.4373748359
 11
228.251324185
 21
200.4373748359
  0
LINE
  5
288
100
AcDbEntity
  8
0
100
AcDbLine
 62
7
  6
CONTINUOUS
 10
170.5134563973
 20
200.6450461713
 11
168.0750563973
 21
200.6450461713
  0
LINE
  5
289
100
AcDbEntity
  8
0
100
AcDbLine
 62
7
  6
CONTINUOUS
 10
229.318124185
 20
201.1917548359
 11
228.251324185
 21
201.1917548359
  0
LINE
  5
28A
100
AcDbEntity
  8
0
100
AcDbLine
 62
7
  6
CONTINUOUS
 10
107.144124185
 20
201.3286191903
 11
88.094124185
 21
201.3286191903
  0
LINE
  5
28B
100
AcDbEntity
  8
0
100
AcDbLine
 62
7
  6
CONTINUOUS
 10
229.699124185
 20
201.4625519697
 11
232.366124185
 21
201.4625519697
  0
LINE
  5
28C
100
AcDbEntity
  8
0
100
AcDbLine
 62
7
  6
CONTINUOUS
 10
170.5134563973
 20
201.6921503434
 11
168.0750563973
 21
201.6921503434
  0
LINE
  5
28D
100
AcDbEntity
  8
0
100
AcDbLine
 62
7
  6
CONTINUOUS
 10
129.369124185
 20
203.5798648049
 11
125.101924185
 21
203.5798648049
  0
LINE
  5
28E
100
AcDbEntity
  8
0
100
AcDbLine
 62
7
  6
CONTINUOUS
 10
120.936324185
 20
203.5798648049
 11
74.301924185
 21
203.5798648049
  0
LINE
  5
28F
100
AcDbEntity
  8
0
100
AcDbLine
 62
7
  6
CONTINUOUS
 10
70.136324185
 20
203.5798648049
 11
65.869124185
 21
203.5798648049
  0
LINE
  5
290
100
AcDbEntity
  8
0
100
AcDbLine
 62
7
  6
CONTINUOUS
 10
65.869124185
 20
203.6434348133
 11
70.136324185
 21
203.6434348133
  0
LINE
  5
291
100
AcDbEntity
  8
0
100
AcDbLine
 62
7
  6
CONTINUOUS
 10
74.301924185
 20
203.6434348133
 11
120.936324185
 21
203.6434348133
  0
LINE
  5
292
100
AcDbEntity
  8
0
100
AcDbLine
 62
7
  6
CONTINUOUS
 10
125.101924185
 20
203.6434348133
 11
129.369124185
 21
203.6434348133
  0
LINE
  5
293
100
AcDbEntity
  8
0
100
AcDbLine
 62
7
  6
CONTINUOUS
 10
153.118124185
 20
99.4215748359
 11
153.118124185
 21
196.98496337
  0
LINE
  5
294
100
AcDbEntity
  8
0
100
AcDbLine
 62
7
  6
CONTINUOUS
 10
154.261124185
 20
196.98496337
 11
154.261124185
 21
210.0159308307
  0
LINE
  5
295
100
AcDbEntity
  8
0
100
AcDbLine
 62
7
  6
CONTINUOUS
 10
155.759724185
 20
99.4215748359
 11
155.759724185
 21
196.6071861049
  0
LINE
  5
296
100
AcDbEntity
  8
0
100
AcDbLine
 62
7
  6
CONTINUOUS
 10
158.2505561262
 20
180.1361370084
 11
158.2505561262
 21
180.8809546107
  0
LINE
  5
297
100
AcDbEntity
  8
0
100
AcDbLine
 62
7
  6
CONTINUOUS
 10
158.426724185
 20
114.6615748359
 11
158.426724185
 21
162.0818797095
  0
LINE
  5
298
100
AcDbEntity
  8
0
100
AcDbLine
 62
7
  6
CONTINUOUS
 10
158.947424185
 20
162.0599814348
 11
158.947424185
 21
155.8984774516
  0
LINE
  5
299
100
AcDbEntity
  8
0
100
AcDbLine
 62
7
  6
CONTINUOUS
 10
158.947424185
 20
127.2726722202
 11
158.947424185
 21
117.7984774516
  0
LINE
  5
29A
100
AcDbEntity
  8
0
100
AcDbLine
 62
7
  6
CONTINUOUS
 10
159.061724185
 20
117.7984748359
 11
159.061724185
 21
113.3091538825
  0
LINE
  5
29B
100
AcDbEntity
  8
0
100
AcDbLine
 62
7
  6
CONTINUOUS
 10
159.061724185
 20
127.2726748359
 11
159.061724185
 21
155.8984748359
  0
LINE
  5
29C
100
AcDbEntity
  8
0
100
AcDbLine
 62
7
  6
CONTINUOUS
 10
159.061724185
 20
193.9178511803
 11
159.061724185
 21
205.5048424354
  0
LINE
  5
29D
100
AcDbEntity
  8
0
100
AcDbLine
 62
7
  6
CONTINUOUS
 10
159.950724185
 20
193.9095748359
 11
159.950724185
 21
186.8976720872
  0
LINE
  5
29E
100
AcDbEntity
  8
0
100
AcDbLine
 62
7
  6
CONTINUOUS
 10
159.950724185
 20
175.0514107514
 11
159.950724185
 21
162.0479488056
  0
LINE
  5
29F
100
AcDbEntity
  8
0
100
AcDbLine
 62
7
  6
CONTINUOUS
 10
166.2970563973
 20
198.0726503434
 11
166.6780563973
 21
198.4536503434
  0
LINE
  5
2A0
100
AcDbEntity
  8
0
100
AcDbLine
 62
7
  6
CONTINUOUS
 10
247.987124185
 20
206.8594681711
 11
245.320124185
 21
206.8594681711
  0
LINE
  5
2A1
100
AcDbEntity
  8
0
100
AcDbLine
 62
7
  6
CONTINUOUS
 10
129.369124185
 20
207.2660437674
 11
65.869124185
 21
207.2660437674
  0
LINE
  5
2A2
100
AcDbEntity
  8
0
100
AcDbLine
 62
7
  6
CONTINUOUS
 10
65.869124185
 20
209.310673759
 11
129.369124185
 21
209.310673759
  0
LINE
  5
2A3
100
AcDbEntity
  8
0
100
AcDbLine
 62
7
  6
CONTINUOUS
 10
228.251324185
 20
209.7413948359
 11
229.318124185
 21
209.7413948359
  0
LINE
  5
2A4
100
AcDbEntity
  8
0
100
AcDbLine
 62
7
  6
CONTINUOUS
 10
154.261124185
 20
210.0159308307
 11
113.494124185
 21
210.0159308307
  0
LINE
  5
2A5
100
AcDbEntity
  8
0
100
AcDbLine
 62
7
  6
CONTINUOUS
 10
81.744124185
 20
210.0159308307
 11
40.977124185
 21
210.0159308307
  0
LINE
  5
2A6
100
AcDbEntity
  8
0
100
AcDbLine
 62
7
  6
CONTINUOUS
 10
228.149724185
 20
210.4957748359
 11
228.251324185
 21
210.4957748359
  0
LINE
  5
2A7
100
AcDbEntity
  8
0
100
AcDbLine
 62
7
  6
CONTINUOUS
 10
229.318124185
 20
210.5504686013
 11
228.251324185
 21
210.5504686013
  0
LINE
  5
2A8
100
AcDbEntity
  8
0
100
AcDbLine
 62
7
  6
CONTINUOUS
 10
247.987124185
 20
210.8005748359
 11
245.320124185
 21
210.8005748359
  0
LINE
  5
2A9
100
AcDbEntity
  8
0
100
AcDbLine
 62
7
  6
CONTINUOUS
 10
226.625724185
 20
211.8165748359
 11
228.149724185
 21
211.8165748359
  0
LINE
  5
2AA
100
AcDbEntity
  8
0
100
AcDbLine
 62
7
  6
CONTINUOUS
 10
229.318124185
 20
211.8165748359
 11
229.699124185
 21
211.8165748359
  0
LINE
  5
2AB
100
AcDbEntity
  8
0
100
AcDbLine
 62
7
  6
CONTINUOUS
 10
228.251324185
 20
212.3011931438
 11
229.318124185
 21
212.3011931438
  0
LINE
  5
2AC
100
AcDbEntity
  8
0
100
AcDbLine
 62
7
  6
CONTINUOUS
 10
154.261124185
 20
213.0233230943
 11
113.494124185
 21
213.0233230943
  0
LINE
  5
2AD
100
AcDbEntity
  8
0
100
AcDbLine
 62
7
  6
CONTINUOUS
 10
81.744124185
 20
213.0233230943
 11
40.977124185
 21
213.0233230943
  0
LINE
  5
2AE
100
AcDbEntity
  8
0
100
AcDbLine
 62
7
  6
CONTINUOUS
 10
235.033124185
 20
213.4040748359
 11
236.430124185
 21
213.4040748359
  0
LINE
  5
2AF
100
AcDbEntity
  8
0
100
AcDbLine
 62
7
  6
CONTINUOUS
 10
232.366124185
 20
213.4589438022
 11
235.033124185
 21
213.4589438022
  0
LINE
  5
2B0
100
AcDbEntity
  8
0
100
AcDbLine
 62
7
  6
CONTINUOUS
 10
162.262124185
 20
113.309172576
 11
162.262124185
 21
117.7984748359
  0
LINE
  5
2B1
100
AcDbEntity
  8
0
100
AcDbLine
 62
7
  6
CONTINUOUS
 10
162.262124185
 20
127.2726748359
 11
162.262124185
 21
155.8984748359
  0
LINE
  5
2B2
100
AcDbEntity
  8
0
100
AcDbLine
 62
7
  6
CONTINUOUS
 10
162.262124185
 20
193.9095748359
 11
162.262124185
 21
205.5048424354
  0
LINE
  5
2B3
100
AcDbEntity
  8
0
100
AcDbLine
 62
7
  6
CONTINUOUS
 10
162.300224185
 20
121.8972111124
 11
162.300224185
 21
123.2983776749
  0
LINE
  5
2B4
100
AcDbEntity
  8
0
100
AcDbLine
 62
7
  6
CONTINUOUS
 10
162.300224185
 20
159.9972111124
 11
162.300224185
 21
161.3983776749
  0
LINE
  5
2B5
100
AcDbEntity
  8
0
100
AcDbLine
 62
7
  6
CONTINUOUS
 10
162.427224185
 20
117.7984782114
 11
162.427224185
 21
121.8972111124
  0
LINE
  5
2B6
100
AcDbEntity
  8
0
100
AcDbLine
 62
7
  6
CONTINUOUS
 10
162.427224185
 20
123.2983776749
 11
162.427224185
 21
127.2726717888
  0
LINE
  5
2B7
100
AcDbEntity
  8
0
100
AcDbLine
 62
7
  6
CONTINUOUS
 10
162.427224185
 20
155.8984782114
 11
162.427224185
 21
159.9972111124
  0
LINE
  5
2B8
100
AcDbEntity
  8
0
100
AcDbLine
 62
7
  6
CONTINUOUS
 10
162.427224185
 20
161.3983776749
 11
162.427224185
 21
162.0479488056
  0
LINE
  5
2B9
100
AcDbEntity
  8
0
100
AcDbLine
 62
7
  6
CONTINUOUS
 10
164.141724185
 20
141.661808311
 11
164.141724185
 21
146.2845413607
  0
LINE
  5
2BA
100
AcDbEntity
  8
0
100
AcDbLine
 62
7
  6
CONTINUOUS
 10
164.268724185
 20
179.4315535808
 11
164.268724185
 21
177.2177977151
  0
LINE
  5
2BB
100
AcDbEntity
  8
0
100
AcDbLine
 62
7
  6
CONTINUOUS
 10
164.5125095744
 20
175.6598166844
 11
164.5125095744
 21
174.8587996211
  0
LINE
  5
2BC
100
AcDbEntity
  8
0
100
AcDbLine
 62
7
  6
CONTINUOUS
 10
164.5125095744
 20
179.576795809
 11
164.5125095744
 21
181.7905516748
  0
LINE
  5
2BD
100
AcDbEntity
  8
0
100
AcDbLine
 62
7
  6
CONTINUOUS
 10
164.700524185
 20
147.8391638596
 11
164.700524185
 21
162.0479488056
  0
LINE
  5
2BE
100
AcDbEntity
  8
0
100
AcDbLine
 62
7
  6
CONTINUOUS
 10
164.9985175335
 20
182.9594138176
 11
164.9985175335
 21
180.7456579518
  0
LINE
  5
2BF
100
AcDbEntity
  8
0
100
AcDbLine
 62
7
  6
CONTINUOUS
 10
165.0696401556
 20
191.9021925876
 11
165.0696401556
 21
192.6470101898
  0
LINE
  5
2C0
100
AcDbEntity
  8
0
100
AcDbLine
 62
7
  6
CONTINUOUS
 10
165.1162530254
 20
180.6970758899
 11
165.1162530254
 21
182.9108317557
  0
LINE
  5
2C1
100
AcDbEntity
  8
0
100
AcDbLine
 62
7
  6
CONTINUOUS
 10
165.221224185
 20
162.0479488056
 11
165.221224185
 21
151.4053493503
  0
LINE
  5
2C2
100
AcDbEntity
  8
0
100
AcDbLine
 62
7
  6
CONTINUOUS
 10
165.4729193186
 20
197.2046085109
 11
165.4729193186
 21
196.9457671515
  0
LINE
  5
2C3
100
AcDbEntity
  8
0
100
AcDbLine
 62
7
  6
CONTINUOUS
 10
166.2970563973
 20
198.0726461574
 11
166.2970563973
 21
195.6535617382
  0
LINE
  5
2C4
100
AcDbEntity
  8
0
100
AcDbLine
 62
7
  6
CONTINUOUS
 10
166.6780563973
 20
198.4536503434
 11
166.6780563973
 21
196.2441533463
  0
LINE
  5
2C5
100
AcDbEntity
  8
0
100
AcDbLine
 62
7
  6
CONTINUOUS
 10
166.681724185
 20
168.1413986653
 11
166.681724185
 21
177.2177977261
  0
LINE
  5
2C6
100
AcDbEntity
  8
0
100
AcDbLine
 62
7
  6
CONTINUOUS
 10
168.0750563973
 20
201.6920586917
 11
168.0750563973
 21
197.5680005458
  0
LINE
  5
2C7
100
AcDbEntity
  8
0
100
AcDbLine
 62
7
  6
CONTINUOUS
 10
168.3473880952
 20
184.08178505
 11
168.3473880952
 21
186.2955409158
  0
LINE
  5
2C8
100
AcDbEntity
  8
0
100
AcDbLine
 62
7
  6
CONTINUOUS
 10
168.574024185
 20
155.5040830111
 11
168.574024185
 21
156.9052495736
  0
LINE
  5
2C9
100
AcDbEntity
  8
0
100
AcDbLine
 62
7
  6
CONTINUOUS
 10
168.6808217518
 20
202.7397153021
 11
168.6808217518
 21
202.4808739428
  0
LINE
  5
2CA
100
AcDbEntity
  8
0
100
AcDbLine
 62
7
  6
CONTINUOUS
 10
168.701024185
 20
151.4053501101
 11
168.701024185
 21
155.5040830111
  0
LINE
  5
2CB
100
AcDbEntity
  8
0
100
AcDbLine
 62
7
  6
CONTINUOUS
 10
168.701024185
 20
156.9052495736
 11
168.701024185
 21
162.0479488056
  0
LINE
  5
2CC
100
AcDbEntity
  8
0
100
AcDbLine
 62
7
  6
CONTINUOUS
 10
169.5207151015
 20
186.7796994678
 11
169.5207151015
 21
184.5659436021
  0
LINE
  5
2CD
100
AcDbEntity
  8
0
100
AcDbLine
 62
7
  6
CONTINUOUS
 10
169.569482739
 20
184.4486561292
 11
169.569482739
 21
186.662411995
  0
LINE
  5
2CE
100
AcDbEntity
  8
0
100
AcDbLine
 62
7
  6
CONTINUOUS
 10
170.5134563973
 20
198.6057967386
 11
170.5134563973
 21
201.6920586917
  0
LINE
  5
2CF
100
AcDbEntity
  8
0
100
AcDbLine
 62
7
  6
CONTINUOUS
 10
164.2687281678
 20
177.2177977151
 11
164.6302450663
 21
179.5282137471
  0
LINE
  5
2D0
100
AcDbEntity
  8
0
100
AcDbLine
 62
7
  6
CONTINUOUS
 10
244.304124185
 20
285.2576596545
 11
245.2659317959
 21
286.4835751444
  0
LINE
  5
2D1
100
AcDbEntity
  8
0
100
AcDbLine
 62
7
  6
CONTINUOUS
 10
178.7789308364
 20
182.9594138176
 11
178.6611953445
 21
182.9108317557
  0
LINE
  5
2D2
100
AcDbEntity
  8
0
100
AcDbLine
 62
7
  6
CONTINUOUS
 10
164.5125095744
 20
174.8587996211
 11
164.6302450663
 21
174.907381683
  0
LINE
  5
2D3
100
AcDbEntity
  8
0
100
AcDbLine
 62
7
  6
CONTINUOUS
 10
178.6611953445
 20
180.6970758899
 11
178.7789308364
 21
180.7456579518
  0
LINE
  5
2D4
100
AcDbEntity
  8
0
100
AcDbLine
 62
7
  6
CONTINUOUS
 10
179.2649387955
 20
179.576795809
 11
179.1472033036
 21
179.5282137471
  0
LINE
  5
2D5
100
AcDbEntity
  8
0
100
AcDbLine
 62
7
  6
CONTINUOUS
 10
165.1162530254
 20
173.7385195402
 11
164.9985175335
 21
173.6899374783
  0
LINE
  5
2D6
100
AcDbEntity
  8
0
100
AcDbLine
 62
7
  6
CONTINUOUS
 10
229.318124185
 20
215.8805748359
 11
228.251324185
 21
215.8805748359
  0
LINE
  5
2D7
100
AcDbEntity
  8
0
100
AcDbLine
 62
7
  6
CONTINUOUS
 10
245.320124185
 20
217.1505748359
 11
247.987124185
 21
217.1505748359
  0
LINE
  5
2D8
100
AcDbEntity
  8
0
100
AcDbLine
 62
7
  6
CONTINUOUS
 10
243.796124185
 20
218.1665748359
 11
235.033124185
 21
218.1665748359
  0
LINE
  5
2D9
100
AcDbEntity
  8
0
100
AcDbLine
 62
7
  6
CONTINUOUS
 10
244.304124185
 20
219.932458661
 11
242.780124185
 21
219.932458661
  0
LINE
  5
2DA
100
AcDbEntity
  8
0
100
AcDbLine
 62
7
  6
CONTINUOUS
 10
216.364124185
 20
221.3415748359
 11
243.796124185
 21
221.3415748359
  0
LINE
  5
2DB
100
AcDbEntity
  8
0
100
AcDbLine
 62
7
  6
CONTINUOUS
 10
247.987124185
 20
223.8781611153
 11
248.596724185
 21
223.8781611153
  0
LINE
  5
2DC
100
AcDbEntity
  8
0
100
AcDbLine
 62
7
  6
CONTINUOUS
 10
216.364124185
 20
224.0085748359
 11
243.796124185
 21
224.0085748359
  0
LINE
  5
2DD
100
AcDbEntity
  8
0
100
AcDbLine
 62
7
  6
CONTINUOUS
 10
242.246724185
 20
224.082713882
 11
242.780124185
 21
224.082713882
  0
LINE
  5
2DE
100
AcDbEntity
  8
0
100
AcDbLine
 62
7
  6
CONTINUOUS
 10
242.246724185
 20
224.1322262058
 11
242.780124185
 21
224.1322262058
  0
LINE
  5
2DF
100
AcDbEntity
  8
0
100
AcDbLine
 62
7
  6
CONTINUOUS
 10
242.246724185
 20
224.8362224096
 11
242.780124185
 21
224.8362224096
  0
LINE
  5
2E0
100
AcDbEntity
  8
0
100
AcDbLine
 62
7
  6
CONTINUOUS
 10
178.2350563973
 20
195.3040503434
 11
177.4730563973
 21
196.0660503434
  0
LINE
  5
2E1
100
AcDbEntity
  8
0
100
AcDbLine
 62
7
  6
CONTINUOUS
 10
168.3961557327
 20
183.9644975771
 11
168.3473880952
 21
184.08178505
  0
LINE
  5
2E2
100
AcDbEntity
  8
0
100
AcDbLine
 62
7
  6
CONTINUOUS
 10
169.5207151015
 20
184.565943602
 11
169.569482739
 21
184.4486561292
  0
LINE
  5
2E3
100
AcDbEntity
  8
0
100
AcDbLine
 62
7
  6
CONTINUOUS
 10
169.569482739
 20
186.662411995
 11
169.5207151015
 21
186.7796994678
  0
LINE
  5
2E4
100
AcDbEntity
  8
0
100
AcDbLine
 62
7
  6
CONTINUOUS
 10
171.888724185
 20
195.7667000157
 11
171.888724185
 21
195.0218824135
  0
LINE
  5
2E5
100
AcDbEntity
  8
0
100
AcDbLine
 62
7
  6
CONTINUOUS
 10
174.2079656309
 20
186.662411995
 11
174.2079656309
 21
184.4486561292
  0
LINE
  5
2E6
100
AcDbEntity
  8
0
100
AcDbLine
 62
7
  6
CONTINUOUS
 10
174.2567332684
 20
184.5659436021
 11
174.2567332684
 21
186.7796994678
  0
LINE
  5
2E7
100
AcDbEntity
  8
0
100
AcDbLine
 62
7
  6
CONTINUOUS
 10
175.0966266181
 20
202.7397153021
 11
175.0966266181
 21
202.4808739428
  0
LINE
  5
2E8
100
AcDbEntity
  8
0
100
AcDbLine
 62
7
  6
CONTINUOUS
 10
175.4300602747
 20
186.2955409158
 11
175.4300602747
 21
184.08178505
  0
LINE
  5
2E9
100
AcDbEntity
  8
0
100
AcDbLine
 62
7
  6
CONTINUOUS
 10
176.587724185
 20
193.67713047
 11
176.587724185
 21
193.5885802353
  0
LINE
  5
2EA
100
AcDbEntity
  8
0
100
AcDbLine
 62
7
  6
CONTINUOUS
 10
176.587724185
 20
193.8210246013
 11
176.587724185
 21
193.9095748359
  0
LINE
  5
2EB
100
AcDbEntity
  8
0
100
AcDbLine
 62
7
  6
CONTINUOUS
 10
177.095724185
 20
168.1413986653
 11
177.095724185
 21
177.217797704
  0
LINE
  5
2EC
100
AcDbEntity
  8
0
100
AcDbLine
 62
7
  6
CONTINUOUS
 10
177.4730563973
 20
195.6649326811
 11
177.4730563973
 21
196.0660503434
  0
LINE
  5
2ED
100
AcDbEntity
  8
0
100
AcDbLine
 62
7
  6
CONTINUOUS
 10
178.2350563973
 20
193.9653087346
 11
178.2350563973
 21
195.30404523
  0
LINE
  5
2EE
100
AcDbEntity
  8
0
100
AcDbLine
 62
7
  6
CONTINUOUS
 10
178.3045290513
 20
197.2046085109
 11
178.3045290513
 21
196.9457671515
  0
LINE
  5
2EF
100
AcDbEntity
  8
0
100
AcDbLine
 62
7
  6
CONTINUOUS
 10
178.6611953445
 20
182.9108317557
 11
178.6611953445
 21
180.6970758899
  0
LINE
  5
2F0
100
AcDbEntity
  8
0
100
AcDbLine
 62
7
  6
CONTINUOUS
 10
178.7078082144
 20
191.9021925876
 11
178.7078082144
 21
192.6470101898
  0
LINE
  5
2F1
100
AcDbEntity
  8
0
100
AcDbLine
 62
7
  6
CONTINUOUS
 10
178.7789308364
 20
180.7456579518
 11
178.7789308364
 21
182.9594138176
  0
LINE
  5
2F2
100
AcDbEntity
  8
0
100
AcDbLine
 62
7
  6
CONTINUOUS
 10
179.2649387955
 20
181.7905516748
 11
179.2649387955
 21
179.576795809
  0
LINE
  5
2F3
100
AcDbEntity
  8
0
100
AcDbLine
 62
7
  6
CONTINUOUS
 10
179.508724185
 20
179.4315535808
 11
179.508724185
 21
177.2177977151
  0
LINE
  5
2F4
100
AcDbEntity
  8
0
100
AcDbLine
 62
7
  6
CONTINUOUS
 10
179.808444185
 20
180.1126382729
 11
179.808444185
 21
180.5860105713
  0
LINE
  5
2F5
100
AcDbEntity
  8
0
100
AcDbLine
 62
7
  6
CONTINUOUS
 10
174.2567332684
 20
186.7796994678
 11
174.2079656309
 21
186.662411995
  0
LINE
  5
2F6
100
AcDbEntity
  8
0
100
AcDbLine
 62
7
  6
CONTINUOUS
 10
174.2079656309
 20
184.4486561292
 11
174.2567332684
 21
184.565943602
  0
LINE
  5
2F7
100
AcDbEntity
  8
0
100
AcDbLine
 62
7
  6
CONTINUOUS
 10
175.4300602747
 20
184.08178505
 11
175.3812926372
 21
183.9644975771
  0
LINE
  5
2F8
100
AcDbEntity
  8
0
100
AcDbLine
 62
7
  6
CONTINUOUS
 10
242.246724185
 20
225.5156575763
 11
242.780124185
 21
225.5156575763
  0
LINE
  5
2F9
100
AcDbEntity
  8
0
100
AcDbLine
 62
7
  6
CONTINUOUS
 10
247.987124185
 20
225.5325748359
 11
245.320124185
 21
225.5325748359
  0
LINE
  5
2FA
100
AcDbEntity
  8
0
100
AcDbLine
 62
7
  6
CONTINUOUS
 10
239.592424185
 20
225.5926611153
 11
241.129124185
 21
225.5926611153
  0
LINE
  5
2FB
100
AcDbEntity
  8
0
100
AcDbLine
 62
7
  6
CONTINUOUS
 10
242.246724185
 20
225.9101611153
 11
242.780124185
 21
225.9101611153
  0
LINE
  5
2FC
100
AcDbEntity
  8
0
100
AcDbLine
 62
7
  6
CONTINUOUS
 10
242.246724185
 20
226.6721611153
 11
242.780124185
 21
226.6721611153
  0
LINE
  5
2FD
100
AcDbEntity
  8
0
100
AcDbLine
 62
7
  6
CONTINUOUS
 10
241.129124185
 20
226.9896611153
 11
239.592424185
 21
226.9896611153
  0
LINE
  5
2FE
100
AcDbEntity
  8
0
100
AcDbLine
 62
7
  6
CONTINUOUS
 10
247.987124185
 20
227.0565748359
 11
245.320124185
 21
227.0565748359
  0
LINE
  5
2FF
100
AcDbEntity
  8
0
100
AcDbLine
 62
7
  6
CONTINUOUS
 10
242.246724185
 20
227.0666646544
 11
242.780124185
 21
227.0666646544
  0
LINE
  5
300
100
AcDbEntity
  8
0
100
AcDbLine
 62
7
  6
CONTINUOUS
 10
242.246724185
 20
227.746099821
 11
242.780124185
 21
227.746099821
  0
LINE
  5
301
100
AcDbEntity
  8
0
100
AcDbLine
 62
7
  6
CONTINUOUS
 10
242.246724185
 20
228.4500960248
 11
242.780124185
 21
228.4500960248
  0
LINE
  5
302
100
AcDbEntity
  8
0
100
AcDbLine
 62
7
  6
CONTINUOUS
 10
242.246724185
 20
228.4996083486
 11
242.780124185
 21
228.4996083486
  0
LINE
  5
303
100
AcDbEntity
  8
0
100
AcDbLine
 62
7
  6
CONTINUOUS
 10
247.987124185
 20
228.7041611153
 11
248.596724185
 21
228.7041611153
  0
LINE
  5
304
100
AcDbEntity
  8
0
100
AcDbLine
 62
7
  6
CONTINUOUS
 10
242.246724185
 20
229.3605372978
 11
242.780124185
 21
229.3605372978
  0
LINE
  5
305
100
AcDbEntity
  8
0
100
AcDbLine
 62
7
  6
CONTINUOUS
 10
242.246724185
 20
229.8993526651
 11
242.780124185
 21
229.8993526651
  0
LINE
  5
306
100
AcDbEntity
  8
0
100
AcDbLine
 62
7
  6
CONTINUOUS
 10
232.366124185
 20
230.1232831583
 11
229.699124185
 21
230.1232831583
  0
LINE
  5
307
100
AcDbEntity
  8
0
100
AcDbLine
 62
7
  6
CONTINUOUS
 10
242.246724185
 20
230.5076900748
 11
242.780124185
 21
230.5076900748
  0
LINE
  5
308
100
AcDbEntity
  8
0
100
AcDbLine
 62
7
  6
CONTINUOUS
 10
242.246724185
 20
230.7992948503
 11
242.780124185
 21
230.7992948503
  0
LINE
  5
309
100
AcDbEntity
  8
0
100
AcDbLine
 62
7
  6
CONTINUOUS
 10
241.141824185
 20
230.9266611153
 11
242.246724185
 21
230.9266611153
  0
LINE
  5
30A
100
AcDbEntity
  8
0
100
AcDbLine
 62
7
  6
CONTINUOUS
 10
242.246724185
 20
231.0129145407
 11
242.780124185
 21
231.0129145407
  0
LINE
  5
30B
100
AcDbEntity
  8
0
100
AcDbLine
 62
7
  6
CONTINUOUS
 10
242.018124185
 20
232.3001253389
 11
241.256124185
 21
232.3001253389
  0
LINE
  5
30C
100
AcDbEntity
  8
0
100
AcDbLine
 62
7
  6
CONTINUOUS
 10
242.018124185
 20
232.9647919832
 11
241.256124185
 21
232.9647919832
  0
LINE
  5
30D
100
AcDbEntity
  8
0
100
AcDbLine
 62
7
  6
CONTINUOUS
 10
245.320124185
 20
233.4065748359
 11
247.987124185
 21
233.4065748359
  0
LINE
  5
30E
100
AcDbEntity
  8
0
100
AcDbLine
 62
7
  6
CONTINUOUS
 10
183.1059208481
 20
188.3943652642
 11
183.1015364097
 21
188.4009847327
  0
LINE
  5
30F
100
AcDbEntity
  8
0
100
AcDbLine
 62
7
  6
CONTINUOUS
 10
183.1081702808
 20
188.6566164452
 11
183.117723789
 21
188.6421536965
  0
LINE
  5
310
100
AcDbEntity
  8
0
100
AcDbLine
 62
7
  6
CONTINUOUS
 10
183.064724185
 20
188.6280955839
 11
183.0727324516
 21
188.612701501
  0
LINE
  5
311
100
AcDbEntity
  8
0
100
AcDbLine
 62
7
  6
CONTINUOUS
 10
183.0634523798
 20
188.3664677168
 11
183.0597840371
 21
188.3735222192
  0
LINE
  5
312
100
AcDbEntity
  8
0
100
AcDbLine
 62
7
  6
CONTINUOUS
 10
179.1472033036
 20
179.5282137471
 11
179.5087202021
 21
177.2177977151
  0
LINE
  5
313
100
AcDbEntity
  8
0
100
AcDbLine
 62
7
  6
CONTINUOUS
 10
181.540724185
 20
193.5885802353
 11
181.540724185
 21
193.8210246013
  0
LINE
  5
314
100
AcDbEntity
  8
0
100
AcDbLine
 62
7
  6
CONTINUOUS
 10
183.064724185
 20
163.5661495254
 11
183.064724185
 21
173.4977240421
  0
LINE
  5
315
100
AcDbEntity
  8
0
100
AcDbLine
 62
7
  6
CONTINUOUS
 10
183.064724185
 20
188.3760910971
 11
183.064724185
 21
192.0703795155
  0
LINE
  5
316
100
AcDbEntity
  8
0
100
AcDbLine
 62
7
  6
CONTINUOUS
 10
183.699724185
 20
188.9735646598
 11
183.699724185
 21
187.5103520457
  0
LINE
  5
317
100
AcDbEntity
  8
0
100
AcDbLine
 62
7
  6
CONTINUOUS
 10
185.5268922438
 20
180.1361370084
 11
185.5268922438
 21
180.8809546107
  0
LINE
  5
318
100
AcDbEntity
  8
0
100
AcDbLine
 62
7
  6
CONTINUOUS
 10
225.863724185
 20
211.0545748359
 11
226.625724185
 21
211.8165748359
  0
LINE
  5
319
100
AcDbEntity
  8
0
100
AcDbLine
 62
7
  6
CONTINUOUS
 10
229.699124185
 20
239.1723748359
 11
232.366124185
 21
239.1723748359
  0
LINE
  5
31A
100
AcDbEntity
  8
0
100
AcDbLine
 62
7
  6
CONTINUOUS
 10
235.033124185
 20
248.2989367594
 11
232.366124185
 21
248.2989367594
  0
LINE
  5
31B
100
AcDbEntity
  8
0
100
AcDbLine
 62
7
  6
CONTINUOUS
 10
247.987124185
 20
249.2433512981
 11
248.596724185
 21
249.2433512981
  0
LINE
  5
31C
100
AcDbEntity
  8
0
100
AcDbLine
 62
7
  6
CONTINUOUS
 10
242.246724185
 20
250.2014125924
 11
242.780124185
 21
250.2014125924
  0
LINE
  5
31D
100
AcDbEntity
  8
0
100
AcDbLine
 62
7
  6
CONTINUOUS
 10
242.246724185
 20
250.880847759
 11
242.780124185
 21
250.880847759
  0
LINE
  5
31E
100
AcDbEntity
  8
0
100
AcDbLine
 62
7
  6
CONTINUOUS
 10
239.592424185
 20
250.9578512981
 11
241.129124185
 21
250.9578512981
  0
LINE
  5
31F
100
AcDbEntity
  8
0
100
AcDbLine
 62
7
  6
CONTINUOUS
 10
242.246724185
 20
251.2753512981
 11
242.780124185
 21
251.2753512981
  0
LINE
  5
320
100
AcDbEntity
  8
0
100
AcDbLine
 62
7
  6
CONTINUOUS
 10
232.366124185
 20
251.4913748359
 11
229.699124185
 21
251.4913748359
  0
LINE
  5
321
100
AcDbEntity
  8
0
100
AcDbLine
 62
7
  6
CONTINUOUS
 10
242.246724185
 20
252.0373512981
 11
242.780124185
 21
252.0373512981
  0
LINE
  5
322
100
AcDbEntity
  8
0
100
AcDbLine
 62
7
  6
CONTINUOUS
 10
224.682624185
 20
252.1263748359
 11
232.366124185
 21
252.1263748359
  0
LINE
  5
323
100
AcDbEntity
  8
0
100
AcDbLine
 62
7
  6
CONTINUOUS
 10
241.129124185
 20
252.3548512981
 11
239.592424185
 21
252.3548512981
  0
LINE
  5
324
100
AcDbEntity
  8
0
100
AcDbLine
 62
7
  6
CONTINUOUS
 10
242.246724185
 20
252.4318548371
 11
242.780124185
 21
252.4318548371
  0
LINE
  5
325
100
AcDbEntity
  8
0
100
AcDbLine
 62
7
  6
CONTINUOUS
 10
242.246724185
 20
253.1112900038
 11
242.780124185
 21
253.1112900038
  0
LINE
  5
326
100
AcDbEntity
  8
0
100
AcDbLine
 62
7
  6
CONTINUOUS
 10
242.246724185
 20
253.8152862076
 11
242.780124185
 21
253.8152862076
  0
LINE
  5
327
100
AcDbEntity
  8
0
100
AcDbLine
 62
7
  6
CONTINUOUS
 10
242.246724185
 20
253.8647985314
 11
242.780124185
 21
253.8647985314
  0
LINE
  5
328
100
AcDbEntity
  8
0
100
AcDbLine
 62
7
  6
CONTINUOUS
 10
235.033124185
 20
253.9386221789
 11
232.366124185
 21
253.9386221789
  0
LINE
  5
329
100
AcDbEntity
  8
0
100
AcDbLine
 62
7
  6
CONTINUOUS
 10
247.987124185
 20
254.0693512981
 11
248.596724185
 21
254.0693512981
  0
LINE
  5
32A
100
AcDbEntity
  8
0
100
AcDbLine
 62
7
  6
CONTINUOUS
 10
242.246724185
 20
254.7257274806
 11
242.780124185
 21
254.7257274806
  0
LINE
  5
32B
100
AcDbEntity
  8
0
100
AcDbLine
 62
7
  6
CONTINUOUS
 10
242.246724185
 20
255.2645428479
 11
242.780124185
 21
255.2645428479
  0
LINE
  5
32C
100
AcDbEntity
  8
0
100
AcDbLine
 62
7
  6
CONTINUOUS
 10
236.811124185
 20
197.9100748359
 11
236.430124185
 21
197.5290748359
  0
LINE
  5
32D
100
AcDbEntity
  8
0
100
AcDbLine
 62
7
  6
CONTINUOUS
 10
242.246724185
 20
255.8728802576
 11
242.780124185
 21
255.8728802576
  0
LINE
  5
32E
100
AcDbEntity
  8
0
100
AcDbLine
 62
7
  6
CONTINUOUS
 10
242.246724185
 20
256.1644850331
 11
242.780124185
 21
256.1644850331
  0
LINE
  5
32F
100
AcDbEntity
  8
0
100
AcDbLine
 62
7
  6
CONTINUOUS
 10
241.141824185
 20
256.2918512981
 11
242.246724185
 21
256.2918512981
  0
LINE
  5
330
100
AcDbEntity
  8
0
100
AcDbLine
 62
7
  6
CONTINUOUS
 10
242.246724185
 20
256.3781047235
 11
242.780124185
 21
256.3781047235
  0
LINE
  5
331
100
AcDbEntity
  8
0
100
AcDbLine
 62
7
  6
CONTINUOUS
 10
244.304124185
 20
256.6308366096
 11
242.780124185
 21
256.6308366096
  0
LINE
  5
332
100
AcDbEntity
  8
0
100
AcDbLine
 62
7
  6
CONTINUOUS
 10
244.304124185
 20
258.0150537524
 11
242.780124185
 21
258.0150537524
  0
LINE
  5
333
100
AcDbEntity
  8
0
100
AcDbLine
 62
7
  6
CONTINUOUS
 10
224.682624185
 20
259.7463748359
 11
232.366124185
 21
259.7463748359
  0
LINE
  5
334
100
AcDbEntity
  8
0
100
AcDbLine
 62
7
  6
CONTINUOUS
 10
229.699124185
 20
260.3813748359
 11
232.366124185
 21
260.3813748359
  0
LINE
  5
335
100
AcDbEntity
  8
0
100
AcDbLine
 62
7
  6
CONTINUOUS
 10
232.366124185
 20
264.1913748359
 11
229.699124185
 21
264.1913748359
  0
LINE
  5
336
100
AcDbEntity
  8
0
100
AcDbLine
 62
7
  6
CONTINUOUS
 10
224.682624185
 20
264.8263748359
 11
232.366124185
 21
264.8263748359
  0
LINE
  5
337
100
AcDbEntity
  8
0
100
AcDbLine
 62
7
  6
CONTINUOUS
 10
234.398124185
 20
265.1596131878
 11
237.065124185
 21
265.1596131878
  0
LINE
  5
338
100
AcDbEntity
  8
0
100
AcDbLine
 62
7
  6
CONTINUOUS
 10
225.863724185
 20
199.8785748359
 11
226.625724185
 21
199.1165748359
  0
LINE
  5
339
100
AcDbEntity
  8
0
100
AcDbLine
 62
7
  6
CONTINUOUS
 10
211.284124185
 20
296.0175748359
 11
211.284124185
 21
293.3505748359
  0
LINE
  5
33A
100
AcDbEntity
  8
0
100
AcDbLine
 62
7
  6
CONTINUOUS
 10
216.364124185
 20
221.3415748359
 11
216.364124185
 21
224.0085748359
  0
LINE
  5
33B
100
AcDbEntity
  8
0
100
AcDbLine
 62
7
  6
CONTINUOUS
 10
217.888124185
 20
224.0085748359
 11
217.888124185
 21
221.3415748359
  0
LINE
  5
33C
100
AcDbEntity
  8
0
100
AcDbLine
 62
7
  6
CONTINUOUS
 10
219.920124185
 20
221.3415748359
 11
219.920124185
 21
224.0085748359
  0
LINE
  5
33D
100
AcDbEntity
  8
0
100
AcDbLine
 62
7
  6
CONTINUOUS
 10
238.0665557185
 20
234.7830254718
 11
238.1768096921
 21
235.0131416818
  0
LINE
  5
33E
100
AcDbEntity
  8
0
100
AcDbLine
 62
7
  6
CONTINUOUS
 10
239.32242849
 20
234.4657527882
 11
239.2121745164
 21
234.2356365782
  0
LINE
  5
33F
100
AcDbEntity
  8
0
100
AcDbLine
 62
7
  6
CONTINUOUS
 10
224.682624185
 20
272.4463748359
 11
232.366124185
 21
272.4463748359
  0
LINE
  5
340
100
AcDbEntity
  8
0
100
AcDbLine
 62
7
  6
CONTINUOUS
 10
221.444124185
 20
221.3415748359
 11
221.444124185
 21
224.0085748359
  0
LINE
  5
341
100
AcDbEntity
  8
0
100
AcDbLine
 62
7
  6
CONTINUOUS
 10
224.2879469003
 20
224.0085748359
 11
224.2879469003
 21
221.3415748359
  0
LINE
  5
342
100
AcDbEntity
  8
0
100
AcDbLine
 62
7
  6
CONTINUOUS
 10
225.863724185
 20
211.0545748359
 11
225.863724185
 21
199.8785748359
  0
LINE
  5
343
100
AcDbEntity
  8
0
100
AcDbLine
 62
7
  6
CONTINUOUS
 10
226.625724185
 20
211.8165748359
 11
226.625724185
 21
199.1165748359
  0
LINE
  5
344
100
AcDbEntity
  8
0
100
AcDbLine
 62
7
  6
CONTINUOUS
 10
228.149724185
 20
199.1166553812
 11
228.149724185
 21
211.8164942906
  0
LINE
  5
345
100
AcDbEntity
  8
0
100
AcDbLine
 62
7
  6
CONTINUOUS
 10
228.251324185
 20
215.8805280329
 11
228.251324185
 21
209.7413948359
  0
LINE
  5
346
100
AcDbEntity
  8
0
100
AcDbLine
 62
7
  6
CONTINUOUS
 10
228.251324185
 20
201.1917548359
 11
228.251324185
 21
195.0526377145
  0
LINE
  5
347
100
AcDbEntity
  8
0
100
AcDbLine
 62
7
  6
CONTINUOUS
 10
228.8340029199
 20
221.3415748359
 11
228.8340029199
 21
224.0085748359
  0
LINE
  5
348
100
AcDbEntity
  8
0
100
AcDbLine
 62
7
  6
CONTINUOUS
 10
229.191124185
 20
252.1263748359
 11
229.191124185
 21
259.7463748359
  0
LINE
  5
349
100
AcDbEntity
  8
0
100
AcDbLine
 62
7
  6
CONTINUOUS
 10
229.191124185
 20
264.8263748359
 11
229.191124185
 21
272.4463748359
  0
LINE
  5
34A
100
AcDbEntity
  8
0
100
AcDbLine
 62
7
  6
CONTINUOUS
 10
229.318124185
 20
195.052651598
 11
229.318124185
 21
215.8805119573
  0
LINE
  5
34B
100
AcDbEntity
  8
0
100
AcDbLine
 62
7
  6
CONTINUOUS
 10
229.699124185
 20
264.8263748359
 11
229.699124185
 21
259.7463748359
  0
LINE
  5
34C
100
AcDbEntity
  8
0
100
AcDbLine
 62
7
  6
CONTINUOUS
 10
229.699124185
 20
252.1263748359
 11
229.699124185
 21
224.0085748359
  0
LINE
  5
34D
100
AcDbEntity
  8
0
100
AcDbLine
 62
7
  6
CONTINUOUS
 10
229.699124185
 20
221.3415748359
 11
229.699124185
 21
192.7668030004
  0
LINE
  5
34E
100
AcDbEntity
  8
0
100
AcDbLine
 62
7
  6
CONTINUOUS
 10
230.1538256353
 20
224.0085748359
 11
230.1538256353
 21
221.3415748359
  0
LINE
  5
34F
100
AcDbEntity
  8
0
100
AcDbLine
 62
7
  6
CONTINUOUS
 10
243.0341541981
 20
266.2707991023
 11
244.304124185
 21
271.8032284998
  0
LINE
  5
350
100
AcDbEntity
  8
0
100
AcDbLine
 62
7
  6
CONTINUOUS
 10
234.398124185
 20
279.2281748359
 11
237.065124185
 21
279.2281748359
  0
LINE
  5
351
100
AcDbEntity
  8
0
100
AcDbLine
 62
7
  6
CONTINUOUS
 10
235.7434311081
 20
241.901936543
 11
235.512999099
 21
242.0120394173
  0
LINE
  5
352
100
AcDbEntity
  8
0
100
AcDbLine
 62
7
  6
CONTINUOUS
 10
236.811124185
 20
213.0230748359
 11
236.430124185
 21
213.4040748359
  0
LINE
  5
353
100
AcDbEntity
  8
0
100
AcDbLine
 62
7
  6
CONTINUOUS
 10
232.366124185
 20
192.7665748359
 11
232.366124185
 21
221.3415748359
  0
LINE
  5
354
100
AcDbEntity
  8
0
100
AcDbLine
 62
7
  6
CONTINUOUS
 10
232.366124185
 20
224.0085748359
 11
232.366124185
 21
272.4463748359
  0
LINE
  5
355
100
AcDbEntity
  8
0
100
AcDbLine
 62
7
  6
CONTINUOUS
 10
234.144124185
 20
237.6312643229
 11
234.144124185
 21
237.2457576692
  0
LINE
  5
356
100
AcDbEntity
  8
0
100
AcDbLine
 62
7
  6
CONTINUOUS
 10
234.398124185
 20
279.2281748359
 11
234.398124185
 21
259.4161748359
  0
LINE
  5
357
100
AcDbEntity
  8
0
100
AcDbLine
 62
7
  6
CONTINUOUS
 10
234.906124185
 20
238.6282642893
 11
234.906124185
 21
238.242092969
  0
LINE
  5
358
100
AcDbEntity
  8
0
100
AcDbLine
 62
7
  6
CONTINUOUS
 10
234.906124185
 20
237.9509689788
 11
234.906124185
 21
237.6312643168
  0
LINE
  5
359
100
AcDbEntity
  8
0
100
AcDbLine
 62
7
  6
CONTINUOUS
 10
235.033124185
 20
192.7665748359
 11
235.033124185
 21
221.3415748359
  0
LINE
  5
35A
100
AcDbEntity
  8
0
100
AcDbLine
 62
7
  6
CONTINUOUS
 10
235.033124185
 20
224.0085748359
 11
235.033124185
 21
233.9520903189
  0
LINE
  5
35B
100
AcDbEntity
  8
0
100
AcDbLine
 62
7
  6
CONTINUOUS
 10
235.033124185
 20
240.9053526073
 11
235.033124185
 21
256.7491748359
  0
LINE
  5
35C
100
AcDbEntity
  8
0
100
AcDbLine
 62
7
  6
CONTINUOUS
 10
235.327349582
 20
237.2254573821
 11
235.327349582
 21
238.5547906707
  0
LINE
  5
35D
100
AcDbEntity
  8
0
100
AcDbLine
 62
7
  6
CONTINUOUS
 10
235.414124185
 20
238.6548509551
 11
235.414124185
 21
239.9708909108
  0
LINE
  5
35E
100
AcDbEntity
  8
0
100
AcDbLine
 62
7
  6
CONTINUOUS
 10
235.7498308205
 20
237.3587636308
 11
235.7498308205
 21
236.0294303422
  0
LINE
  5
35F
100
AcDbEntity
  8
0
100
AcDbLine
 62
7
  6
CONTINUOUS
 10
235.9907321891
 20
236.1275859186
 11
235.9907321891
 21
237.4436258743
  0
LINE
  5
360
100
AcDbEntity
  8
0
100
AcDbLine
 62
7
  6
CONTINUOUS
 10
236.049124185
 20
245.1552907362
 11
236.049124185
 21
239.9708909028
  0
LINE
  5
361
100
AcDbEntity
  8
0
100
AcDbLine
 62
7
  6
CONTINUOUS
 10
236.112624185
 20
235.2262489605
 11
236.112624185
 21
235.2838107804
  0
LINE
  5
362
100
AcDbEntity
  8
0
100
AcDbLine
 62
7
  6
CONTINUOUS
 10
236.430124185
 20
197.5290748359
 11
236.430124185
 21
213.4040748359
  0
LINE
  5
363
100
AcDbEntity
  8
0
100
AcDbLine
 62
7
  6
CONTINUOUS
 10
236.811124185
 20
197.9100748359
 11
236.811124185
 21
213.0230748359
  0
LINE
  5
364
100
AcDbEntity
  8
0
100
AcDbLine
 62
7
  6
CONTINUOUS
 10
237.065124185
 20
259.3394767488
 11
237.065124185
 21
279.2281748359
  0
LINE
  5
365
100
AcDbEntity
  8
0
100
AcDbLine
 62
7
  6
CONTINUOUS
 10
238.0665557185
 20
233.4536921832
 11
238.0665557185
 21
234.7830254718
  0
LINE
  5
366
100
AcDbEntity
  8
0
100
AcDbLine
 62
7
  6
CONTINUOUS
 10
239.32242849
 20
233.1497128325
 11
239.32242849
 21
234.4657527882
  0
LINE
  5
367
100
AcDbEntity
  8
0
100
AcDbLine
 62
7
  6
CONTINUOUS
 10
239.592424185
 20
254.7424080384
 11
239.592424185
 21
252.3548512981
  0
LINE
  5
368
100
AcDbEntity
  8
0
100
AcDbLine
 62
7
  6
CONTINUOUS
 10
239.592424185
 20
250.9578512981
 11
239.592424185
 21
249.9561345734
  0
LINE
  5
369
100
AcDbEntity
  8
0
100
AcDbLine
 62
7
  6
CONTINUOUS
 10
239.592424185
 20
229.3772178556
 11
239.592424185
 21
226.9896611153
  0
LINE
  5
36A
100
AcDbEntity
  8
0
100
AcDbLine
 62
7
  6
CONTINUOUS
 10
239.592424185
 20
225.5926611153
 11
239.592424185
 21
224.0085748359
  0
LINE
  5
36B
100
AcDbEntity
  8
0
100
AcDbLine
 62
7
  6
CONTINUOUS
 10
238.0856794486
 20
245.3250729515
 11
238.0815774367
 21
245.1552912209
  0
LINE
  5
36C
100
AcDbEntity
  8
0
100
AcDbLine
 62
7
  6
CONTINUOUS
 10
236.0494899125
 20
245.1552908415
 11
236.0565948173
 21
245.4337335693
  0
LINE
  5
36D
100
AcDbEntity
  8
0
100
AcDbLine
 62
7
  6
CONTINUOUS
 10
234.1442028356
 20
237.6312643142
 11
234.1543279754
 21
238.0115764852
  0
LINE
  5
36E
100
AcDbEntity
  8
0
100
AcDbLine
 62
7
  6
CONTINUOUS
 10
235.4141330782
 20
239.9708909103
 11
235.42250587
 21
240.283290187
  0
LINE
  5
36F
100
AcDbEntity
  8
0
100
AcDbLine
 62
7
  6
CONTINUOUS
 10
211.284124185
 20
293.3505748359
 11
243.796124185
 21
293.3505748359
  0
LINE
  5
370
100
AcDbEntity
  8
0
100
AcDbLine
 62
7
  6
CONTINUOUS
 10
244.304124185
 20
219.9411611153
 11
245.2659317959
 21
218.7152456254
  0
LINE
  5
371
100
AcDbEntity
  8
0
100
AcDbLine
 62
7
  6
CONTINUOUS
 10
241.129124185
 20
252.3548512981
 11
241.129124185
 21
250.9578512981
  0
LINE
  5
372
100
AcDbEntity
  8
0
100
AcDbLine
 62
7
  6
CONTINUOUS
 10
241.129124185
 20
226.9896611153
 11
241.129124185
 21
225.5926611153
  0
LINE
  5
373
100
AcDbEntity
  8
0
100
AcDbLine
 62
7
  6
CONTINUOUS
 10
241.141824185
 20
256.2918512981
 11
241.141824185
 21
250.2372188381
  0
LINE
  5
374
100
AcDbEntity
  8
0
100
AcDbLine
 62
7
  6
CONTINUOUS
 10
241.141824185
 20
230.9266611153
 11
241.141824185
 21
224.0085748359
  0
LINE
  5
375
100
AcDbEntity
  8
0
100
AcDbLine
 62
7
  6
CONTINUOUS
 10
241.256124185
 20
232.9647919832
 11
241.256124185
 21
232.3001253389
  0
LINE
  5
376
100
AcDbEntity
  8
0
100
AcDbLine
 62
7
  6
CONTINUOUS
 10
242.018124185
 20
232.3001253389
 11
242.018124185
 21
232.9647919832
  0
LINE
  5
377
100
AcDbEntity
  8
0
100
AcDbLine
 62
7
  6
CONTINUOUS
 10
242.246724185
 20
224.0085748359
 11
242.246724185
 21
231.0129145407
  0
LINE
  5
378
100
AcDbEntity
  8
0
100
AcDbLine
 62
7
  6
CONTINUOUS
 10
242.246724185
 20
250.2892720161
 11
242.246724185
 21
256.3781047235
  0
LINE
  5
379
100
AcDbEntity
  8
0
100
AcDbLine
 62
7
  6
CONTINUOUS
 10
242.6741678046
 20
232.7209081988
 11
242.6741678046
 21
234.0502414873
  0
LINE
  5
37A
100
AcDbEntity
  8
0
100
AcDbLine
 62
7
  6
CONTINUOUS
 10
242.780124185
 20
221.3415748359
 11
242.780124185
 21
219.9325434102
  0
LINE
  5
37B
100
AcDbEntity
  8
0
100
AcDbLine
 62
7
  6
CONTINUOUS
 10
242.780124185
 20
224.0085748359
 11
242.780124185
 21
232.2038362777
  0
LINE
  5
37C
100
AcDbEntity
  8
0
100
AcDbLine
 62
7
  6
CONTINUOUS
 10
242.780124185
 20
250.1003783235
 11
242.780124185
 21
258.0149690032
  0
LINE
  5
37D
100
AcDbEntity
  8
0
100
AcDbLine
 62
7
  6
CONTINUOUS
 10
243.796124185
 20
218.1665748359
 11
243.796124185
 21
192.7665748359
  0
LINE
  5
37E
100
AcDbEntity
  8
0
100
AcDbLine
 62
7
  6
CONTINUOUS
 10
243.8718362074
 20
234.47214373
 11
243.8718362074
 21
233.4636193736
  0
LINE
  5
37F
100
AcDbEntity
  8
0
100
AcDbLine
 62
7
  6
CONTINUOUS
 10
244.304124185
 20
232.2038362777
 11
244.304124185
 21
224.1737902149
  0
LINE
  5
380
100
AcDbEntity
  8
0
100
AcDbLine
 62
7
  6
CONTINUOUS
 10
244.304124185
 20
219.9325434102
 11
244.304124185
 21
221.4778621168
  0
LINE
  5
381
100
AcDbEntity
  8
0
100
AcDbLine
 62
7
  6
CONTINUOUS
 10
244.304124185
 20
249.2699590836
 11
244.304124185
 21
285.2574878618
  0
LINE
  5
382
100
AcDbEntity
  8
0
100
AcDbLine
 62
7
  6
CONTINUOUS
 10
245.193124185
 20
218.8080458664
 11
245.193124185
 21
190.3468998577
  0
LINE
  5
383
100
AcDbEntity
  8
0
100
AcDbLine
 62
7
  6
CONTINUOUS
 10
245.2659317959
 20
286.4835751444
 11
245.2659317959
 21
248.270013158
  0
LINE
  5
384
100
AcDbEntity
  8
0
100
AcDbLine
 62
7
  6
CONTINUOUS
 10
245.265931796
 20
233.4065748359
 11
245.2659317959
 21
225.3659289567
  0
LINE
  5
385
100
AcDbEntity
  8
0
100
AcDbLine
 62
7
  6
CONTINUOUS
 10
245.2659317959
 20
221.7358978333
 11
245.2659317959
 21
218.7152456254
  0
LINE
  5
386
100
AcDbEntity
  8
0
100
AcDbLine
 62
7
  6
CONTINUOUS
 10
245.320124185
 20
291.8265748359
 11
245.320124185
 21
248.1946452272
  0
LINE
  5
387
100
AcDbEntity
  8
0
100
AcDbLine
 62
7
  6
CONTINUOUS
 10
245.320124185
 20
233.4065748359
 11
245.320124185
 21
225.5325748359
  0
LINE
  5
388
100
AcDbEntity
  8
0
100
AcDbLine
 62
7
  6
CONTINUOUS
 10
245.320124185
 20
221.7504366785
 11
245.320124185
 21
185.4005748359
  0
LINE
  5
389
100
AcDbEntity
  8
0
100
AcDbLine
 62
7
  6
CONTINUOUS
 10
247.987124185
 20
185.4005748359
 11
247.987124185
 21
291.8265748359
  0
LINE
  5
38A
100
AcDbEntity
  8
0
100
AcDbLine
 62
7
  6
CONTINUOUS
 10
248.368124185
 20
237.6312643229
 11
248.368124185
 21
237.2457576692
  0
LINE
  5
38B
100
AcDbEntity
  8
0
100
AcDbLine
 62
7
  6
CONTINUOUS
 10
248.596724185
 20
223.8782001801
 11
248.596724185
 21
228.7041220505
  0
LINE
  5
38C
100
AcDbEntity
  8
0
100
AcDbLine
 62
7
  6
CONTINUOUS
 10
248.596724185
 20
249.2433903629
 11
248.596724185
 21
254.0693122333
  0
LINE
  5
38D
100
AcDbEntity
  8
0
100
AcDbLine
 62
7
  6
CONTINUOUS
 10
244.4265689214
 20
244.9855085209
 11
244.4306709332
 21
245.1552902514
  0
LINE
  5
38E
100
AcDbEntity
  8
0
100
AcDbLine
 62
7
  6
CONTINUOUS
 10
246.4627584574
 20
245.1552906309
 11
246.4556535527
 21
244.876847903
  0
LINE
  5
38F
100
AcDbEntity
  8
0
100
AcDbLine
 62
7
  6
CONTINUOUS
 10
248.3680455343
 20
237.6312643316
 11
248.3579203945
 21
237.2509521605
  0
LINE
  5
390
100
AcDbEntity
  8
0
100
AcDbLine
 62
7
  6
CONTINUOUS
 10
248.3579203945
 20
236.8654455069
 11
248.368124185
 21
237.2457576692
  0
LINE
  5
391
100
AcDbEntity
  8
0
100
AcDbLine
 62
7
  6
CONTINUOUS
 10
211.284124185
 20
296.0175748359
 11
243.796124185
 21
296.0175748359
  0
LINE
  5
392
100
AcDbEntity
  8
0
100
AcDbLine
 62
7
  6
CONTINUOUS
 10
242.6741678046
 20
234.0502414873
 11
242.5891891007
 21
234.290812709
  0
LINE
  5
393
100
AcDbEntity
  8
0
100
AcDbLine
 62
7
  6
CONTINUOUS
 10
235.033124185
 20
256.7491748359
 11
233.1093113123
 21
258.6729877085
  0
LINE
  5
394
100
AcDbEntity
  8
0
100
AcDbLine
 62
7
  6
CONTINUOUS
 10
234.398124185
 20
259.4161748359
 11
236.3219370576
 21
257.4923619632
  0
LINE
  5
395
100
AcDbEntity
  8
0
100
AcDbLine
 62
7
  6
CONTINUOUS
 10
243.7868575035
 20
234.7127149516
 11
243.8718362074
 21
234.47214373
  0
LINE
  5
396
100
AcDbEntity
  8
0
100
AcDbLine
 62
7
  6
CONTINUOUS
 10
244.304124185
 20
260.7383697048
 11
243.0341541981
 21
266.2707991023
  0
ARC
  5
397
100
AcDbEntity
  8
0
100
AcDbCircle
 62
7
  6
CONTINUOUS
 10
-201.7142603841
 20
-469.5395749851
 40
763.0279350289
100
AcDbArc
 50
60.5014986738
 51
60.6835953163
  0
ARC
  5
398
100
AcDbEntity
  8
0
100
AcDbCircle
 62
7
  6
CONTINUOUS
 10
170.4095446481
 20
-516.3905587598
 40
709.0861268987
100
AcDbArc
 50
89.329466034
 51
89.5006899146
  0
ARC
  5
399
100
AcDbEntity
  8
0
100
AcDbCircle
 62
7
  6
CONTINUOUS
 10
171.7699915361
 20
-358.8866661594
 40
551.5763595522
100
AcDbArc
 50
89.4994255719
 51
89.987666477
  0
ARC
  5
39A
100
AcDbEntity
  8
0
100
AcDbCircle
 62
7
  6
CONTINUOUS
 10
46.082524185
 20
99.4215748359
 40
6.604
100
AcDbArc
 50
180.0
 51
270.0
  0
ARC
  5
39B
100
AcDbEntity
  8
0
100
AcDbCircle
 62
7
  6
CONTINUOUS
 10
46.082524185
 20
99.4215748359
 40
3.9624
100
AcDbArc
 50
180.0
 51
270.0
  0
ARC
  5
39C
100
AcDbEntity
  8
0
100
AcDbCircle
 62
7
  6
CONTINUOUS
 10
112.7839129962
 20
31.9537490387
 40
230.0794184107
100
AcDbArc
 50
56.5879643323
 51
56.9613390136
  0
ARC
  5
39D
100
AcDbEntity
  8
0
100
AcDbCircle
 62
7
  6
CONTINUOUS
 10
149.155724185
 20
99.4215748359
 40
6.604
100
AcDbArc
 50
270.0
 51
360.0
  0
ARC
  5
39E
100
AcDbEntity
  8
0
100
AcDbCircle
 62
7
  6
CONTINUOUS
 10
149.155724185
 20
99.4215748359
 40
3.9624
100
AcDbArc
 50
270.0
 51
360.0
  0
ARC
  5
39F
100
AcDbEntity
  8
0
100
AcDbCircle
 62
7
  6
CONTINUOUS
 10
171.8870472403
 20
177.1593420222
 40
7.7764489862
100
AcDbArc
 50
62.8959336551
 51
72.2583211067
  0
ARC
  5
3A0
100
AcDbEntity
  8
0
100
AcDbCircle
 62
7
  6
CONTINUOUS
 10
171.8545230703
 20
177.226106826
 40
7.7142274776
100
AcDbArc
 50
197.8710324855
 51
207.28363869
  0
ARC
  5
3A1
100
AcDbEntity
  8
0
100
AcDbCircle
 62
7
  6
CONTINUOUS
 10
171.8545230702
 20
177.2094886041
 40
7.7142274775
100
AcDbArc
 50
152.71636131
 51
162.1289675145
  0
ARC
  5
3A2
100
AcDbEntity
  8
0
100
AcDbCircle
 62
7
  6
CONTINUOUS
 10
171.8885460368
 20
177.1622197037
 40
7.6465816128
100
AcDbArc
 50
89.9986651373
 51
107.6547775874
  0
ARC
  5
3A3
100
AcDbEntity
  8
0
100
AcDbCircle
 62
7
  6
CONTINUOUS
 10
171.8593879916
 20
177.2300990212
 40
7.5934838147
100
AcDbArc
 50
207.3750151183
 51
226.7891463154
  0
ARC
  5
3A4
100
AcDbEntity
  8
0
100
AcDbCircle
 62
7
  6
CONTINUOUS
 10
171.8338112488
 20
177.2180450338
 40
7.5650863092
100
AcDbArc
 50
181.3623545596
 51
197.7845051866
  0
ARC
  5
3A5
100
AcDbEntity
  8
0
100
AcDbCircle
 62
7
  6
CONTINUOUS
 10
171.8261391724
 20
177.2178180347
 40
7.5574110046
100
AcDbArc
 50
180.0001540517
 51
181.3620169694
  0
ARC
  5
3A6
100
AcDbEntity
  8
0
100
AcDbCircle
 62
7
  6
CONTINUOUS
 10
171.8883394253
 20
181.1939110357
 40
13.4826671583
100
AcDbArc
 50
89.9983649299
 51
107.9815399362
  0
ARC
  5
3A7
100
AcDbEntity
  8
0
100
AcDbCircle
 62
7
  6
CONTINUOUS
 10
171.8882568372
 20
181.2965046885
 40
13.4819062779
100
AcDbArc
 50
89.9980138527
 51
109.6133836045
  0
ARC
  5
3A8
100
AcDbEntity
  8
0
100
AcDbCircle
 62
7
  6
CONTINUOUS
 10
171.8875151618
 20
180.8316895262
 40
13.4773781881
100
AcDbArc
 50
89.994860144
 51
117.9027644039
  0
ARC
  5
3A9
100
AcDbEntity
  8
0
100
AcDbCircle
 62
7
  6
CONTINUOUS
 10
171.8874080564
 20
180.9340986741
 40
13.4767997332
100
AcDbArc
 50
89.9944045729
 51
118.7538147446
  0
ARC
  5
3AA
100
AcDbEntity
  8
0
100
AcDbCircle
 62
7
  6
CONTINUOUS
 10
171.8758935215
 20
180.8571013143
 40
13.4494577046
100
AcDbArc
 50
117.9096720098
 51
122.2444636874
  0
ARC
  5
3AB
100
AcDbEntity
  8
0
100
AcDbCircle
 62
7
  6
CONTINUOUS
 10
171.7955610794
 20
180.9236355854
 40
13.3434182931
100
AcDbArc
 50
178.5866302966
 51
179.5631888301
  0
ARC
  5
3AC
100
AcDbEntity
  8
0
100
AcDbCircle
 62
7
  6
CONTINUOUS
 10
171.8051400866
 20
180.0934665847
 40
11.7273176852
100
AcDbArc
 50
149.8909010822
 51
210.1090989178
  0
ARC
  5
3AD
100
AcDbEntity
  8
0
100
AcDbCircle
 62
7
  6
CONTINUOUS
 10
171.8278551446
 20
180.0933880252
 40
8.2576035264
100
AcDbArc
 50
161.7233416845
 51
204.2739574418
  0
ARC
  5
3AE
100
AcDbEntity
  8
0
100
AcDbCircle
 62
7
  6
CONTINUOUS
 10
171.8397170945
 20
179.4315471795
 40
7.8884566526
100
AcDbArc
 50
179.5184312837
 51
179.9999536037
  0
ARC
  5
3AF
100
AcDbEntity
  8
0
100
AcDbCircle
 62
7
  6
CONTINUOUS
 10
171.8314248881
 20
179.4313576146
 40
7.8801663366
100
AcDbArc
 50
162.1507670186
 51
179.5165462849
  0
ARC
  5
3B0
100
AcDbEntity
  8
0
100
AcDbCircle
 62
7
  6
CONTINUOUS
 10
171.8310808642
 20
179.4317307879
 40
7.8798204242
100
AcDbArc
 50
180.0012886067
 51
192.817670877
  0
ARC
  5
3B1
100
AcDbEntity
  8
0
100
AcDbCircle
 62
7
  6
CONTINUOUS
 10
171.8870472403
 20
179.373097888
 40
7.7764489862
100
AcDbArc
 50
62.8959336551
 51
72.2583211067
  0
ARC
  5
3B2
100
AcDbEntity
  8
0
100
AcDbCircle
 62
7
  6
CONTINUOUS
 10
171.8545230702
 20
179.4232444699
 40
7.7142274775
100
AcDbArc
 50
152.71636131
 51
162.1289675145
  0
ARC
  5
3B3
100
AcDbEntity
  8
0
100
AcDbCircle
 62
7
  6
CONTINUOUS
 10
171.8885460368
 20
179.3759755695
 40
7.6465816128
100
AcDbArc
 50
89.9986651373
 51
107.6547775874
  0
ARC
  5
3B4
100
AcDbEntity
  8
0
100
AcDbCircle
 62
7
  6
CONTINUOUS
 10
171.8478183122
 20
179.429543383
 40
7.579131461
100
AcDbArc
 50
167.9946662526
 51
178.6268399551
  0
ARC
  5
3B5
100
AcDbEntity
  8
0
100
AcDbCircle
 62
7
  6
CONTINUOUS
 10
171.8261391724
 20
179.4315332612
 40
7.5574110047
100
AcDbArc
 50
178.6379830306
 51
179.9998459483
  0
ARC
  5
3B6
100
AcDbEntity
  8
0
100
AcDbCircle
 62
7
  6
CONTINUOUS
 10
171.8904011296
 20
177.1593420222
 40
7.7764489862
100
AcDbArc
 50
107.7416788933
 51
117.1040663449
  0
ARC
  5
3B7
100
AcDbEntity
  8
0
100
AcDbCircle
 62
7
  6
CONTINUOUS
 10
171.9229252997
 20
177.226106826
 40
7.7142274775
100
AcDbArc
 50
332.71636131
 51
342.1289675145
  0
ARC
  5
3B8
100
AcDbEntity
  8
0
100
AcDbCircle
 62
7
  6
CONTINUOUS
 10
171.9229252997
 20
177.2094886041
 40
7.7142274776
100
AcDbArc
 50
17.8710324855
 51
27.28363869
  0
ARC
  5
3B9
100
AcDbEntity
  8
0
100
AcDbCircle
 62
7
  6
CONTINUOUS
 10
171.8889023331
 20
177.1622197037
 40
7.6465816128
100
AcDbArc
 50
72.3452224125
 51
90.0013348627
  0
ARC
  5
3BA
100
AcDbEntity
  8
0
100
AcDbCircle
 62
7
  6
CONTINUOUS
 10
171.9180603783
 20
177.2300990212
 40
7.5934838147
100
AcDbArc
 50
313.2108536846
 51
332.6249848817
  0
ARC
  5
3BB
100
AcDbEntity
  8
0
100
AcDbCircle
 62
7
  6
CONTINUOUS
 10
171.9436371211
 20
177.2180450338
 40
7.5650863092
100
AcDbArc
 50
342.2154948134
 51
358.6376454404
  0
ARC
  5
3BC
100
AcDbEntity
  8
0
100
AcDbCircle
 62
7
  6
CONTINUOUS
 10
171.9513091975
 20
177.2178180347
 40
7.5574110047
100
AcDbArc
 50
358.6379830306
 51
359.9998459483
  0
ARC
  5
3BD
100
AcDbEntity
  8
0
100
AcDbCircle
 62
7
  6
CONTINUOUS
 10
171.889109916
 20
181.1939186778
 40
13.4826595162
100
AcDbArc
 50
72.0059861644
 51
90.0016391988
  0
ARC
  5
3BE
100
AcDbEntity
  8
0
100
AcDbCircle
 62
7
  6
CONTINUOUS
 10
171.8891917006
 20
181.2965096982
 40
13.4819012683
100
AcDbArc
 50
70.402105794
 51
90.0019868619
  0
ARC
  5
3BF
100
AcDbEntity
  8
0
100
AcDbCircle
 62
7
  6
CONTINUOUS
 10
171.8892180097
 20
180.8274070383
 40
13.4816876855
100
AcDbArc
 50
69.7181008664
 51
90.0020987042
  0
ARC
  5
3C0
100
AcDbEntity
  8
0
100
AcDbCircle
 62
7
  6
CONTINUOUS
 10
171.8892196481
 20
180.9292575862
 40
13.4816699075
100
AcDbArc
 50
69.7028983938
 51
90.0021056701
  0
ARC
  5
3C1
100
AcDbEntity
  8
0
100
AcDbCircle
 62
7
  6
CONTINUOUS
 10
171.8895119972
 20
180.8291375461
 40
13.4799625681
100
AcDbArc
 50
69.4814860076
 51
69.7167232893
  0
ARC
  5
3C2
100
AcDbEntity
  8
0
100
AcDbCircle
 62
7
  6
CONTINUOUS
 10
171.8978134374
 20
180.8505530412
 40
13.4569959585
100
AcDbArc
 50
62.0940411513
 51
69.4826289536
  0
ARC
  5
3C3
100
AcDbEntity
  8
0
100
AcDbCircle
 62
7
  6
CONTINUOUS
 10
171.9016360311
 20
180.8572509618
 40
13.4492878378
100
AcDbArc
 50
57.7573252456
 51
62.0950777212
  0
ARC
  5
3C4
100
AcDbEntity
  8
0
100
AcDbCircle
 62
7
  6
CONTINUOUS
 10
171.9268654757
 20
180.9567522646
 40
13.4075229623
100
AcDbArc
 50
306.0291637372
 51
326.1713715192
  0
ARC
  5
3C5
100
AcDbEntity
  8
0
100
AcDbCircle
 62
7
  6
CONTINUOUS
 10
171.9435456666
 20
181.3731887649
 40
13.3862212372
100
AcDbArc
 50
32.1389033165
 51
33.0230730396
  0
ARC
  5
3C6
100
AcDbEntity
  8
0
100
AcDbCircle
 62
7
  6
CONTINUOUS
 10
171.9444741792
 20
181.271951605
 40
13.3851180687
100
AcDbArc
 50
32.5268697141
 51
33.4100111711
  0
ARC
  5
3C7
100
AcDbEntity
  8
0
100
AcDbCircle
 62
7
  6
CONTINUOUS
 10
171.9457543344
 20
181.374620877
 40
13.3835889094
100
AcDbArc
 50
33.0230855254
 51
33.4899094627
  0
ARC
  5
3C8
100
AcDbEntity
  8
0
100
AcDbCircle
 62
7
  6
CONTINUOUS
 10
171.9462757814
 20
180.9416056341
 40
13.3829665228
100
AcDbArc
 50
326.1789770554
 51
327.0610397139
  0
ARC
  5
3C9
100
AcDbEntity
  8
0
100
AcDbCircle
 62
7
  6
CONTINUOUS
 10
171.9481813618
 20
180.9069140803
 40
13.380676676
100
AcDbArc
 50
33.5969811345
 51
33.9220012079
  0
ARC
  5
3CA
100
AcDbEntity
  8
0
100
AcDbCircle
 62
7
  6
CONTINUOUS
 10
171.9491745512
 20
181.3766669496
 40
13.3796046153
100
AcDbArc
 50
27.5624700542
 51
32.139114124
  0
ARC
  5
3CB
100
AcDbEntity
  8
0
100
AcDbCircle
 62
7
  6
CONTINUOUS
 10
171.9496866734
 20
181.0097491181
 40
13.3788682799
100
AcDbArc
 50
33.5356662695
 51
34.4160465111
  0
ARC
  5
3CC
100
AcDbEntity
  8
0
100
AcDbCircle
 62
7
  6
CONTINUOUS
 10
171.9522898293
 20
180.9096868258
 40
13.3757201088
100
AcDbArc
 50
33.9219668029
 51
34.8011797125
  0
ARC
  5
3CD
100
AcDbEntity
  8
0
100
AcDbCircle
 62
7
  6
CONTINUOUS
 10
171.9734335184
 20
180.9269167649
 40
13.3521535906
100
AcDbArc
 50
327.0505726001
 51
354.1465407317
  0
ARC
  5
3CE
100
AcDbEntity
  8
0
100
AcDbCircle
 62
7
  6
CONTINUOUS
 10
171.9754668578
 20
180.9212966506
 40
13.3499378577
100
AcDbArc
 50
1.4218943024
 51
33.6103647413
  0
ARC
  5
3CF
100
AcDbEntity
  8
0
100
AcDbCircle
 62
7
  6
CONTINUOUS
 10
171.9758217483
 20
181.0232600363
 40
13.34956367
100
AcDbArc
 50
0.9568229367
 51
33.5152226545
  0
ARC
  5
3D0
100
AcDbEntity
  8
0
100
AcDbCircle
 62
7
  6
CONTINUOUS
 10
171.9769147457
 20
181.289192635
 40
13.3484458097
100
AcDbArc
 50
0.4449253216
 51
32.5393454686
  0
ARC
  5
3D1
100
AcDbEntity
  8
0
100
AcDbCircle
 62
7
  6
CONTINUOUS
 10
171.980436502
 20
181.2911119147
 40
13.3448691441
100
AcDbArc
 50
359.9999853873
 51
0.4368026185
  0
ARC
  5
3D2
100
AcDbEntity
  8
0
100
AcDbCircle
 62
7
  6
CONTINUOUS
 10
171.9808411644
 20
181.3918372451
 40
13.3444855968
100
AcDbArc
 50
0.004740261
 51
27.5676397881
  0
ARC
  5
3D3
100
AcDbEntity
  8
0
100
AcDbCircle
 62
7
  6
CONTINUOUS
 10
171.9820293567
 20
180.9236432757
 40
13.3432762225
100
AcDbArc
 50
0.436791063
 51
1.4125202857
  0
ARC
  5
3D4
100
AcDbEntity
  8
0
100
AcDbCircle
 62
7
  6
CONTINUOUS
 10
171.9723080143
 20
180.0934665847
 40
11.7273176852
100
AcDbArc
 50
329.8909017413
 51
30.1090982587
  0
ARC
  5
3D5
100
AcDbEntity
  8
0
100
AcDbCircle
 62
7
  6
CONTINUOUS
 10
171.949585426
 20
180.0933876091
 40
8.2576109711
100
AcDbArc
 50
335.7105957357
 51
18.2766765556
  0
ARC
  5
3D6
100
AcDbEntity
  8
0
100
AcDbCircle
 62
7
  6
CONTINUOUS
 10
171.9377713138
 20
179.4315600744
 40
7.8884166142
100
AcDbArc
 50
359.9999529339
 51
0.4815000322
  0
ARC
  5
3D7
100
AcDbEntity
  8
0
100
AcDbCircle
 62
7
  6
CONTINUOUS
 10
171.9459909215
 20
179.4313503062
 40
7.8801990644
100
AcDbArc
 50
0.4835274054
 51
17.849223359
  0
ARC
  5
3D8
100
AcDbEntity
  8
0
100
AcDbCircle
 62
7
  6
CONTINUOUS
 10
171.9464318263
 20
179.4317230121
 40
7.8797561035
100
AcDbArc
 50
347.1513704489
 51
359.998768119
  0
ARC
  5
3D9
100
AcDbEntity
  8
0
100
AcDbCircle
 62
7
  6
CONTINUOUS
 10
171.8904011296
 20
179.373097888
 40
7.7764489862
100
AcDbArc
 50
107.7416788933
 51
117.1040663449
  0
ARC
  5
3DA
100
AcDbEntity
  8
0
100
AcDbCircle
 62
7
  6
CONTINUOUS
 10
171.9229252997
 20
179.4232444699
 40
7.7142274776
100
AcDbArc
 50
17.8710324855
 51
27.28363869
  0
ARC
  5
3DB
100
AcDbEntity
  8
0
100
AcDbCircle
 62
7
  6
CONTINUOUS
 10
171.8889023331
 20
179.3759755695
 40
7.6465816128
100
AcDbArc
 50
72.3452224125
 51
90.0013348627
  0
ARC
  5
3DC
100
AcDbEntity
  8
0
100
AcDbCircle
 62
7
  6
CONTINUOUS
 10
171.9296300577
 20
179.429543383
 40
7.579131461
100
AcDbArc
 50
1.3731600449
 51
12.0053337474
  0
ARC
  5
3DD
100
AcDbEntity
  8
0
100
AcDbCircle
 62
7
  6
CONTINUOUS
 10
171.9513091972
 20
179.4315332612
 40
7.557411005
100
AcDbArc
 50
0.0001540517
 51
1.3620169694
  0
ARC
  5
3DE
100
AcDbEntity
  8
0
100
AcDbCircle
 62
7
  6
CONTINUOUS
 10
170.2354737383
 20
892.9832882131
 40
724.6627352755
100
AcDbArc
 50
270.5425498513
 51
270.6698841323
  0
ARC
  5
3DF
100
AcDbEntity
  8
0
100
AcDbCircle
 62
7
  6
CONTINUOUS
 10
173.3332940617
 20
873.2582087983
 40
704.9365645799
100
AcDbArc
 50
269.3283319938
 51
269.4592292751
  0
ARC
  5
3E0
100
AcDbEntity
  8
0
100
AcDbCircle
 62
7
  6
CONTINUOUS
 10
-98.796630552
 20
352.9737467352
 40
318.0090927418
100
AcDbArc
 50
330.3911888326
 51
330.6173447468
  0
ARC
  5
3E1
100
AcDbEntity
  8
0
100
AcDbCircle
 62
7
  6
CONTINUOUS
 10
-108.1457796573
 20
358.344829751
 40
317.6893765423
100
AcDbArc
 50
330.4557540549
 51
330.6188263199
  0
ARC
  5
3E2
100
AcDbEntity
  8
0
100
AcDbCircle
 62
7
  6
CONTINUOUS
 10
-34.0510636212
 20
316.2187803705
 40
232.4565511885
100
AcDbArc
 50
329.9087585715
 51
330.4033809327
  0
ARC
  5
3E3
100
AcDbEntity
  8
0
100
AcDbCircle
 62
7
  6
CONTINUOUS
 10
159.6858914267
 20
239.6109327845
 40
45.9345657589
100
AcDbArc
 50
268.3755490549
 51
270.3303369291
  0
ARC
  5
3E4
100
AcDbEntity
  8
0
100
AcDbCircle
 62
7
  6
CONTINUOUS
 10
123.0187652273
 20
201.634044789
 40
11.5812780427
100
AcDbArc
 50
89.9982241372
 51
93.1351134022
  0
ARC
  5
3E5
100
AcDbEntity
  8
0
100
AcDbCircle
 62
7
  6
CONTINUOUS
 10
72.2187652273
 20
201.634044789
 40
11.5812780427
100
AcDbArc
 50
89.9982241372
 51
93.1351134022
  0
ARC
  5
3E6
100
AcDbEntity
  8
0
100
AcDbCircle
 62
7
  6
CONTINUOUS
 10
123.018585593
 20
201.652089374
 40
11.5751466775
100
AcDbArc
 50
89.9973340253
 51
93.1106143812
  0
ARC
  5
3E7
100
AcDbEntity
  8
0
100
AcDbCircle
 62
7
  6
CONTINUOUS
 10
72.218585593
 20
201.6520893739
 40
11.5751466776
100
AcDbArc
 50
89.9973340253
 51
93.1106143812
  0
ARC
  5
3E8
100
AcDbEntity
  8
0
100
AcDbCircle
 62
7
  6
CONTINUOUS
 10
123.0212958779
 20
201.7003231209
 40
11.5149999101
100
AcDbArc
 50
86.8558566559
 51
90.0108058047
  0
ARC
  5
3E9
100
AcDbEntity
  8
0
100
AcDbCircle
 62
7
  6
CONTINUOUS
 10
72.2212958779
 20
201.7003231209
 40
11.5149999101
100
AcDbArc
 50
86.8558566559
 51
90.0108058047
  0
ARC
  5
3EA
100
AcDbEntity
  8
0
100
AcDbCircle
 62
7
  6
CONTINUOUS
 10
123.0213994737
 20
201.7161065183
 40
11.5111297455
100
AcDbArc
 50
86.8807265157
 51
90.0113250778
  0
ARC
  5
3EB
100
AcDbEntity
  8
0
100
AcDbCircle
 62
7
  6
CONTINUOUS
 10
72.2213994737
 20
201.7161065183
 40
11.5111297456
100
AcDbArc
 50
86.8807265157
 51
90.0113250778
  0
ARC
  5
3EC
100
AcDbEntity
  8
0
100
AcDbCircle
 62
7
  6
CONTINUOUS
 10
171.8881716845
 20
192.1150656952
 40
6.6877122863
100
AcDbArc
 50
89.9952665513
 51
117.9619428472
  0
ARC
  5
3ED
100
AcDbEntity
  8
0
100
AcDbCircle
 62
7
  6
CONTINUOUS
 10
171.8892766854
 20
192.1150656952
 40
6.6877122863
100
AcDbArc
 50
62.0380571528
 51
90.0047334487
  0
ARC
  5
3EE
100
AcDbEntity
  8
0
100
AcDbCircle
 62
7
  6
CONTINUOUS
 10
171.8881264628
 20
196.8650346062
 40
5.5725747906
100
AcDbArc
 50
89.9938543885
 51
119.9617322057
  0
ARC
  5
3EF
100
AcDbEntity
  8
0
100
AcDbCircle
 62
7
  6
CONTINUOUS
 10
171.8682256069
 20
196.8927589905
 40
5.5380980718
100
AcDbArc
 50
133.3967317124
 51
149.9012719695
  0
ARC
  5
3F0
100
AcDbEntity
  8
0
100
AcDbCircle
 62
7
  6
CONTINUOUS
 10
171.8553563493
 20
196.9003289672
 40
5.5231677937
100
AcDbArc
 50
149.9022620022
 51
165.3946588302
  0
ARC
  5
3F1
100
AcDbEntity
  8
0
100
AcDbCircle
 62
7
  6
CONTINUOUS
 10
171.9275405476
 20
196.9023939044
 40
5.5173935483
100
AcDbArc
 50
351.2076031455
 51
30.1075595212
  0
ARC
  5
3F2
100
AcDbEntity
  8
0
100
AcDbCircle
 62
7
  6
CONTINUOUS
 10
171.9140709168
 20
191.5141571685
 40
5.0554737665
100
AcDbArc
 50
26.9923968989
 51
28.6207082702
  0
ARC
  5
3F3
100
AcDbEntity
  8
0
100
AcDbCircle
 62
7
  6
CONTINUOUS
 10
171.860823634
 20
191.5155384885
 40
5.0525703125
100
AcDbArc
 50
151.0265556079
 51
151.3798063319
  0
ARC
  5
3F4
100
AcDbEntity
  8
0
100
AcDbCircle
 62
7
  6
CONTINUOUS
 10
171.9168151481
 20
191.5156409114
 40
5.0523541266
100
AcDbArc
 50
28.6208451226
 51
28.9581841203
  0
ARC
  5
3F5
100
AcDbEntity
  8
0
100
AcDbCircle
 62
7
  6
CONTINUOUS
 10
154.73103283
 20
192.4511296859
 40
4.333852909
100
AcDbArc
 50
20.5875076507
 51
21.0786045553
  0
ARC
  5
3F6
100
AcDbEntity
  8
0
100
AcDbCircle
 62
7
  6
CONTINUOUS
 10
171.8885322718
 20
196.8775330374
 40
3.5674501878
100
AcDbArc
 50
89.9969177392
 51
112.9105295854
  0
ARC
  5
3F7
100
AcDbEntity
  8
0
100
AcDbCircle
 62
7
  6
CONTINUOUS
 10
171.9112773921
 20
196.9014937762
 40
3.5335686841
100
AcDbArc
 50
15.47627668
 51
21.2901322273
  0
ARC
  5
3F8
100
AcDbEntity
  8
0
100
AcDbCircle
 62
7
  6
CONTINUOUS
 10
171.8885143935
 20
196.8996276109
 40
3.1849771243
100
AcDbArc
 50
89.9962259806
 51
115.9157283606
  0
ARC
  5
3F9
100
AcDbEntity
  8
0
100
AcDbCircle
 62
7
  6
CONTINUOUS
 10
560.3014139515
 20
-495.8144891286
 40
793.1891065503
100
AcDbArc
 50
119.3198698776
 51
119.4951475486
  0
ARC
  5
3FA
100
AcDbEntity
  8
0
100
AcDbCircle
 62
7
  6
CONTINUOUS
 10
412.3787258373
 20
57.2464755333
 40
283.8255648706
100
AcDbArc
 50
149.1618294129
 51
149.4059197117
  0
ARC
  5
3FB
100
AcDbEntity
  8
0
100
AcDbCircle
 62
7
  6
CONTINUOUS
 10
364.1520394248
 20
85.7706377713
 40
227.7948443898
100
AcDbArc
 50
149.4263891752
 51
149.899064991
  0
ARC
  5
3FC
100
AcDbEntity
  8
0
100
AcDbCircle
 62
7
  6
CONTINUOUS
 10
234.398124185
 20
228.5038767488
 40
2.667
100
AcDbArc
 50
283.774146998
 51
360.0
  0
ARC
  5
3FD
100
AcDbEntity
  8
0
100
AcDbCircle
 62
7
  6
CONTINUOUS
 10
224.682624185
 20
255.9363748359
 40
3.81
100
AcDbArc
 50
90.0
 51
270.0
  0
ARC
  5
3FE
100
AcDbEntity
  8
0
100
AcDbCircle
 62
7
  6
CONTINUOUS
 10
224.682624185
 20
268.6363748359
 40
3.81
100
AcDbArc
 50
90.0
 51
270.0
  0
ARC
  5
3FF
100
AcDbEntity
  8
0
100
AcDbCircle
 62
7
  6
CONTINUOUS
 10
234.398124185
 20
245.929272923
 40
2.667
100
AcDbArc
 50
32.6506717097
 51
76.225853002
  0
ARC
  5
400
100
AcDbEntity
  8
0
100
AcDbCircle
 62
7
  6
CONTINUOUS
 10
234.398124185
 20
259.3394767488
 40
2.667
100
AcDbArc
 50
283.7741469981
 51
360.0
  0
ARC
  5
401
100
AcDbEntity
  8
0
100
AcDbCircle
 62
7
  6
CONTINUOUS
 10
235.033124185
 20
256.825872923
 40
2.667
100
AcDbArc
 50
103.774146998
 51
180.0
  0
CIRCLE
  5
402
100
AcDbEntity
  8
0
100
AcDbCircle
 62
7
  6
CONTINUOUS
 10
224.682624185
 20
255.9363748359
 40
1.7272
  0
CIRCLE
  5
403
100
AcDbEntity
  8
0
100
AcDbCircle
 62
7
  6
CONTINUOUS
 10
224.682624185
 20
268.6363748359
 40
1.7272
  0
ARC
  5
404
100
AcDbEntity
  8
0
100
AcDbCircle
 62
7
  6
CONTINUOUS
 10
246.590124185
 20
192.7665748359
 40
2.794
100
AcDbArc
 50
180.0
 51
240.0
  0
ARC
  5
405
100
AcDbEntity
  8
0
100
AcDbCircle
 62
7
  6
CONTINUOUS
 10
245.066124185
 20
190.1269294052
 40
0.254
100
AcDbArc
 50
30.0
 51
59.9999999999
  0
ARC
  5
406
100
AcDbEntity
  8
0
100
AcDbCircle
 62
7
  6
CONTINUOUS
 10
243.796124185
 20
225.5325748359
 40
4.191
100
AcDbArc
 50
270.0
 51
360.0
  0
ARC
  5
407
100
AcDbEntity
  8
0
100
AcDbCircle
 62
7
  6
CONTINUOUS
 10
243.796124185
 20
225.5325748359
 40
1.524
100
AcDbArc
 50
270.0
 51
360.0
  0
ARC
  5
408
100
AcDbEntity
  8
0
100
AcDbCircle
 62
7
  6
CONTINUOUS
 10
241.2553802928
 20
232.3414294063
 40
6.6725325593
100
AcDbArc
 50
228.0683305463
 51
268.9052477448
  0
ARC
  5
409
100
AcDbEntity
  8
0
100
AcDbCircle
 62
7
  6
CONTINUOUS
 10
241.2549030688
 20
229.4908747949
 40
5.5595243741
100
AcDbArc
 50
236.9674340988
 51
252.5758822416
  0
ARC
  5
40A
100
AcDbEntity
  8
0
100
AcDbCircle
 62
7
  6
CONTINUOUS
 10
241.2502432985
 20
229.4843685583
 40
5.5515296979
100
AcDbArc
 50
208.6329738306
 51
236.9711487092
  0
ARC
  5
40B
100
AcDbEntity
  8
0
100
AcDbCircle
 62
7
  6
CONTINUOUS
 10
241.251467115
 20
232.6759028912
 40
4.3139361003
100
AcDbArc
 50
195.1503641401
 51
247.2810740531
  0
ARC
  5
40C
100
AcDbEntity
  8
0
100
AcDbCircle
 62
7
  6
CONTINUOUS
 10
241.141824185
 20
229.3772611153
 40
1.5494
100
AcDbArc
 50
90.0
 51
180.0
  0
ARC
  5
40D
100
AcDbEntity
  8
0
100
AcDbCircle
 62
7
  6
CONTINUOUS
 10
241.2720510316
 20
237.2459471247
 40
7.0960814323
100
AcDbArc
 50
341.8202039489
 51
356.5667998845
  0
ARC
  5
40E
100
AcDbEntity
  8
0
100
AcDbCircle
 62
7
  6
CONTINUOUS
 10
241.2392801691
 20
237.6308736728
 40
7.0951731633
100
AcDbArc
 50
149.1561080832
 51
176.924226649
  0
ARC
  5
40F
100
AcDbEntity
  8
0
100
AcDbCircle
 62
7
  6
CONTINUOUS
 10
241.2734079349
 20
237.246078497
 40
7.0947315523
100
AcDbArc
 50
342.1823866003
 51
356.565983983
  0
ARC
  5
410
100
AcDbEntity
  8
0
100
AcDbCircle
 62
7
  6
CONTINUOUS
 10
241.2736816805
 20
237.6315307832
 40
7.0944540484
100
AcDbArc
 50
342.0361517452
 51
356.9249190003
  0
ARC
  5
411
100
AcDbEntity
  8
0
100
AcDbCircle
 62
7
  6
CONTINUOUS
 10
241.2754931112
 20
237.2457622057
 40
7.0926311771
100
AcDbArc
 50
356.5675254945
 51
356.9262468423
  0
ARC
  5
412
100
AcDbEntity
  8
0
100
AcDbCircle
 62
7
  6
CONTINUOUS
 10
241.2761653906
 20
237.6314313663
 40
7.0919417634
100
AcDbArc
 50
359.9986505494
 51
17.604401607
  0
ARC
  5
413
100
AcDbEntity
  8
0
100
AcDbCircle
 62
7
  6
CONTINUOUS
 10
241.2578675209
 20
238.653319844
 40
6.3665089918
100
AcDbArc
 50
253.1565869232
 51
261.9186925163
  0
ARC
  5
414
100
AcDbEntity
  8
0
100
AcDbCircle
 62
7
  6
CONTINUOUS
 10
241.2565164244
 20
238.6516146361
 40
6.3646308774
100
AcDbArc
 50
261.9285766289
 51
270.0461838099
  0
ARC
  5
415
100
AcDbEntity
  8
0
100
AcDbCircle
 62
7
  6
CONTINUOUS
 10
241.2563823757
 20
238.6435444906
 40
6.3568185386
100
AcDbArc
 50
233.974154772
 51
253.147758633
  0
ARC
  5
416
100
AcDbEntity
  8
0
100
AcDbCircle
 62
7
  6
CONTINUOUS
 10
241.2571503484
 20
238.641125188
 40
6.3540822263
100
AcDbArc
 50
297.1385861077
 51
298.9234489816
  0
ARC
  5
417
100
AcDbEntity
  8
0
100
AcDbCircle
 62
7
  6
CONTINUOUS
 10
241.2588937795
 20
237.9606409982
 40
6.3504477735
100
AcDbArc
 50
298.3914229241
 51
298.8264231729
  0
ARC
  5
418
100
AcDbEntity
  8
0
100
AcDbCircle
 62
7
  6
CONTINUOUS
 10
241.2597118027
 20
238.2502724653
 40
6.3487459269
100
AcDbArc
 50
297.82528132
 51
298.8245094945
  0
ARC
  5
419
100
AcDbEntity
  8
0
100
AcDbCircle
 62
7
  6
CONTINUOUS
 10
241.2513832497
 20
238.6355352164
 40
6.3474211934
100
AcDbArc
 50
215.2100153982
 51
218.2725342228
  0
ARC
  5
41A
100
AcDbEntity
  8
0
100
AcDbCircle
 62
7
  6
CONTINUOUS
 10
241.2498357665
 20
238.6340335839
 40
6.3452761941
100
AcDbArc
 50
218.2705442966
 51
233.9714525588
  0
ARC
  5
41B
100
AcDbEntity
  8
0
100
AcDbCircle
 62
7
  6
CONTINUOUS
 10
241.2483826478
 20
238.6326747105
 40
6.3433203017
100
AcDbArc
 50
208.2373457407
 51
215.2045319093
  0
ARC
  5
41C
100
AcDbEntity
  8
0
100
AcDbCircle
 62
7
  6
CONTINUOUS
 10
241.2461073449
 20
239.3036919449
 40
6.3403709373
100
AcDbArc
 50
154.7357318109
 51
156.0806803117
  0
ARC
  5
41D
100
AcDbEntity
  8
0
100
AcDbCircle
 62
7
  6
CONTINUOUS
 10
241.2410644143
 20
238.6285820149
 40
6.3349366173
100
AcDbArc
 50
195.7791741485
 51
208.2360505319
  0
ARC
  5
41E
100
AcDbEntity
  8
0
100
AcDbCircle
 62
7
  6
CONTINUOUS
 10
241.239824981
 20
238.6283494707
 40
6.3336968626
100
AcDbArc
 50
180.0007705662
 51
193.7088251654
  0
ARC
  5
41F
100
AcDbEntity
  8
0
100
AcDbCircle
 62
7
  6
CONTINUOUS
 10
241.2396493358
 20
239.3060163446
 40
6.3335251512
100
AcDbArc
 50
156.0762147703
 51
179.9993379442
  0
ARC
  5
420
100
AcDbEntity
  8
0
100
AcDbCircle
 62
7
  6
CONTINUOUS
 10
241.2392144403
 20
239.3061109915
 40
6.3330902554
100
AcDbArc
 50
180.0001941741
 51
199.4422954978
  0
ARC
  5
421
100
AcDbEntity
  8
0
100
AcDbCircle
 62
7
  6
CONTINUOUS
 10
241.2245072964
 20
238.6247806873
 40
6.3179697826
100
AcDbArc
 50
193.710303238
 51
195.7868308831
  0
ARC
  5
422
100
AcDbEntity
  8
0
100
AcDbCircle
 62
7
  6
CONTINUOUS
 10
241.2512179584
 20
240.0005005011
 40
6.118036335
100
AcDbArc
 50
283.4491781342
 51
295.3624508276
  0
ARC
  5
423
100
AcDbEntity
  8
0
100
AcDbCircle
 62
7
  6
CONTINUOUS
 10
241.2619491453
 20
238.6687491459
 40
6.1161555144
100
AcDbArc
 50
238.5031757439
 51
250.4188861651
  0
ARC
  5
424
100
AcDbEntity
  8
0
100
AcDbCircle
 62
7
  6
CONTINUOUS
 10
241.2619491453
 20
239.9980824345
 40
6.1161555144
100
AcDbArc
 50
238.5031757439
 51
250.4188861651
  0
ARC
  5
425
100
AcDbEntity
  8
0
100
AcDbCircle
 62
7
  6
CONTINUOUS
 10
241.2584141558
 20
239.9626503542
 40
6.0999827628
100
AcDbArc
 50
148.6600297894
 51
160.3686869128
  0
ARC
  5
426
100
AcDbEntity
  8
0
100
AcDbCircle
 62
7
  6
CONTINUOUS
 10
241.2578715301
 20
239.9770400532
 40
6.0986788637
100
AcDbArc
 50
193.4859046734
 51
205.4243261285
  0
ARC
  5
427
100
AcDbEntity
  8
0
100
AcDbCircle
 62
7
  6
CONTINUOUS
 10
241.2554620985
 20
238.6697633463
 40
5.8492282772
100
AcDbArc
 50
296.6924469654
 51
299.6632219328
  0
ARC
  5
428
100
AcDbEntity
  8
0
100
AcDbCircle
 62
7
  6
CONTINUOUS
 10
241.2574154741
 20
239.9669632012
 40
5.8436414521
100
AcDbArc
 50
160.6629526586
 51
172.9088991382
  0
ARC
  5
429
100
AcDbEntity
  8
0
100
AcDbCircle
 62
7
  6
CONTINUOUS
 10
241.2591492159
 20
239.9794921434
 40
5.8419389911
100
AcDbArc
 50
295.6379574736
 51
314.3257512238
  0
ARC
  5
42A
100
AcDbEntity
  8
0
100
AcDbCircle
 62
7
  6
CONTINUOUS
 10
241.2431788168
 20
239.9705881735
 40
5.8290664865
100
AcDbArc
 50
172.9269828109
 51
176.9248746412
  0
ARC
  5
42B
100
AcDbEntity
  8
0
100
AcDbCircle
 62
7
  6
CONTINUOUS
 10
241.2410960702
 20
239.9709645964
 40
5.8269685555
100
AcDbArc
 50
180.0007245459
 51
193.2072551571
  0
ARC
  5
42C
100
AcDbEntity
  8
0
100
AcDbCircle
 62
7
  6
CONTINUOUS
 10
241.2410128164
 20
239.9706492976
 40
5.1918660316
100
AcDbArc
 50
179.9973338559
 51
196.0236523951
  0
ARC
  5
42D
100
AcDbEntity
  8
0
100
AcDbCircle
 62
7
  6
CONTINUOUS
 10
242.0186730944
 20
231.5386017167
 40
0.7614875633
100
AcDbArc
 50
0.0427331737
 51
90.041299036
  0
ARC
  5
42E
100
AcDbEntity
  8
0
100
AcDbCircle
 62
7
  6
CONTINUOUS
 10
242.018673095
 20
232.2032683608
 40
0.7614875632
100
AcDbArc
 50
0.0427331904
 51
90.0412990753
  0
ARC
  5
42F
100
AcDbEntity
  8
0
100
AcDbCircle
 62
7
  6
CONTINUOUS
 10
246.590124185
 20
218.1665748359
 40
2.794
100
AcDbArc
 50
142.5011181191
 51
180.0
  0
ARC
  5
430
100
AcDbEntity
  8
0
100
AcDbCircle
 62
7
  6
CONTINUOUS
 10
255.628452883
 20
238.8545712498
 40
12.5858543671
100
AcDbArc
 50
205.1518713178
 51
205.8726233157
  0
ARC
  5
431
100
AcDbEntity
  8
0
100
AcDbCircle
 62
7
  6
CONTINUOUS
 10
255.6379278304
 20
266.120105048
 40
12.5945668605
100
AcDbArc
 50
205.3757522568
 51
205.855565247
  0
ARC
  5
432
100
AcDbEntity
  8
0
100
AcDbCircle
 62
7
  6
CONTINUOUS
 10
243.796124185
 20
291.8265748359
 40
4.191
100
AcDbArc
 50
0.0
 51
90.0
  0
ARC
  5
433
100
AcDbEntity
  8
0
100
AcDbCircle
 62
7
  6
CONTINUOUS
 10
241.141824185
 20
254.7424512981
 40
1.5494
100
AcDbArc
 50
90.0
 51
180.0
  0
ARC
  5
434
100
AcDbEntity
  8
0
100
AcDbCircle
 62
7
  6
CONTINUOUS
 10
243.796124185
 20
291.8265748359
 40
1.524
100
AcDbArc
 50
0.0
 51
90.0
  0
ARC
  5
435
100
AcDbEntity
  8
0
100
AcDbCircle
 62
7
  6
CONTINUOUS
 10
420.1296124856
 20
340.2784631421
 40
292.2230194811
100
AcDbArc
 50
209.3728440512
 51
209.6810852863
  0
ARC
  5
436
100
AcDbEntity
  8
0
100
AcDbCircle
 62
7
  6
CONTINUOUS
 10
358.8705269094
 20
410.1659931686
 40
221.3184447913
100
AcDbArc
 50
236.9667968976
 51
237.259967068
  0
SPLINE
  5
437
100
AcDbEntity
  8
0
100
AcDbSpline
 62
7
  6
CONTINUOUS
 70
0
 71
3
 72
19
 73
15
 74
0
 42
0.0000001
 43
0.0000001
 44
0.0000000001
 40
0.0
 40
0.0
 40
0.0
 40
0.0
 40
0.0302993936
 40
0.0626743825
 40
0.0987787183
 40
0.1396941932
 40
0.1860171326
 40
0.2379842377
 40
0.2955756665
 40
0.358595168
 40
0.4994012148
 40
0.6566362973
 40
0.8253587613
 40
1.0
 40
1.0
 40
1.0
 40
1.0
 10
125.1019216492
 20
203.4856134034
 30
0.0
 10
125.1019219135
 20
203.4621000455
 30
0.0
 10
125.0946387365
 20
203.4132236801
 30
0.0
 10
125.062981937
 20
203.3425862757
 30
0.0
 10
125.0116555771
 20
203.2742705876
 30
0.0
 10
124.9415567487
 20
203.2085643214
 30
0.0
 10
124.8533622516
 20
203.1457454555
 30
0.0
 10
124.7478303603
 20
203.0862526175
 30
0.0
 10
124.6258893884
 20
203.0305543983
 30
0.0
 10
124.4357542615
 20
202.959433229
 30
0.0
 10
124.1649155882
 20
202.8854173442
 30
0.0
 10
123.8080083572
 20
202.8214921897
 30
0.0
 10
123.4212015086
 20
202.7820804939
 30
0.0
 10
123.1546517143
 20
202.773253849
 30
0.0
 10
123.019124185
 20
202.773253849
 30
0.0
  0
SPLINE
  5
438
100
AcDbEntity
  8
0
100
AcDbSpline
 62
7
  6
CONTINUOUS
 70
0
 71
3
 72
14
 73
10
 74
0
 42
0.0000001
 43
0.0000001
 44
0.0000000001
 40
0.0
 40
0.0
 40
0.0
 40
0.0
 40
0.1166954919
 40
0.231657011
 40
0.3477626
 40
0.4675869136
 40
0.5926854742
 40
0.7235498167
 40
1.0
 40
1.0
 40
1.0
 40
1.0
 10
126.5273222868
 20
213.0279483114
 30
0.0
 10
126.444505322
 20
213.1169521664
 30
0.0
 10
126.2636465337
 20
213.2788395409
 30
0.0
 10
125.9592374933
 20
213.4771639059
 30
0.0
 10
125.630284707
 20
213.6383112053
 30
0.0
 10
125.2774464248
 20
213.7699601682
 30
0.0
 10
124.9005014138
 20
213.8770575335
 30
0.0
 10
124.3575727946
 20
213.992022538
 30
0.0
 10
123.935078176
 20
214.0423525135
 30
0.0
 10
123.6477767618
 20
214.0625183126
 30
0.0
  0
SPLINE
  5
439
100
AcDbEntity
  8
0
100
AcDbSpline
 62
7
  6
CONTINUOUS
 70
0
 71
3
 72
14
 73
10
 74
0
 42
0.0000001
 43
0.0000001
 44
0.0000000001
 40
0.0
 40
0.0
 40
0.0
 40
0.0
 40
0.2764508943
 40
0.4073275702
 40
0.5324479579
 40
0.6522976954
 40
0.7684015907
 40
0.8833522059
 40
1.0
 40
1.0
 40
1.0
 40
1.0
 10
122.3904726973
 20
214.0625184589
 30
0.0
 10
122.1035663908
 20
214.0423809151
 30
0.0
 10
121.6816399872
 20
213.9921469798
 30
0.0
 10
121.1394022035
 20
213.8774466242
 30
0.0
 10
120.7628719431
 20
213.7706396175
 30
0.0
 10
120.4104217812
 20
213.6393069608
 30
0.0
 10
120.0817652041
 20
213.4786883295
 30
0.0
 10
119.7775734396
 20
213.2810704729
 30
0.0
 10
119.5967370824
 20
213.1197691966
 30
0.0
 10
119.5138714972
 20
213.031107597
 30
0.0
  0
SPLINE
  5
43A
100
AcDbEntity
  8
0
100
AcDbSpline
 62
7
  6
CONTINUOUS
 70
0
 71
3
 72
19
 73
15
 74
0
 42
0.0000001
 43
0.0000001
 44
0.0000000001
 40
0.0
 40
0.0
 40
0.0
 40
0.0
 40
0.1746379887
 40
0.3433587362
 40
0.5005938837
 40
0.6414012398
 40
0.7044216448
 40
0.7620139047
 40
0.8139818256
 40
0.8603052608
 40
0.9012211904
 40
0.9373256347
 40
0.9697006869
 40
1.0
 40
1.0
 40
1.0
 40
1.0
 10
123.019124185
 20
202.773253849
 30
0.0
 10
122.8835991829
 20
202.773253849
 30
0.0
 10
122.6170532547
 20
202.7820801745
 30
0.0
 10
122.2302501609
 20
202.8214908873
 30
0.0
 10
121.8733430236
 20
202.8854150021
 30
0.0
 10
121.602502482
 20
202.9594306514
 30
0.0
 10
121.4123648384
 20
203.0305518641
 30
0.0
 10
121.290422037
 20
203.0862507848
 30
0.0
 10
121.1848883068
 20
203.1457438184
 30
0.0
 10
121.0966929631
 20
203.208563772
 30
0.0
 10
121.0265928757
 20
203.2742700033
 30
0.0
 10
120.9752669315
 20
203.342586505
 30
0.0
 10
120.9436091861
 20
203.413223695
 30
0.0
 10
120.9363269851
 20
203.4621001091
 30
0.0
 10
120.9363267207
 20
203.4856134037
 30
0.0
  0
SPLINE
  5
43B
100
AcDbEntity
  8
0
100
AcDbSpline
 62
7
  6
CONTINUOUS
 70
0
 71
3
 72
9
 73
5
 74
0
 42
0.0000001
 43
0.0000001
 44
0.0000000001
 40
0.0
 40
0.0
 40
0.0
 40
0.0
 40
0.514364918
 40
1.0
 40
1.0
 40
1.0
 40
1.0
 10
122.3853764396
 20
213.1979896067
 30
0.0
 10
122.1479419476
 20
213.1849183874
 30
0.0
 10
121.6870007527
 20
213.1450016893
 30
0.0
 10
121.2297658429
 20
213.0734209782
 30
0.0
 10
121.0095937779
 20
213.0294901458
 30
0.0
  0
SPLINE
  5
43C
100
AcDbEntity
  8
0
100
AcDbSpline
 62
7
  6
CONTINUOUS
 70
0
 71
3
 72
9
 73
5
 74
0
 42
0.0000001
 43
0.0000001
 44
0.0000000001
 40
0.0
 40
0.0
 40
0.0
 40
0.0
 40
0.485635082
 40
1.0
 40
1.0
 40
1.0
 40
1.0
 10
125.028654592
 20
213.0294901458
 30
0.0
 10
124.808482527
 20
213.0734209782
 30
0.0
 10
124.3512476172
 20
213.1450016893
 30
0.0
 10
123.8903064224
 20
213.1849183874
 30
0.0
 10
123.6528719303
 20
213.1979896067
 30
0.0
  0
SPLINE
  5
43D
100
AcDbEntity
  8
0
100
AcDbSpline
 62
7
  6
CONTINUOUS
 70
0
 71
3
 72
19
 73
15
 74
0
 42
0.0000001
 43
0.0000001
 44
0.0000000001
 40
0.0
 40
0.0
 40
0.0
 40
0.0
 40
0.1746379887
 40
0.3433587362
 40
0.5005938837
 40
0.6414012398
 40
0.7044216448
 40
0.7620139047
 40
0.8139818256
 40
0.8603052608
 40
0.9012211904
 40
0.9373256347
 40
0.9697006869
 40
1.0
 40
1.0
 40
1.0
 40
1.0
 10
123.019124185
 20
204.197972958
 30
0.0
 10
123.154649187
 20
204.197972958
 30
0.0
 10
123.4211951152
 20
204.1891466326
 30
0.0
 10
123.8079982091
 20
204.1497359198
 30
0.0
 10
124.1649053464
 20
204.085811805
 30
0.0
 10
124.4357458879
 20
204.0117961557
 30
0.0
 10
124.6258835315
 20
203.940674943
 30
0.0
 10
124.7478263329
 20
203.8849760222
 30
0.0
 10
124.8533600631
 20
203.8254829886
 30
0.0
 10
124.9415554068
 20
203.762663035
 30
0.0
 10
125.0116554942
 20
203.6969568037
 30
0.0
 10
125.0629814385
 20
203.6286403021
 30
0.0
 10
125.0946391838
 20
203.558003112
 30
0.0
 10
125.1019213848
 20
203.509126698
 30
0.0
 10
125.1019216492
 20
203.4856134034
 30
0.0
  0
SPLINE
  5
43E
100
AcDbEntity
  8
0
100
AcDbSpline
 62
7
  6
CONTINUOUS
 70
0
 71
3
 72
19
 73
15
 74
0
 42
0.0000001
 43
0.0000001
 44
0.0000000001
 40
0.0
 40
0.0
 40
0.0
 40
0.0
 40
0.0302993936
 40
0.0626743825
 40
0.0987787183
 40
0.1396941932
 40
0.1860171326
 40
0.2379842377
 40
0.2955756665
 40
0.358595168
 40
0.4994012148
 40
0.6566362973
 40
0.8253587613
 40
1.0
 40
1.0
 40
1.0
 40
1.0
 10
120.9363267207
 20
203.4856134037
 30
0.0
 10
120.9363264564
 20
203.5091267616
 30
0.0
 10
120.9436096335
 20
203.558003127
 30
0.0
 10
120.9752664329
 20
203.6286405313
 30
0.0
 10
121.0265927928
 20
203.6969562195
 30
0.0
 10
121.0966916212
 20
203.7626624856
 30
0.0
 10
121.1848861183
 20
203.8254813515
 30
0.0
 10
121.2904180096
 20
203.8849741895
 30
0.0
 10
121.4123589815
 20
203.9406724088
 30
0.0
 10
121.6024941085
 20
204.0117935781
 30
0.0
 10
121.8733327817
 20
204.0858094629
 30
0.0
 10
122.2302400127
 20
204.1497346174
 30
0.0
 10
122.6170468613
 20
204.1891463132
 30
0.0
 10
122.8835966556
 20
204.197972958
 30
0.0
 10
123.019124185
 20
204.197972958
 30
0.0
  0
SPLINE
  5
43F
100
AcDbEntity
  8
0
100
AcDbSpline
 62
7
  6
CONTINUOUS
 70
0
 71
3
 72
19
 73
15
 74
0
 42
0.0000001
 43
0.0000001
 44
0.0000000001
 40
0.0
 40
0.0
 40
0.0
 40
0.0
 40
0.0302993936
 40
0.0626743825
 40
0.0987787183
 40
0.1396941932
 40
0.1860171326
 40
0.2379842377
 40
0.2955756665
 40
0.358595168
 40
0.4994012148
 40
0.6566362973
 40
0.8253587613
 40
1.0
 40
1.0
 40
1.0
 40
1.0
 10
74.3019216492
 20
203.4856134034
 30
0.0
 10
74.3019219135
 20
203.4621000455
 30
0.0
 10
74.2946387365
 20
203.4132236801
 30
0.0
 10
74.262981937
 20
203.3425862757
 30
0.0
 10
74.2116555771
 20
203.2742705876
 30
0.0
 10
74.1415567487
 20
203.2085643214
 30
0.0
 10
74.0533622516
 20
203.1457454555
 30
0.0
 10
73.9478303603
 20
203.0862526175
 30
0.0
 10
73.8258893884
 20
203.0305543983
 30
0.0
 10
73.6357542615
 20
202.959433229
 30
0.0
 10
73.3649155882
 20
202.8854173442
 30
0.0
 10
73.0080083572
 20
202.8214921897
 30
0.0
 10
72.6212015086
 20
202.7820804939
 30
0.0
 10
72.3546517143
 20
202.773253849
 30
0.0
 10
72.219124185
 20
202.773253849
 30
0.0
  0
SPLINE
  5
440
100
AcDbEntity
  8
0
100
AcDbSpline
 62
7
  6
CONTINUOUS
 70
0
 71
3
 72
14
 73
10
 74
0
 42
0.0000001
 43
0.0000001
 44
0.0000000001
 40
0.0
 40
0.0
 40
0.0
 40
0.0
 40
0.1166954919
 40
0.231657011
 40
0.3477626
 40
0.4675869136
 40
0.5926854742
 40
0.7235498167
 40
1.0
 40
1.0
 40
1.0
 40
1.0
 10
75.7273222868
 20
213.0279483114
 30
0.0
 10
75.644505322
 20
213.1169521664
 30
0.0
 10
75.4636465337
 20
213.2788395409
 30
0.0
 10
75.1592374933
 20
213.4771639059
 30
0.0
 10
74.830284707
 20
213.6383112053
 30
0.0
 10
74.4774464248
 20
213.7699601682
 30
0.0
 10
74.1005014138
 20
213.8770575335
 30
0.0
 10
73.5575727946
 20
213.992022538
 30
0.0
 10
73.135078176
 20
214.0423525135
 30
0.0
 10
72.8477767618
 20
214.0625183126
 30
0.0
  0
SPLINE
  5
441
100
AcDbEntity
  8
0
100
AcDbSpline
 62
7
  6
CONTINUOUS
 70
0
 71
3
 72
14
 73
10
 74
0
 42
0.0000001
 43
0.0000001
 44
0.0000000001
 40
0.0
 40
0.0
 40
0.0
 40
0.0
 40
0.2764508943
 40
0.4073275702
 40
0.5324479579
 40
0.6522976954
 40
0.7684015907
 40
0.8833522059
 40
1.0
 40
1.0
 40
1.0
 40
1.0
 10
71.5904726973
 20
214.0625184589
 30
0.0
 10
71.3035663908
 20
214.0423809151
 30
0.0
 10
70.8816399872
 20
213.9921469798
 30
0.0
 10
70.3394022035
 20
213.8774466242
 30
0.0
 10
69.9628719431
 20
213.7706396175
 30
0.0
 10
69.6104217812
 20
213.6393069608
 30
0.0
 10
69.2817652041
 20
213.4786883295
 30
0.0
 10
68.9775734396
 20
213.2810704729
 30
0.0
 10
68.7967370824
 20
213.1197691966
 30
0.0
 10
68.7138714972
 20
213.031107597
 30
0.0
  0
SPLINE
  5
442
100
AcDbEntity
  8
0
100
AcDbSpline
 62
7
  6
CONTINUOUS
 70
0
 71
3
 72
19
 73
15
 74
0
 42
0.0000001
 43
0.0000001
 44
0.0000000001
 40
0.0
 40
0.0
 40
0.0
 40
0.0
 40
0.1746379887
 40
0.3433587362
 40
0.5005938837
 40
0.6414012398
 40
0.7044216448
 40
0.7620139047
 40
0.8139818256
 40
0.8603052608
 40
0.9012211904
 40
0.9373256347
 40
0.9697006869
 40
1.0
 40
1.0
 40
1.0
 40
1.0
 10
72.219124185
 20
202.773253849
 30
0.0
 10
72.0835991829
 20
202.773253849
 30
0.0
 10
71.8170532547
 20
202.7820801745
 30
0.0
 10
71.4302501609
 20
202.8214908873
 30
0.0
 10
71.0733430236
 20
202.8854150021
 30
0.0
 10
70.802502482
 20
202.9594306514
 30
0.0
 10
70.6123648384
 20
203.0305518641
 30
0.0
 10
70.490422037
 20
203.0862507848
 30
0.0
 10
70.3848883068
 20
203.1457438184
 30
0.0
 10
70.2966929631
 20
203.208563772
 30
0.0
 10
70.2265928757
 20
203.2742700033
 30
0.0
 10
70.1752669315
 20
203.342586505
 30
0.0
 10
70.1436091861
 20
203.413223695
 30
0.0
 10
70.1363269851
 20
203.4621001091
 30
0.0
 10
70.1363267207
 20
203.4856134037
 30
0.0
  0
SPLINE
  5
443
100
AcDbEntity
  8
0
100
AcDbSpline
 62
7
  6
CONTINUOUS
 70
0
 71
3
 72
9
 73
5
 74
0
 42
0.0000001
 43
0.0000001
 44
0.0000000001
 40
0.0
 40
0.0
 40
0.0
 40
0.0
 40
0.514364918
 40
1.0
 40
1.0
 40
1.0
 40
1.0
 10
71.5853764396
 20
213.1979896067
 30
0.0
 10
71.3479419476
 20
213.1849183874
 30
0.0
 10
70.8870007527
 20
213.1450016893
 30
0.0
 10
70.4297658429
 20
213.0734209782
 30
0.0
 10
70.2095937779
 20
213.0294901458
 30
0.0
  0
SPLINE
  5
444
100
AcDbEntity
  8
0
100
AcDbSpline
 62
7
  6
CONTINUOUS
 70
0
 71
3
 72
9
 73
5
 74
0
 42
0.0000001
 43
0.0000001
 44
0.0000000001
 40
0.0
 40
0.0
 40
0.0
 40
0.0
 40
0.485635082
 40
1.0
 40
1.0
 40
1.0
 40
1.0
 10
74.228654592
 20
213.0294901458
 30
0.0
 10
74.008482527
 20
213.0734209782
 30
0.0
 10
73.5512476172
 20
213.1450016893
 30
0.0
 10
73.0903064224
 20
213.1849183874
 30
0.0
 10
72.8528719303
 20
213.1979896067
 30
0.0
  0
SPLINE
  5
445
100
AcDbEntity
  8
0
100
AcDbSpline
 62
7
  6
CONTINUOUS
 70
0
 71
3
 72
19
 73
15
 74
0
 42
0.0000001
 43
0.0000001
 44
0.0000000001
 40
0.0
 40
0.0
 40
0.0
 40
0.0
 40
0.1746379887
 40
0.3433587362
 40
0.5005938837
 40
0.6414012398
 40
0.7044216448
 40
0.7620139047
 40
0.8139818256
 40
0.8603052608
 40
0.9012211904
 40
0.9373256347
 40
0.9697006869
 40
1.0
 40
1.0
 40
1.0
 40
1.0
 10
72.219124185
 20
204.197972958
 30
0.0
 10
72.354649187
 20
204.197972958
 30
0.0
 10
72.6211951152
 20
204.1891466326
 30
0.0
 10
73.0079982091
 20
204.1497359198
 30
0.0
 10
73.3649053464
 20
204.085811805
 30
0.0
 10
73.6357458879
 20
204.0117961557
 30
0.0
 10
73.8258835315
 20
203.940674943
 30
0.0
 10
73.9478263329
 20
203.8849760222
 30
0.0
 10
74.0533600631
 20
203.8254829886
 30
0.0
 10
74.1415554068
 20
203.762663035
 30
0.0
 10
74.2116554942
 20
203.6969568037
 30
0.0
 10
74.2629814385
 20
203.6286403021
 30
0.0
 10
74.2946391838
 20
203.558003112
 30
0.0
 10
74.3019213848
 20
203.509126698
 30
0.0
 10
74.3019216492
 20
203.4856134034
 30
0.0
  0
SPLINE
  5
446
100
AcDbEntity
  8
0
100
AcDbSpline
 62
7
  6
CONTINUOUS
 70
0
 71
3
 72
19
 73
15
 74
0
 42
0.0000001
 43
0.0000001
 44
0.0000000001
 40
0.0
 40
0.0
 40
0.0
 40
0.0
 40
0.0302993936
 40
0.0626743825
 40
0.0987787183
 40
0.1396941932
 40
0.1860171326
 40
0.2379842377
 40
0.2955756665
 40
0.358595168
 40
0.4994012148
 40
0.6566362973
 40
0.8253587613
 40
1.0
 40
1.0
 40
1.0
 40
1.0
 10
70.1363267207
 20
203.4856134037
 30
0.0
 10
70.1363264564
 20
203.5091267616
 30
0.0
 10
70.1436096335
 20
203.558003127
 30
0.0
 10
70.1752664329
 20
203.6286405313
 30
0.0
 10
70.2265927928
 20
203.6969562195
 30
0.0
 10
70.2966916212
 20
203.7626624856
 30
0.0
 10
70.3848861183
 20
203.8254813515
 30
0.0
 10
70.4904180096
 20
203.8849741895
 30
0.0
 10
70.6123589815
 20
203.9406724088
 30
0.0
 10
70.8024941085
 20
204.0117935781
 30
0.0
 10
71.0733327817
 20
204.0858094629
 30
0.0
 10
71.4302400127
 20
204.1497346174
 30
0.0
 10
71.8170468613
 20
204.1891463132
 30
0.0
 10
72.0835966556
 20
204.197972958
 30
0.0
 10
72.219124185
 20
204.197972958
 30
0.0
  0
SPLINE
  5
447
100
AcDbEntity
  8
0
100
AcDbSpline
 62
7
  6
CONTINUOUS
 70
0
 71
3
 72
9
 73
5
 74
0
 42
0.0000001
 43
0.0000001
 44
0.0000000001
 40
0.0
 40
0.0
 40
0.0
 40
0.0
 40
0.2467710795
 40
1.0
 40
1.0
 40
1.0
 40
1.0
 10
235.7338700673
 20
226.264513284
 30
0.0
 10
235.9379770129
 20
226.1283231168
 30
0.0
 10
236.7656996244
 20
225.5773536869
 30
0.0
 10
237.5964295918
 20
225.0308916797
 30
0.0
 10
238.2243194236
 20
224.6226111143
 30
0.0
  0
SPLINE
  5
448
100
AcDbEntity
  8
0
100
AcDbSpline
 62
7
  6
CONTINUOUS
 70
0
 71
3
 72
9
 73
5
 74
0
 42
0.0000001
 43
0.0000001
 44
0.0000000001
 40
0.0
 40
0.0
 40
0.0
 40
0.0
 40
0.2535523757
 40
1.0
 40
1.0
 40
1.0
 40
1.0
 10
238.2243194236
 20
224.8299871074
 30
0.0
 10
238.0265751636
 20
224.9585688014
 30
0.0
 10
237.2458629335
 20
225.4644331071
 30
0.0
 10
236.4619400766
 20
225.9653328916
 30
0.0
 10
235.8754750008
 20
226.337153039
 30
0.0
  0
SPLINE
  5
449
100
AcDbEntity
  8
0
100
AcDbSpline
 62
7
  6
CONTINUOUS
 70
0
 71
3
 72
15
 73
11
 74
0
 42
0.0000001
 43
0.0000001
 44
0.0000000001
 40
0.0
 40
0.0
 40
0.0
 40
0.0
 40
0.1247825202
 40
0.2496265104
 40
0.3745400482
 40
0.4995246426
 40
0.6245764497
 40
0.749682585
 40
0.8748327746
 40
1.0
 40
1.0
 40
1.0
 40
1.0
 10
174.8519497571
 20
198.0574767324
 30
0.0
 10
174.7948157177
 20
198.2053942198
 30
0.0
 10
174.6579553804
 20
198.4931428317
 30
0.0
 10
174.3902944251
 20
198.8887740186
 30
0.0
 10
174.0660939932
 20
199.2400645398
 30
0.0
 10
173.6927278782
 20
199.538952395
 30
0.0
 10
173.2786278374
 20
199.778719746
 30
0.0
 10
172.8331145916
 20
199.95395938
 30
0.0
 10
172.3663879444
 20
200.06070199
 30
0.0
 10
172.0477812753
 20
200.0846047283
 30
0.0
 10
171.888724185
 20
200.0846047283
 30
0.0
  0
SPLINE
  5
44A
100
AcDbEntity
  8
0
100
AcDbSpline
 62
7
  6
CONTINUOUS
 70
0
 71
3
 72
9
 73
5
 74
0
 42
0.0000001
 43
0.0000001
 44
0.0000000001
 40
0.0
 40
0.0
 40
0.0
 40
0.0
 40
0.2514020607
 40
1.0
 40
1.0
 40
1.0
 40
1.0
 10
167.0768705351
 20
200.0154141843
 30
0.0
 10
166.9408822559
 20
199.780771871
 30
0.0
 10
166.4016988773
 20
198.8464304277
 30
0.0
 10
165.869169222
 20
197.9082608565
 30
0.0
 10
165.4729193186
 20
197.2046085109
 30
0.0
  0
SPLINE
  5
44B
100
AcDbEntity
  8
0
100
AcDbSpline
 62
7
  6
CONTINUOUS
 70
0
 71
3
 72
9
 73
5
 74
0
 42
0.0000001
 43
0.0000001
 44
0.0000000001
 40
0.0
 40
0.0
 40
0.0
 40
0.0
 40
0.5053647281
 40
1.0
 40
1.0
 40
1.0
 40
1.0
 10
171.888724185
 20
202.78296758
 30
0.0
 10
171.3482772291
 20
202.78296758
 30
0.0
 10
170.2788448771
 20
202.7749438266
 30
0.0
 10
169.2096270735
 20
202.7530198831
 30
0.0
 10
168.6808217518
 20
202.7397153021
 30
0.0
  0
LINE
  5
44C
100
AcDbEntity
  8
0
100
AcDbLine
 62
7
  6
CONTINUOUS
 10
168.0632077746
 20
201.7002013691
 11
168.0260568752
 21
201.6373288412
  0
SPLINE
  5
44D
100
AcDbEntity
  8
0
100
AcDbSpline
 62
7
  6
CONTINUOUS
 70
0
 71
3
 72
9
 73
5
 74
0
 42
0.0000001
 43
0.0000001
 44
0.0000000001
 40
0.0
 40
0.0
 40
0.0
 40
0.0
 40
0.2557225387
 40
1.0
 40
1.0
 40
1.0
 40
1.0
 10
176.7005778348
 20
200.0154141843
 30
0.0
 10
176.5654514079
 20
200.2485694061
 30
0.0
 10
176.0353606621
 20
201.1593465356
 30
0.0
 10
175.4986540277
 20
202.0662629305
 30
0.0
 10
175.0966266181
 20
202.7397153021
 30
0.0
  0
SPLINE
  5
44E
100
AcDbEntity
  8
0
100
AcDbSpline
 62
7
  6
CONTINUOUS
 70
0
 71
3
 72
9
 73
5
 74
0
 42
0.0000001
 43
0.0000001
 44
0.0000000001
 40
0.0
 40
0.0
 40
0.0
 40
0.0
 40
0.4946353484
 40
1.0
 40
1.0
 40
1.0
 40
1.0
 10
175.0966266181
 20
202.7397153021
 30
0.0
 10
174.5678212147
 20
202.7530198852
 30
0.0
 10
173.4986034105
 20
202.7749437954
 30
0.0
 10
172.429171059
 20
202.78296758
 30
0.0
 10
171.888724185
 20
202.78296758
 30
0.0
  0
SPLINE
  5
44F
100
AcDbEntity
  8
0
100
AcDbSpline
 62
7
  6
CONTINUOUS
 70
0
 71
3
 72
9
 73
5
 74
0
 42
0.0000001
 43
0.0000001
 44
0.0000000001
 40
0.0
 40
0.0
 40
0.0
 40
0.0
 40
0.2475455355
 40
1.0
 40
1.0
 40
1.0
 40
1.0
 10
178.3045290513
 20
197.2046085109
 30
0.0
 10
178.173497659
 20
197.4372913349
 30
0.0
 10
177.6431450879
 20
198.3766692842
 30
0.0
 10
177.1075948673
 20
199.313122644
 30
0.0
 10
176.7005778348
 20
200.0154141843
 30
0.0
  0
SPLINE
  5
450
100
AcDbEntity
  8
0
100
AcDbSpline
 62
7
  6
CONTINUOUS
 70
0
 71
3
 72
15
 73
11
 74
0
 42
0.0000001
 43
0.0000001
 44
0.0000000001
 40
0.0
 40
0.0
 40
0.0
 40
0.0
 40
0.1247824068
 40
0.2496264855
 40
0.3745406853
 40
0.4995255695
 40
0.6245753013
 40
0.749680976
 40
0.8748321277
 40
1.0
 40
1.0
 40
1.0
 40
1.0
 10
175.2036933519
 20
198.184499931
 30
0.0
 10
175.1393660392
 20
198.3495639814
 30
0.0
 10
174.9855611388
 20
198.6706037452
 30
0.0
 10
174.6854539302
 20
199.111874753
 30
0.0
 10
174.3224481531
 20
199.5035905408
 30
0.0
 10
173.9047641559
 20
199.8368061843
 30
0.0
 10
173.4417838258
 20
200.1040669994
 30
0.0
 10
172.9438769581
 20
200.2993824079
 30
0.0
 10
172.4223808019
 20
200.4183443134
 30
0.0
 10
172.0664271422
 20
200.4449832201
 30
0.0
 10
171.888724185
 20
200.4449832201
 30
0.0
  0
SPLINE
  5
451
100
AcDbEntity
  8
0
100
AcDbSpline
 62
7
  6
CONTINUOUS
 70
0
 71
3
 72
15
 73
11
 74
0
 42
0.0000001
 43
0.0000001
 44
0.0000000001
 40
0.0
 40
0.0
 40
0.0
 40
0.0
 40
0.1251371884
 40
0.2502583214
 40
0.3753484307
 40
0.5003946492
 40
0.6253870904
 40
0.7503195227
 40
0.8751897962
 40
1.0
 40
1.0
 40
1.0
 40
1.0
 10
171.888724185
 20
202.4376216649
 30
0.0
 10
172.1309842893
 20
202.4376216649
 30
0.0
 10
172.6160670346
 20
202.4059668327
 30
0.0
 10
173.3307904985
 20
202.2643289245
 30
0.0
 10
174.0209755765
 20
202.0309583564
 30
0.0
 10
174.6746558037
 20
201.7098416764
 30
0.0
 10
175.2806850437
 20
201.3064787599
 30
0.0
 10
175.8287034569
 20
200.8277285307
 30
0.0
 10
176.3092528466
 20
200.2819194946
 30
0.0
 10
176.579418676
 20
199.8791235308
 30
0.0
 10
176.7005778347
 20
199.6700682693
 30
0.0
  0
SPLINE
  5
452
100
AcDbEntity
  8
0
100
AcDbSpline
 62
7
  6
CONTINUOUS
 70
0
 71
3
 72
9
 73
5
 74
0
 42
0.0000001
 43
0.0000001
 44
0.0000000001
 40
0.0
 40
0.0
 40
0.0
 40
0.0
 40
0.4946353397
 40
1.0
 40
1.0
 40
1.0
 40
1.0
 10
168.6808217518
 20
202.4808739428
 30
0.0
 10
169.209627146
 20
202.46756936
 30
0.0
 10
170.2788449497
 20
202.4456454168
 30
0.0
 10
171.3482773016
 20
202.4376216649
 30
0.0
 10
171.8887241849
 20
202.4376216649
 30
0.0
  0
LINE
  5
453
100
AcDbEntity
  8
0
100
AcDbLine
 62
7
  6
CONTINUOUS
 10
168.0755039624
 20
201.4106845438
 11
168.2360892494
 21
201.6936168366
  0
SPLINE
  5
454
100
AcDbEntity
  8
0
100
AcDbSpline
 62
7
  6
CONTINUOUS
 70
0
 71
3
 72
9
 73
5
 74
0
 42
0.0000001
 43
0.0000001
 44
0.0000000001
 40
0.0
 40
0.0
 40
0.0
 40
0.0
 40
0.2475455359
 40
1.0
 40
1.0
 40
1.0
 40
1.0
 10
175.0966266181
 20
202.4808739428
 30
0.0
 10
175.2276580107
 20
202.2481911184
 30
0.0
 10
175.7580105921
 20
201.3088131749
 30
0.0
 10
176.2935608024
 20
200.3723598093
 30
0.0
 10
176.7005778347
 20
199.6700682693
 30
0.0
  0
SPLINE
  5
455
100
AcDbEntity
  8
0
100
AcDbSpline
 62
7
  6
CONTINUOUS
 70
0
 71
3
 72
9
 73
5
 74
0
 42
0.0000001
 43
0.0000001
 44
0.0000000001
 40
0.0
 40
0.0
 40
0.0
 40
0.0
 40
0.505364711
 40
1.0
 40
1.0
 40
1.0
 40
1.0
 10
171.8887241849
 20
202.4376216649
 30
0.0
 10
172.4291711225
 20
202.4376216649
 30
0.0
 10
173.498603474
 20
202.445645452
 30
0.0
 10
174.5678212781
 20
202.4675693613
 30
0.0
 10
175.0966266181
 20
202.4808739428
 30
0.0
  0
SPLINE
  5
456
100
AcDbEntity
  8
0
100
AcDbSpline
 62
7
  6
CONTINUOUS
 70
0
 71
3
 72
9
 73
5
 74
0
 42
0.0000001
 43
0.0000001
 44
0.0000000001
 40
0.0
 40
0.0
 40
0.0
 40
0.0
 40
0.255722542
 40
1.0
 40
1.0
 40
1.0
 40
1.0
 10
176.7005778347
 20
199.6700682693
 30
0.0
 10
176.8357042634
 20
199.4369130446
 30
0.0
 10
177.3657950087
 20
198.5261359148
 30
0.0
 10
177.9025016436
 20
197.6192195201
 30
0.0
 10
178.3045290513
 20
196.9457671515
 30
0.0
  0
SPLINE
  5
457
100
AcDbEntity
  8
0
100
AcDbSpline
 62
7
  6
CONTINUOUS
 70
0
 71
3
 72
9
 73
5
 74
0
 42
0.0000001
 43
0.0000001
 44
0.0000000001
 40
0.0
 40
0.0
 40
0.0
 40
0.0
 40
0.2436179243
 40
1.0
 40
1.0
 40
1.0
 40
1.0
 10
165.4729193186
 20
196.9457671515
 30
0.0
 10
165.6045114012
 20
197.1662023707
 30
0.0
 10
166.14358277
 20
198.0716893298
 30
0.0
 10
166.6771906976
 20
198.9804367641
 30
0.0
 10
167.0768705352
 20
199.6700682693
 30
0.0
  0
SPLINE
  5
458
100
AcDbEntity
  8
0
100
AcDbSpline
 62
7
  6
CONTINUOUS
 70
0
 71
3
 72
15
 73
11
 74
0
 42
0.0000001
 43
0.0000001
 44
0.0000000001
 40
0.0
 40
0.0
 40
0.0
 40
0.0
 40
0.1250631167
 40
0.2501175587
 40
0.3751564299
 40
0.5001742148
 40
0.625167603
 40
0.7501353083
 40
0.8750781389
 40
1.0
 40
1.0
 40
1.0
 40
1.0
 10
241.127895892
 20
226.0556077562
 30
0.0
 10
240.7920155713
 20
226.0620519509
 30
0.0
 10
240.1201519779
 20
226.1258775683
 30
0.0
 10
239.139176621
 20
226.372071452
 30
0.0
 10
238.2063264751
 20
226.7631428017
 30
0.0
 10
237.3432120324
 20
227.2901531605
 30
0.0
 10
236.5694812281
 20
227.9410488507
 30
0.0
 10
235.9028082121
 20
228.7010369637
 30
0.0
 10
235.3585280778
 20
229.5524729243
 30
0.0
 10
235.0852794801
 20
230.1688401129
 30
0.0
 10
234.9728818778
 20
230.4850190209
 30
0.0
  0
SPLINE
  5
459
100
AcDbEntity
  8
0
100
AcDbSpline
 62
7
  6
CONTINUOUS
 70
0
 71
3
 72
11
 73
7
 74
0
 42
0.0000001
 43
0.0000001
 44
0.0000000001
 40
0.0
 40
0.0
 40
0.0
 40
0.0
 40
0.2502741382
 40
0.500359749
 40
0.7502578862
 40
1.0
 40
1.0
 40
1.0
 40
1.0
 10
168.7524038061
 20
198.022049311
 30
0.0
 10
168.3551641195
 20
197.8111042775
 30
0.0
 10
167.6015391468
 20
197.3073627656
 30
0.0
 10
166.6484795071
 20
196.3409854196
 30
0.0
 10
165.9101575774
 20
195.2032124224
 30
0.0
 10
165.5811897589
 20
194.3598574786
 30
0.0
 10
165.4613978565
 20
193.9273208709
 30
0.0
  0
SPLINE
  5
45A
100
AcDbEntity
  8
0
100
AcDbSpline
 62
7
  6
CONTINUOUS
 70
0
 71
3
 72
11
 73
7
 74
0
 42
0.0000001
 43
0.0000001
 44
0.0000000001
 40
0.0
 40
0.0
 40
0.0
 40
0.0
 40
0.2497350244
 40
0.4996795732
 40
0.7497850129
 40
1.0
 40
1.0
 40
1.0
 40
1.0
 10
175.2932722374
 20
194.2309314189
 30
0.0
 10
175.0925768121
 20
194.4871975493
 30
0.0
 10
174.6309121656
 20
194.9559054561
 30
0.0
 10
173.7990295237
 20
195.4840453758
 30
0.0
 10
172.8693436262
 20
195.8124425363
 30
0.0
 10
172.214850888
 20
195.8866419904
 30
0.0
 10
171.888724185
 20
195.8866419904
 30
0.0
  0
SPLINE
  5
45B
100
AcDbEntity
  8
0
100
AcDbSpline
 62
7
  6
CONTINUOUS
 70
0
 71
3
 72
11
 73
7
 74
0
 42
0.0000001
 43
0.0000001
 44
0.0000000001
 40
0.0
 40
0.0
 40
0.0
 40
0.0
 40
0.2502149196
 40
0.5003203201
 40
0.7502648957
 40
1.0
 40
1.0
 40
1.0
 40
1.0
 10
171.888724185
 20
195.8866419904
 30
0.0
 10
171.5626640458
 20
195.8866419904
 30
0.0
 10
170.9083058259
 20
195.8124730794
 30
0.0
 10
169.9787898176
 20
195.4842087549
 30
0.0
 10
169.147018195
 20
194.9562748111
 30
0.0
 10
168.6853731252
 20
194.4877395018
 30
0.0
 10
168.484670795
 20
194.2315629276
 30
0.0
  0
SPLINE
  5
45C
100
AcDbEntity
  8
0
100
AcDbSpline
 62
7
  6
CONTINUOUS
 70
0
 71
3
 72
11
 73
7
 74
0
 42
0.0000001
 43
0.0000001
 44
0.0000000001
 40
0.0
 40
0.0
 40
0.0
 40
0.0
 40
0.2497397623
 40
0.499635803
 40
0.7497218931
 40
1.0
 40
1.0
 40
1.0
 40
1.0
 10
178.3402952513
 20
193.8373208259
 30
0.0
 10
178.2246511046
 20
194.2789639386
 30
0.0
 10
177.9005319187
 20
195.1411181206
 30
0.0
 10
177.1595208464
 20
196.3052636644
 30
0.0
 10
176.1950371937
 20
197.2935870466
 30
0.0
 10
175.4291222641
 20
197.807473107
 30
0.0
 10
175.0250445638
 20
198.022049311
 30
0.0
  0
SPLINE
  5
45D
100
AcDbEntity
  8
0
100
AcDbSpline
 62
7
  6
CONTINUOUS
 70
0
 71
3
 72
15
 73
11
 74
0
 42
0.0000001
 43
0.0000001
 44
0.0000000001
 40
0.0
 40
0.0
 40
0.0
 40
0.0
 40
0.1251725844
 40
0.2503200734
 40
0.3754292368
 40
0.5004800852
 40
0.6254645212
 40
0.7503768049
 40
0.8752190726
 40
1.0
 40
1.0
 40
1.0
 40
1.0
 10
171.888724185
 20
198.1607887576
 30
0.0
 10
172.2256519583
 20
198.1607887576
 30
0.0
 10
172.9005494941
 20
198.1097225085
 30
0.0
 10
173.8887930282
 20
197.8816497669
 30
0.0
 10
174.8313268234
 20
197.5073748831
 30
0.0
 10
175.7061966208
 20
196.9954522918
 30
0.0
 10
176.4933698536
 20
196.357676484
 30
0.0
 10
177.174754192
 20
195.6086067909
 30
0.0
 10
177.7345804874
 20
194.7657431647
 30
0.0
 10
178.0184967708
 20
194.153378395
 30
0.0
 10
178.1362134529
 20
193.838809129
 30
0.0
  0
SPLINE
  5
45E
100
AcDbEntity
  8
0
100
AcDbSpline
 62
7
  6
CONTINUOUS
 70
0
 71
3
 72
15
 73
11
 74
0
 42
0.0000001
 43
0.0000001
 44
0.0000000001
 40
0.0
 40
0.0
 40
0.0
 40
0.0
 40
0.1247826362
 40
0.2496268209
 40
0.3745404582
 40
0.4995254106
 40
0.6245760345
 40
0.7496840166
 40
0.8748300972
 40
1.0
 40
1.0
 40
1.0
 40
1.0
 10
165.6742910448
 20
193.9252994473
 30
0.0
 10
165.7949935777
 20
194.2346213199
 30
0.0
 10
166.0835460668
 20
194.8362010345
 30
0.0
 10
166.6463379056
 20
195.6630434585
 30
0.0
 10
167.3269422114
 20
196.3970024511
 30
0.0
 10
168.1099615474
 20
197.0213231556
 30
0.0
 10
168.9778129756
 20
197.5220771283
 30
0.0
 10
169.9110772219
 20
197.8879920225
 30
0.0
 10
170.8885108782
 20
198.1108890331
 30
0.0
 10
171.5556558631
 20
198.1607887576
 30
0.0
 10
171.888724185
 20
198.1607887576
 30
0.0
  0
SPLINE
  5
45F
100
AcDbEntity
  8
0
100
AcDbSpline
 62
7
  6
CONTINUOUS
 70
0
 71
3
 72
15
 73
11
 74
0
 42
0.0000001
 43
0.0000001
 44
0.0000000001
 40
0.0
 40
0.0
 40
0.0
 40
0.0
 40
0.1251370331
 40
0.2502687139
 40
0.375357888
 40
0.5004056535
 40
0.6253965091
 40
0.7503269495
 40
0.8751938574
 40
1.0
 40
1.0
 40
1.0
 40
1.0
 10
171.888724185
 20
196.5793296744
 30
0.0
 10
171.663117125
 20
196.5793296744
 30
0.0
 10
171.2113402247
 20
196.5492905211
 30
0.0
 10
170.5461434414
 20
196.4149614533
 30
0.0
 10
169.9046510277
 20
196.1936831913
 30
0.0
 10
169.2984052494
 20
195.8894447435
 30
0.0
 10
168.7381294696
 20
195.5076037992
 30
0.0
 10
168.2337551575
 20
195.0549236043
 30
0.0
 10
167.7943221359
 20
194.5395596236
 30
0.0
 10
167.549607285
 20
194.1598738982
 30
0.0
 10
167.4406112244
 20
193.9630247535
 30
0.0
  0
SPLINE
  5
460
100
AcDbEntity
  8
0
100
AcDbSpline
 62
7
  6
CONTINUOUS
 70
0
 71
3
 72
15
 73
11
 74
0
 42
0.0000001
 43
0.0000001
 44
0.0000000001
 40
0.0
 40
0.0
 40
0.0
 40
0.0
 40
0.1248057903
 40
0.2496721189
 40
0.3746020257
 40
0.4995927165
 40
0.6246407785
 40
0.7497303562
 40
0.8748627232
 40
1.0
 40
1.0
 40
1.0
 40
1.0
 10
176.3374901123
 20
193.9618451306
 30
0.0
 10
176.2285196996
 20
194.1587717084
 30
0.0
 10
175.9838395838
 20
194.5386123824
 30
0.0
 10
175.5444102278
 20
195.0541986086
 30
0.0
 10
175.0399947247
 20
195.5070832792
 30
0.0
 10
174.4796369817
 20
195.8891038669
 30
0.0
 10
173.8732743793
 20
196.1934899838
 30
0.0
 10
173.2316378319
 20
196.4148787787
 30
0.0
 10
172.5662789965
 20
196.5492751566
 30
0.0
 10
172.1143877942
 20
196.5793296744
 30
0.0
 10
171.888724185
 20
196.5793296744
 30
0.0
  0
SPLINE
  5
461
100
AcDbEntity
  8
0
100
AcDbSpline
 62
7
  6
CONTINUOUS
 70
0
 71
3
 72
15
 73
11
 74
0
 42
0.0000001
 43
0.0000001
 44
0.0000000001
 40
0.0
 40
0.0
 40
0.0
 40
0.0
 40
0.1250674155
 40
0.2501192915
 40
0.3751505722
 40
0.5001586695
 40
0.6251433509
 40
0.750109396
 40
0.8750549482
 40
1.0
 40
1.0
 40
1.0
 40
1.0
 10
239.9193179461
 20
230.269079158
 30
0.0
 10
239.5177140795
 20
230.3458370532
 30
0.0
 10
238.7261280584
 20
230.5692145051
 30
0.0
 10
237.6153121957
 20
231.1026628615
 30
0.0
 10
236.612422103
 20
231.8189799038
 30
0.0
 10
235.7477755472
 20
232.6967845964
 30
0.0
 10
235.0469726062
 20
233.7099569539
 30
0.0
 10
234.5309557579
 20
234.8284744855
 30
0.0
 10
234.2150227411
 20
236.0185765129
 30
0.0
 10
234.144124185
 20
236.8372843246
 30
0.0
 10
234.144124185
 20
237.2457576692
 30
0.0
  0
SPLINE
  5
462
100
AcDbEntity
  8
0
100
AcDbSpline
 62
7
  6
CONTINUOUS
 70
0
 71
3
 72
15
 73
11
 74
0
 42
0.0000001
 43
0.0000001
 44
0.0000000001
 40
0.0
 40
0.0
 40
0.0
 40
0.0
 40
0.1249170371
 40
0.2498377478
 40
0.3747903909
 40
0.4997816535
 40
0.6248087354
 40
0.749863515
 40
0.8749326828
 40
1.0
 40
1.0
 40
1.0
 40
1.0
 10
234.9085011693
 20
237.4586160639
 30
0.0
 10
234.9213493166
 20
236.9876488217
 30
0.0
 10
235.0530977634
 20
236.0452041798
 30
0.0
 10
235.558870613
 20
234.7131301176
 30
0.0
 10
236.3475816745
 20
233.5253465638
 30
0.0
 10
237.3800866822
 20
232.5417197877
 30
0.0
 10
238.60502933
 20
231.8108572398
 30
0.0
 10
239.9617705301
 20
231.3691010163
 30
0.0
 10
241.3820783487
 20
231.2381956387
 30
0.0
 10
242.3265583477
 20
231.3630039906
 30
0.0
 10
242.7844409879
 20
231.47637558
 30
0.0
  0
SPLINE
  5
463
100
AcDbEntity
  8
0
100
AcDbSpline
 62
7
  6
CONTINUOUS
 70
0
 71
3
 72
15
 73
11
 74
0
 42
0.0000001
 43
0.0000001
 44
0.0000000001
 40
0.0
 40
0.0
 40
0.0
 40
0.0
 40
0.1250828117
 40
0.2501472721
 40
0.3751861167
 40
0.5001953058
 40
0.6251745541
 40
0.7501275817
 40
0.8750567721
 40
1.0
 40
1.0
 40
1.0
 40
1.0
 10
240.2371655531
 20
230.6022898382
 30
0.0
 10
239.8192351244
 20
230.6627182637
 30
0.0
 10
238.9923279866
 20
230.8585540385
 30
0.0
 10
237.8252594066
 20
231.3670282512
 30
0.0
 10
236.7666318966
 20
232.0743331894
 30
0.0
 10
235.8505604024
 20
232.9579790441
 30
0.0
 10
235.10598224
 20
233.9899200111
 30
0.0
 10
234.5566095214
 20
235.1375425904
 30
0.0
 10
234.2197600432
 20
236.3639560604
 30
0.0
 10
234.1441600399
 20
237.2094590487
 30
0.0
 10
234.1441412179
 20
237.6312643114
 30
0.0
  0
SPLINE
  5
464
100
AcDbEntity
  8
0
100
AcDbSpline
 62
7
  6
CONTINUOUS
 70
0
 71
3
 72
15
 73
11
 74
0
 42
0.0000001
 43
0.0000001
 44
0.0000000001
 40
0.0
 40
0.0
 40
0.0
 40
0.0
 40
0.1249459097
 40
0.2498761005
 40
0.37483063
 40
0.4998096314
 40
0.6248176461
 40
0.749854733
 40
0.8749176135
 40
1.0
 40
1.0
 40
1.0
 40
1.0
 10
234.144140956
 20
237.2457576699
 30
0.0
 10
234.1441587327
 20
236.837508223
 30
0.0
 10
234.2149502625
 20
236.0193014772
 30
0.0
 10
234.5306055725
 20
234.8299223174
 30
0.0
 10
235.0461113667
 20
233.7120476279
 30
0.0
 10
235.7462588926
 20
232.699327582
 30
0.0
 10
236.6101591321
 20
231.8217550885
 30
0.0
 10
237.612255217
 20
231.1054215262
 30
0.0
 10
238.7222836745
 20
230.5716844979
 30
0.0
 10
239.5133804779
 20
230.3479643867
 30
0.0
 10
239.9147593644
 20
230.2709780425
 30
0.0
  0
SPLINE
  5
465
100
AcDbEntity
  8
0
100
AcDbSpline
 62
7
  6
CONTINUOUS
 70
0
 71
3
 72
15
 73
11
 74
0
 42
0.0000001
 43
0.0000001
 44
0.0000000001
 40
0.0
 40
0.0
 40
0.0
 40
0.0
 40
0.1249290113
 40
0.2498449895
 40
0.3747935025
 40
0.4997809825
 40
0.6248051518
 40
0.7498586031
 40
0.8749287084
 40
1.0
 40
1.0
 40
1.0
 40
1.0
 10
234.9061476929
 20
238.2420929489
 30
0.0
 10
234.9061862517
 20
237.7750684828
 30
0.0
 10
235.0102702664
 20
236.8377677527
 30
0.0
 10
235.4714181611
 20
235.5030983469
 30
0.0
 10
236.2147315696
 20
234.3014779114
 30
0.0
 10
237.2040899914
 20
233.2923744856
 30
0.0
 10
238.3910709599
 20
232.5247441458
 30
0.0
 10
239.7179893431
 20
232.0361255399
 30
0.0
 10
241.1192470467
 20
231.8501848311
 30
0.0
 10
242.0596094245
 20
231.9344748191
 30
0.0
 10
242.5178666835
 20
232.027260762
 30
0.0
  0
SPLINE
  5
466
100
AcDbEntity
  8
0
100
AcDbSpline
 62
7
  6
CONTINUOUS
 70
0
 71
3
 72
15
 73
11
 74
0
 42
0.0000001
 43
0.0000001
 44
0.0000000001
 40
0.0
 40
0.0
 40
0.0
 40
0.0
 40
0.1249115024
 40
0.2498661726
 40
0.3748692953
 40
0.4999092111
 40
0.6249649758
 40
0.7500125362
 40
0.8750291346
 40
1.0
 40
1.0
 40
1.0
 40
1.0
 10
236.250862059
 20
238.5375169558
 30
0.0
 10
236.3824715681
 20
238.0791877933
 30
0.0
 10
236.775068282
 20
237.1940998557
 30
0.0
 10
237.7017254387
 20
236.0807389046
 30
0.0
 10
238.8975540698
 20
235.2606755597
 30
0.0
 10
240.2716670786
 20
234.7972473832
 30
0.0
 10
241.720186964
 20
234.7250409657
 30
0.0
 10
243.1337870611
 20
235.0498819758
 30
0.0
 10
244.4047359549
 20
235.7461011713
 30
0.0
 10
245.0950592863
 20
236.4256702755
 30
0.0
 10
245.3858972073
 20
236.8038450575
 30
0.0
  0
SPLINE
  5
467
100
AcDbEntity
  8
0
100
AcDbSpline
 62
7
  6
CONTINUOUS
 70
0
 71
3
 72
15
 73
11
 74
0
 42
0.0000001
 43
0.0000001
 44
0.0000000001
 40
0.0
 40
0.0
 40
0.0
 40
0.0
 40
0.1250701544
 40
0.2501401147
 40
0.375193651
 40
0.5002178096
 40
0.625205344
 40
0.7501539072
 40
0.8750703968
 40
1.0
 40
1.0
 40
1.0
 40
1.0
 10
242.7130559414
 20
231.7788575824
 30
0.0
 10
242.2498823394
 20
231.6698389423
 30
0.0
 10
241.2954943132
 20
231.5558467659
 30
0.0
 10
239.864663145
 20
231.7086576706
 30
0.0
 10
238.5034157039
 20
232.1767570576
 30
0.0
 10
237.2814353399
 20
232.9367174081
 30
0.0
 10
236.2602136898
 20
233.9500185001
 30
0.0
 10
235.4915017174
 20
235.1657657514
 30
0.0
 10
235.01402537
 20
236.5216527459
 30
0.0
 10
234.9061883594
 20
237.4756729974
 30
0.0
 10
234.9061481359
 20
237.9509689612
 30
0.0
  0
SPLINE
  5
468
100
AcDbEntity
  8
0
100
AcDbSpline
 62
7
  6
CONTINUOUS
 70
0
 71
3
 72
9
 73
5
 74
0
 42
0.0000001
 43
0.0000001
 44
0.0000000001
 40
0.0
 40
0.0
 40
0.0
 40
0.0
 40
0.5000102526
 40
1.0
 40
1.0
 40
1.0
 40
1.0
 10
242.5891891007
 20
234.290812709
 30
0.0
 10
242.0529098395
 20
234.1652973714
 30
0.0
 10
240.939077738
 20
234.0660489823
 30
0.0
 10
239.8422105652
 20
234.2836779126
 30
0.0
 10
239.32242849
 20
234.4657527882
 30
0.0
  0
SPLINE
  5
469
100
AcDbEntity
  8
0
100
AcDbSpline
 62
7
  6
CONTINUOUS
 70
0
 71
3
 72
9
 73
5
 74
0
 42
0.0000001
 43
0.0000001
 44
0.0000000001
 40
0.0
 40
0.0
 40
0.0
 40
0.0
 40
0.5000954584
 40
1.0
 40
1.0
 40
1.0
 40
1.0
 10
238.1768096921
 20
235.0131416818
 30
0.0
 10
237.7088430018
 20
235.3030049898
 30
0.0
 10
236.8510413265
 20
236.0191878243
 30
0.0
 10
236.2293669659
 20
236.9478076712
 30
0.0
 10
235.9907321891
 20
237.4436258743
 30
0.0
  0
SPLINE
  5
46A
100
AcDbEntity
  8
0
100
AcDbSpline
 62
7
  6
CONTINUOUS
 70
0
 71
3
 72
21
 73
17
 74
0
 42
0.0000001
 43
0.0000001
 44
0.0000000001
 40
0.0
 40
0.0
 40
0.0
 40
0.0
 40
0.0625234633
 40
0.1250711667
 40
0.1876159608
 40
0.2501811508
 40
0.312760431
 40
0.3753570123
 40
0.4999973954
 40
0.6246330237
 40
0.6872254632
 40
0.7498015134
 40
0.8123626959
 40
0.8749094848
 40
0.9374438181
 40
1.0
 40
1.0
 40
1.0
 40
1.0
 10
236.0565948173
 20
245.4337335693
 30
0.0
 10
236.074503094
 20
245.7672295474
 30
0.0
 10
236.1752465809
 20
246.4326492869
 30
0.0
 10
236.5147757876
 20
247.3818926101
 30
0.0
 10
237.0306228602
 20
248.2487481547
 30
0.0
 10
237.7030564573
 20
249.0006632724
 30
0.0
 10
238.5078783531
 20
249.6097651584
 30
0.0
 10
239.7123444368
 20
250.2001224347
 30
0.0
 10
241.3988471402
 20
250.485061807
 30
0.0
 10
243.0677037627
 20
250.1104819477
 30
0.0
 10
244.2388753636
 20
249.4566841571
 30
0.0
 10
245.0099500339
 20
248.805485164
 30
0.0
 10
245.6412457803
 20
248.0187377125
 30
0.0
 10
246.1098517001
 20
247.1255620782
 30
0.0
 10
246.3982799602
 20
246.1594294251
 30
0.0
 10
246.4630191676
 20
245.4894419164
 30
0.0
 10
246.4630855065
 20
245.1552906957
 30
0.0
  0
SPLINE
  5
46B
100
AcDbEntity
  8
0
100
AcDbSpline
 62
7
  6
CONTINUOUS
 70
0
 71
3
 72
15
 73
11
 74
0
 42
0.0000001
 43
0.0000001
 44
0.0000000001
 40
0.0
 40
0.0
 40
0.0
 40
0.0
 40
0.1249563575
 40
0.249908979
 40
0.3749285844
 40
0.4999962307
 40
0.6250680121
 40
0.7500993472
 40
0.8750654443
 40
1.0
 40
1.0
 40
1.0
 40
1.0
 10
238.0811587224
 20
245.1552910912
 30
0.0
 10
238.0812846948
 20
244.7497214058
 30
0.0
 10
238.24085456
 20
243.9299816756
 30
0.0
 10
238.924450367
 20
242.8878148702
 30
0.0
 10
239.9508124678
 20
242.1777747483
 30
0.0
 10
241.1690593508
 20
241.906162942
 30
0.0
 10
242.4000996954
 20
242.112326669
 30
0.0
 10
243.46305212
 20
242.7665306153
 30
0.0
 10
244.2013379855
 20
243.770644335
 30
0.0
 10
244.4048255106
 20
244.5805929533
 30
0.0
 10
244.4265689214
 20
244.9855085209
 30
0.0
  0
SPLINE
  5
46C
100
AcDbEntity
  8
0
100
AcDbSpline
 62
7
  6
CONTINUOUS
 70
0
 71
3
 72
15
 73
11
 74
0
 42
0.0000001
 43
0.0000001
 44
0.0000000001
 40
0.0
 40
0.0
 40
0.0
 40
0.0
 40
0.1249563575
 40
0.249908979
 40
0.3749285844
 40
0.4999962307
 40
0.6250680121
 40
0.7500993472
 40
0.8750654443
 40
1.0
 40
1.0
 40
1.0
 40
1.0
 10
244.4310896475
 20
245.1552903811
 30
0.0
 10
244.4309636751
 20
245.5608600666
 30
0.0
 10
244.2713938099
 20
246.3805997968
 30
0.0
 10
243.5877980029
 20
247.4227666022
 30
0.0
 10
242.5614359021
 20
248.1328067241
 30
0.0
 10
241.3431890191
 20
248.4044185304
 30
0.0
 10
240.1121486745
 20
248.1982548034
 30
0.0
 10
239.0491962499
 20
247.5440508571
 30
0.0
 10
238.3109103844
 20
246.5399371374
 30
0.0
 10
238.1074228593
 20
245.7299885191
 30
0.0
 10
238.0856794486
 20
245.3250729515
 30
0.0
  0
SPLINE
  5
46D
100
AcDbEntity
  8
0
100
AcDbSpline
 62
7
  6
CONTINUOUS
 70
0
 71
3
 72
21
 73
17
 74
0
 42
0.0000001
 43
0.0000001
 44
0.0000000001
 40
0.0
 40
0.0
 40
0.0
 40
0.0
 40
0.0625234633
 40
0.1250711667
 40
0.1876159608
 40
0.2501811508
 40
0.312760431
 40
0.3753570123
 40
0.4999973954
 40
0.6246330237
 40
0.6872254632
 40
0.7498015134
 40
0.8123626959
 40
0.8749094848
 40
0.9374438181
 40
1.0
 40
1.0
 40
1.0
 40
1.0
 10
246.4556535527
 20
244.876847903
 30
0.0
 10
246.4377452759
 20
244.543351925
 30
0.0
 10
246.337001789
 20
243.8779321855
 30
0.0
 10
245.9974725823
 20
242.9286888623
 30
0.0
 10
245.4816255097
 20
242.0618333177
 30
0.0
 10
244.8091919126
 20
241.3099181999
 30
0.0
 10
244.0043700168
 20
240.7008163139
 30
0.0
 10
242.7999039332
 20
240.1104590377
 30
0.0
 10
241.1134012297
 20
239.8255196654
 30
0.0
 10
239.4445446072
 20
240.2000995247
 30
0.0
 10
238.2733730063
 20
240.8538973153
 30
0.0
 10
237.5022983361
 20
241.5050963084
 30
0.0
 10
236.8710025896
 20
242.2918437599
 30
0.0
 10
236.4023966698
 20
243.1850193942
 30
0.0
 10
236.1139684097
 20
244.1511520472
 30
0.0
 10
236.0492292023
 20
244.8211395559
 30
0.0
 10
236.0491628634
 20
245.1552907767
 30
0.0
  0
SPLINE
  5
46E
100
AcDbEntity
  8
0
100
AcDbSpline
 62
7
  6
CONTINUOUS
 70
0
 71
3
 72
15
 73
11
 74
0
 42
0.0000001
 43
0.0000001
 44
0.0000000001
 40
0.0
 40
0.0
 40
0.0
 40
0.0
 40
0.1252241899
 40
0.2504413377
 40
0.3755655455
 40
0.5006115083
 40
0.6255606859
 40
0.7504287684
 40
0.875232207
 40
1.0
 40
1.0
 40
1.0
 40
1.0
 10
171.888724185
 20
162.9542128723
 30
0.0
 10
171.5485138473
 20
162.9542128723
 30
0.0
 10
170.8662502941
 20
163.0211158829
 30
0.0
 10
169.8835539702
 20
163.3180415308
 30
0.0
 10
168.9775227106
 20
163.8004951302
 30
0.0
 10
168.1833843556
 20
164.4496027304
 30
0.0
 10
167.5316036467
 20
165.2406775104
 30
0.0
 10
167.047211527
 20
166.1433576301
 30
0.0
 10
166.7489044924
 20
167.1224989735
 30
0.0
 10
166.6817375528
 20
167.8024282717
 30
0.0
 10
166.6817409754
 20
168.1413986657
 30
0.0
  0
SPLINE
  5
46F
100
AcDbEntity
  8
0
100
AcDbSpline
 62
7
  6
CONTINUOUS
 70
0
 71
3
 72
11
 73
7
 74
0
 42
0.0000001
 43
0.0000001
 44
0.0000000001
 40
0.0
 40
0.0
 40
0.0
 40
0.0
 40
0.2504664161
 40
0.5006337869
 40
0.7504443652
 40
1.0
 40
1.0
 40
1.0
 40
1.0
 10
171.888724185
 20
171.3043168318
 30
0.0
 10
171.4758020588
 20
171.3043168318
 30
0.0
 10
170.6414668678
 20
171.1399113978
 30
0.0
 10
169.5861738677
 20
170.4364543748
 30
0.0
 10
168.8792528818
 20
169.385117398
 30
0.0
 10
168.7137337978
 20
168.5528192668
 30
0.0
 10
168.7137427114
 20
168.1413986666
 30
0.0
  0
SPLINE
  5
470
100
AcDbEntity
  8
0
100
AcDbSpline
 62
7
  6
CONTINUOUS
 70
0
 71
3
 72
11
 73
7
 74
0
 42
0.0000001
 43
0.0000001
 44
0.0000000001
 40
0.0
 40
0.0
 40
0.0
 40
0.0
 40
0.2495478194
 40
0.4993584167
 40
0.7495328883
 40
1.0
 40
1.0
 40
1.0
 40
1.0
 10
175.0637056586
 20
168.141398664
 30
0.0
 10
175.0636967452
 20
168.5528061485
 30
0.0
 10
174.8982108885
 20
169.3850903246
 30
0.0
 10
174.1912909061
 20
170.4364323713
 30
0.0
 10
173.1359955094
 20
171.1399066083
 30
0.0
 10
172.3016472258
 20
171.3043168318
 30
0.0
 10
171.888724185
 20
171.3043168318
 30
0.0
  0
SPLINE
  5
471
100
AcDbEntity
  8
0
100
AcDbSpline
 62
7
  6
CONTINUOUS
 70
0
 71
3
 72
15
 73
11
 74
0
 42
0.0000001
 43
0.0000001
 44
0.0000000001
 40
0.0
 40
0.0
 40
0.0
 40
0.0
 40
0.1247657246
 40
0.2495664153
 40
0.3744325338
 40
0.4993817095
 40
0.6244296779
 40
0.7495558515
 40
0.8747758635
 40
1.0
 40
1.0
 40
1.0
 40
1.0
 10
177.0957073945
 20
168.1413986649
 30
0.0
 10
177.095703972
 20
167.8024339533
 30
0.0
 10
177.0285512347
 20
167.1225178378
 30
0.0
 10
176.7302510058
 20
166.1433928285
 30
0.0
 10
176.245872909
 20
165.2407208338
 30
0.0
 10
175.5940986654
 20
164.4496404094
 30
0.0
 10
174.7999564231
 20
163.8005210984
 30
0.0
 10
173.8939140696
 20
163.3180484695
 30
0.0
 10
172.9112050428
 20
163.021118736
 30
0.0
 10
172.2289343144
 20
162.9542128723
 30
0.0
 10
171.888724185
 20
162.9542128723
 30
0.0
  0
SPLINE
  5
472
100
AcDbEntity
  8
0
100
AcDbSpline
 62
7
  6
CONTINUOUS
 70
0
 71
3
 72
15
 73
11
 74
0
 42
0.0000001
 43
0.0000001
 44
0.0000000001
 40
0.0
 40
0.0
 40
0.0
 40
0.0
 40
0.1247657246
 40
0.2495664153
 40
0.3744325338
 40
0.4993817095
 40
0.6244296779
 40
0.7495558515
 40
0.8747758635
 40
1.0
 40
1.0
 40
1.0
 40
1.0
 10
166.6817409754
 20
168.1413986657
 30
0.0
 10
166.6817443979
 20
168.4803633774
 30
0.0
 10
166.7488971352
 20
169.1602794928
 30
0.0
 10
167.0471973641
 20
170.1394045021
 30
0.0
 10
167.531575461
 20
171.0420764968
 30
0.0
 10
168.1833497045
 20
171.8331569212
 30
0.0
 10
168.9774919468
 20
172.4822762322
 30
0.0
 10
169.8835343003
 20
172.9647488611
 30
0.0
 10
170.8662433271
 20
173.2616785946
 30
0.0
 10
171.5485140555
 20
173.3285844583
 30
0.0
 10
171.888724185
 20
173.3285844583
 30
0.0
  0
SPLINE
  5
473
100
AcDbEntity
  8
0
100
AcDbSpline
 62
7
  6
CONTINUOUS
 70
0
 71
3
 72
11
 73
7
 74
0
 42
0.0000001
 43
0.0000001
 44
0.0000000001
 40
0.0
 40
0.0
 40
0.0
 40
0.0
 40
0.2504664161
 40
0.5006337869
 40
0.7504443652
 40
1.0
 40
1.0
 40
1.0
 40
1.0
 10
171.888724185
 20
164.9784804989
 30
0.0
 10
172.3016463111
 20
164.9784804989
 30
0.0
 10
173.1359815021
 20
165.1428859328
 30
0.0
 10
174.1912745023
 20
165.8463429558
 30
0.0
 10
174.8981954881
 20
166.8976799327
 30
0.0
 10
175.0637145722
 20
167.7299780638
 30
0.0
 10
175.0637056586
 20
168.141398664
 30
0.0
  0
SPLINE
  5
474
100
AcDbEntity
  8
0
100
AcDbSpline
 62
7
  6
CONTINUOUS
 70
0
 71
3
 72
11
 73
7
 74
0
 42
0.0000001
 43
0.0000001
 44
0.0000000001
 40
0.0
 40
0.0
 40
0.0
 40
0.0
 40
0.2495478194
 40
0.4993584167
 40
0.7495328883
 40
1.0
 40
1.0
 40
1.0
 40
1.0
 10
168.7137427114
 20
168.1413986666
 30
0.0
 10
168.7137516247
 20
167.7299911821
 30
0.0
 10
168.8792374814
 20
166.8977070061
 30
0.0
 10
169.5861574638
 20
165.8463649593
 30
0.0
 10
170.6414528605
 20
165.1428907224
 30
0.0
 10
171.4758011442
 20
164.9784804989
 30
0.0
 10
171.888724185
 20
164.9784804989
 30
0.0
  0
SPLINE
  5
475
100
AcDbEntity
  8
0
100
AcDbSpline
 62
7
  6
CONTINUOUS
 70
0
 71
3
 72
15
 73
11
 74
0
 42
0.0000001
 43
0.0000001
 44
0.0000000001
 40
0.0
 40
0.0
 40
0.0
 40
0.0
 40
0.1252241899
 40
0.2504413377
 40
0.3755655455
 40
0.5006115083
 40
0.6255606859
 40
0.7504287684
 40
0.875232207
 40
1.0
 40
1.0
 40
1.0
 40
1.0
 10
171.888724185
 20
173.3285844583
 30
0.0
 10
172.2289345226
 20
173.3285844583
 30
0.0
 10
172.9111980758
 20
173.2616814477
 30
0.0
 10
173.8938943997
 20
172.9647557998
 30
0.0
 10
174.7999256594
 20
172.4823022004
 30
0.0
 10
175.5940640143
 20
171.8331946003
 30
0.0
 10
176.2458447233
 20
171.0421198202
 30
0.0
 10
176.730236843
 20
170.1394397005
 30
0.0
 10
177.0285438775
 20
169.1602983571
 30
0.0
 10
177.0957108171
 20
168.4803690589
 30
0.0
 10
177.0957073945
 20
168.1413986649
 30
0.0
  0
SPLINE
  5
476
100
AcDbEntity
  8
0
100
AcDbSpline
 62
7
  6
CONTINUOUS
 70
0
 71
3
 72
15
 73
11
 74
0
 42
0.0000001
 43
0.0000001
 44
0.0000000001
 40
0.0
 40
0.0
 40
0.0
 40
0.0
 40
0.1249207911
 40
0.2498444304
 40
0.3747976879
 40
0.4997803252
 40
0.6247964067
 40
0.7498449057
 40
0.8749110708
 40
1.0
 40
1.0
 40
1.0
 40
1.0
 10
234.906124185
 20
238.6414228846
 30
0.0
 10
234.906124185
 20
238.2270311338
 30
0.0
 10
234.9879936606
 20
237.395932656
 30
0.0
 10
235.351748853
 20
236.199037039
 30
0.0
 10
235.9423468557
 20
235.0955264853
 30
0.0
 10
236.7371807202
 20
234.1284333569
 30
0.0
 10
237.7056231461
 20
233.3347561391
 30
0.0
 10
238.8106088492
 20
232.7450515839
 30
0.0
 10
240.0090545497
 20
232.381862617
 30
0.0
 10
240.8411746804
 20
232.3001253389
 30
0.0
 10
241.256124185
 20
232.3001253389
 30
0.0
  0
SPLINE
  5
477
100
AcDbEntity
  8
0
100
AcDbSpline
 62
7
  6
CONTINUOUS
 70
0
 71
3
 72
18
 73
14
 74
0
 42
0.0000001
 43
0.0000001
 44
0.0000000001
 40
0.0
 40
0.0
 40
0.0
 40
0.0
 40
0.0099547074
 40
0.0307308412
 40
0.0618571892
 40
0.1025679073
 40
0.1517810298
 40
0.2083720678
 40
0.3396911104
 40
0.4892409905
 40
0.6516309718
 40
0.8228256284
 40
1.0
 40
1.0
 40
1.0
 40
1.0
 10
236.4301323867
 20
234.8523903976
 30
0.0
 10
236.4301420552
 20
234.854168635
 30
0.0
 10
236.4269837553
 20
234.8591202783
 30
0.0
 10
236.4214829144
 20
234.8683730882
 30
0.0
 10
236.4117376544
 20
234.8819349335
 30
0.0
 10
236.3990346896
 20
234.8993575633
 30
0.0
 10
236.3832865739
 20
234.9202909218
 30
0.0
 10
236.3576748612
 20
234.9540175294
 30
0.0
 10
236.3210209542
 20
235.0018833416
 30
0.0
 10
236.2730895726
 20
235.0649074672
 30
0.0
 10
236.2213018854
 20
235.1339499899
 30
0.0
 10
236.1672542377
 20
235.2074603386
 30
0.0
 10
236.1309372342
 20
235.257997392
 30
0.0
 10
236.112624185
 20
235.2838107804
 30
0.0
  0
SPLINE
  5
478
100
AcDbEntity
  8
0
100
AcDbSpline
 62
7
  6
CONTINUOUS
 70
0
 71
3
 72
15
 73
11
 74
0
 42
0.0000001
 43
0.0000001
 44
0.0000000001
 40
0.0
 40
0.0
 40
0.0
 40
0.0
 40
0.1250627415
 40
0.2501190738
 40
0.3751580393
 40
0.5001765415
 40
0.6251698343
 40
0.7501369819
 40
0.8750785824
 40
1.0
 40
1.0
 40
1.0
 40
1.0
 10
241.256124185
 20
232.9647919832
 30
0.0
 10
240.9305024476
 20
232.9647919832
 30
0.0
 10
240.2781672649
 20
233.0150144077
 30
0.0
 10
239.3236843399
 20
233.2392197792
 30
0.0
 10
238.4146934688
 20
233.6070075779
 30
0.0
 10
237.5730035119
 20
234.1096642084
 30
0.0
 10
236.8184579971
 20
234.7352890655
 30
0.0
 10
236.1689149531
 20
235.4691530572
 30
0.0
 10
235.6398230267
 20
236.2936031651
 30
0.0
 10
235.3755223901
 20
236.8913902323
 30
0.0
 10
235.2672547172
 20
237.1980955151
 30
0.0
  0
SPLINE
  5
479
100
AcDbEntity
  8
0
100
AcDbSpline
 62
7
  6
CONTINUOUS
 70
0
 71
3
 72
19
 73
15
 74
0
 42
0.0000001
 43
0.0000001
 44
0.0000000001
 40
0.0
 40
0.0
 40
0.0
 40
0.0
 40
0.3653198315
 40
0.5331063567
 40
0.6852771953
 40
0.8159539791
 40
0.8707956972
 40
0.9172455421
 40
0.9541474329
 40
0.980347763
 40
0.9891516098
 40
0.9950610978
 40
0.9982043833
 40
1.0
 40
1.0
 40
1.0
 40
1.0
 10
236.112624185
 20
235.2262489605
 30
0.0
 10
236.1483402293
 20
235.1780633666
 30
0.0
 10
236.2016666964
 20
235.1086240291
 30
0.0
 10
236.2727057618
 20
235.0213717999
 30
0.0
 10
236.3205220178
 20
234.9649037231
 30
0.0
 10
236.3572383281
 20
234.9233617991
 30
0.0
 10
236.3830581224
 20
234.8953484721
 30
0.0
 10
236.3987038747
 20
234.8789487076
 30
0.0
 10
236.4114498948
 20
234.8661635992
 30
0.0
 10
236.4200142326
 20
234.8582250574
 30
0.0
 10
236.4253137435
 20
234.8538156276
 30
0.0
 10
236.4276236605
 20
234.8524241172
 30
0.0
 10
236.4294717936
 20
234.8512520247
 30
0.0
 10
236.4301307838
 20
234.8520955934
 30
0.0
 10
236.4301323867
 20
234.8523903976
 30
0.0
  0
SPLINE
  5
47A
100
AcDbEntity
  8
0
100
AcDbSpline
 62
7
  6
CONTINUOUS
 70
0
 71
3
 72
15
 73
11
 74
0
 42
0.0000001
 43
0.0000001
 44
0.0000000001
 40
0.0
 40
0.0
 40
0.0
 40
0.0
 40
0.1247736638
 40
0.2496075592
 40
0.3745131618
 40
0.4994910873
 40
0.6245444249
 40
0.7496518766
 40
0.8748264616
 40
1.0
 40
1.0
 40
1.0
 40
1.0
 10
179.4665315229
 20
181.8512808627
 30
0.0
 10
179.3417533603
 20
182.2499590338
 30
0.0
 10
179.028103403
 20
183.0290611746
 30
0.0
 10
178.3788563257
 20
184.1076611496
 30
0.0
 10
177.5666730622
 20
185.0708479603
 30
0.0
 10
176.612077614
 20
185.8941158313
 30
0.0
 10
175.538994291
 20
186.5568228347
 30
0.0
 10
174.3742639009
 20
187.0425493902
 30
0.0
 10
173.1474892856
 20
187.3388162501
 30
0.0
 10
172.307811563
 20
187.4052616729
 30
0.0
 10
171.888724185
 20
187.4052616729
 30
0.0
  0
SPLINE
  5
47B
100
AcDbEntity
  8
0
100
AcDbSpline
 62
7
  6
CONTINUOUS
 70
0
 71
3
 72
15
 73
11
 74
0
 42
0.0000001
 43
0.0000001
 44
0.0000000001
 40
0.0
 40
0.0
 40
0.0
 40
0.0
 40
0.1251718922
 40
0.2503440625
 40
0.3754507504
 40
0.5005036735
 40
0.6254821474
 40
0.750389089
 40
0.8752247384
 40
1.0
 40
1.0
 40
1.0
 40
1.0
 10
171.888724185
 20
187.4052616729
 30
0.0
 10
171.4696417544
 20
187.4052616729
 30
0.0
 10
170.6299762552
 20
187.3388205808
 30
0.0
 10
169.4032156056
 20
187.0425584427
 30
0.0
 10
168.2384914272
 20
186.5568442888
 30
0.0
 10
167.1654056337
 20
185.8941418099
 30
0.0
 10
166.2108011197
 20
185.0708743453
 30
0.0
 10
165.3986048914
 20
184.1076801464
 30
0.0
 10
164.7493459141
 20
183.0290666164
 30
0.0
 10
164.4356931163
 20
182.2499521696
 30
0.0
 10
164.3109133719
 20
181.8512682986
 30
0.0
  0
SPLINE
  5
47C
100
AcDbEntity
  8
0
100
AcDbSpline
 62
7
  6
CONTINUOUS
 70
0
 71
3
 72
15
 73
11
 74
0
 42
0.0000001
 43
0.0000001
 44
0.0000000001
 40
0.0
 40
0.0
 40
0.0
 40
0.0
 40
0.1247636676
 40
0.2495631581
 40
0.3744296915
 40
0.4993818213
 40
0.6244281951
 40
0.7495595785
 40
0.8747686383
 40
1.0
 40
1.0
 40
1.0
 40
1.0
 10
177.0956855769
 20
177.2177977038
 30
0.0
 10
177.0956859967
 20
177.5567572661
 30
0.0
 10
177.0285339986
 20
178.2366653885
 30
0.0
 10
176.7302548748
 20
179.215788318
 30
0.0
 10
176.245892814
 20
180.1184796341
 30
0.0
 10
175.59411031
 20
180.9095587313
 30
0.0
 10
174.7999749964
 20
181.558722229
 30
0.0
 10
173.8939177935
 20
182.0411260962
 30
0.0
 10
172.9112222096
 20
182.338109387
 30
0.0
 10
172.2289543846
 20
182.404983508
 30
0.0
 10
171.888724185
 20
182.404983508
 30
0.0
  0
SPLINE
  5
47D
100
AcDbEntity
  8
0
100
AcDbSpline
 62
7
  6
CONTINUOUS
 70
0
 71
3
 72
15
 73
11
 74
0
 42
0.0000001
 43
0.0000001
 44
0.0000000001
 40
0.0
 40
0.0
 40
0.0
 40
0.0
 40
0.1252299483
 40
0.2504363031
 40
0.3755664251
 40
0.500612156
 40
0.6255653724
 40
0.7504339591
 40
0.8752353611
 40
1.0
 40
1.0
 40
1.0
 40
1.0
 10
171.888724185
 20
182.404983508
 30
0.0
 10
171.5484977488
 20
182.404983508
 30
0.0
 10
170.8662407066
 20
182.3381131666
 30
0.0
 10
169.8835587483
 20
182.0411361784
 30
0.0
 10
168.9775070646
 20
181.5587486685
 30
0.0
 10
168.1833684649
 20
180.9095921215
 30
0.0
 10
167.5315745798
 20
180.1185131696
 30
0.0
 10
167.0472017296
 20
179.2158114715
 30
0.0
 10
166.7489152173
 20
178.2366761759
 30
0.0
 10
166.6817632127
 20
177.5567600034
 30
0.0
 10
166.681762793
 20
177.2177977263
 30
0.0
  0
SPLINE
  5
47E
100
AcDbEntity
  8
0
100
AcDbSpline
 62
7
  6
CONTINUOUS
 70
0
 71
3
 72
9
 73
5
 74
0
 42
0.0000001
 43
0.0000001
 44
0.0000000001
 40
0.0
 40
0.0
 40
0.0
 40
0.0
 40
0.4997085479
 40
1.0
 40
1.0
 40
1.0
 40
1.0
 10
178.6611953445
 20
182.9108317557
 30
0.0
 10
178.3069103306
 20
183.5952148069
 30
0.0
 10
177.3823251342
 20
184.8634666508
 30
0.0
 10
176.1177704077
 20
185.7928250322
 30
0.0
 10
175.4342789647
 20
186.1507689348
 30
0.0
  0
SPLINE
  5
47F
100
AcDbEntity
  8
0
100
AcDbSpline
 62
7
  6
CONTINUOUS
 70
0
 71
3
 72
9
 73
5
 74
0
 42
0.0000001
 43
0.0000001
 44
0.0000000001
 40
0.0
 40
0.0
 40
0.0
 40
0.0
 40
0.5002914521
 40
1.0
 40
1.0
 40
1.0
 40
1.0
 10
168.3431694052
 20
186.1507689348
 30
0.0
 10
167.6596779622
 20
185.7928250322
 30
0.0
 10
166.3951232357
 20
184.8634666508
 30
0.0
 10
165.4705380393
 20
183.5952148069
 30
0.0
 10
165.1162530254
 20
182.9108317557
 30
0.0
  0
SPLINE
  5
480
100
AcDbEntity
  8
0
100
AcDbSpline
 62
7
  6
CONTINUOUS
 70
0
 71
3
 72
11
 73
7
 74
0
 42
0.0000001
 43
0.0000001
 44
0.0000000001
 40
0.0
 40
0.0
 40
0.0
 40
0.0
 40
0.2497441319
 40
0.4996472975
 40
0.7497314625
 40
1.0
 40
1.0
 40
1.0
 40
1.0
 10
164.3305596086
 20
181.8467336826
 30
0.0
 10
164.4889320062
 20
182.3385025646
 30
0.0
 10
164.9038695841
 20
183.2937608663
 30
0.0
 10
165.7936874806
 20
184.5758523614
 30
0.0
 10
166.9169675283
 20
185.6607892484
 30
0.0
 10
167.7940081434
 20
186.225080522
 30
0.0
 10
168.2546581489
 20
186.4613899258
 30
0.0
  0
SPLINE
  5
481
100
AcDbEntity
  8
0
100
AcDbSpline
 62
7
  6
CONTINUOUS
 70
0
 71
3
 72
9
 73
5
 74
0
 42
0.0000001
 43
0.0000001
 44
0.0000000001
 40
0.0
 40
0.0
 40
0.0
 40
0.0
 40
0.4998713416
 40
1.0
 40
1.0
 40
1.0
 40
1.0
 10
168.2546581489
 20
186.4613899258
 30
0.0
 10
168.8128218585
 20
186.7477230028
 30
0.0
 10
170.0016419237
 20
187.1895536405
 30
0.0
 10
171.2610788893
 20
187.3388489969
 30
0.0
 10
171.888724185
 20
187.3388489969
 30
0.0
  0
SPLINE
  5
482
100
AcDbEntity
  8
0
100
AcDbSpline
 62
7
  6
CONTINUOUS
 70
0
 71
3
 72
9
 73
5
 74
0
 42
0.0000001
 43
0.0000001
 44
0.0000000001
 40
0.0
 40
0.0
 40
0.0
 40
0.0
 40
0.4997099043
 40
1.0
 40
1.0
 40
1.0
 40
1.0
 10
165.1162530254
 20
180.6970758899
 30
0.0
 10
165.4750561523
 20
181.3901867163
 30
0.0
 10
166.4143462155
 20
182.6733656775
 30
0.0
 10
167.701127709
 20
183.6074350254
 30
0.0
 10
168.3961557327
 20
183.9644975771
 30
0.0
  0
SPLINE
  5
483
100
AcDbEntity
  8
0
100
AcDbSpline
 62
7
  6
CONTINUOUS
 70
0
 71
3
 72
9
 73
5
 74
0
 42
0.0000001
 43
0.0000001
 44
0.0000000001
 40
0.0
 40
0.0
 40
0.0
 40
0.0
 40
0.5002900957
 40
1.0
 40
1.0
 40
1.0
 40
1.0
 10
175.3812926372
 20
183.9644975771
 30
0.0
 10
176.0763206609
 20
183.6074350254
 30
0.0
 10
177.3631021545
 20
182.6733656775
 30
0.0
 10
178.3023922176
 20
181.3901867163
 30
0.0
 10
178.6611953445
 20
180.6970758899
 30
0.0
  0
SPLINE
  5
484
100
AcDbEntity
  8
0
100
AcDbSpline
 62
7
  6
CONTINUOUS
 70
0
 71
3
 72
9
 73
5
 74
0
 42
0.0000001
 43
0.0000001
 44
0.0000000001
 40
0.0
 40
0.0
 40
0.0
 40
0.0
 40
0.500126774
 40
1.0
 40
1.0
 40
1.0
 40
1.0
 10
171.888724185
 20
187.3388489969
 30
0.0
 10
172.5163295502
 20
187.3388489969
 30
0.0
 10
173.7756907163
 20
187.1895723538
 30
0.0
 10
174.9644473414
 20
186.7477942013
 30
0.0
 10
175.5225888403
 20
186.4614949075
 30
0.0
  0
SPLINE
  5
485
100
AcDbEntity
  8
0
100
AcDbSpline
 62
7
  6
CONTINUOUS
 70
0
 71
3
 72
11
 73
7
 74
0
 42
0.0000001
 43
0.0000001
 44
0.0000000001
 40
0.0
 40
0.0
 40
0.0
 40
0.0
 40
0.2502660074
 40
0.5003500209
 40
0.7502545219
 40
1.0
 40
1.0
 40
1.0
 40
1.0
 10
175.5225888403
 20
186.4614949075
 30
0.0
 10
175.9832583797
 20
186.2251939621
 30
0.0
 10
176.8603398213
 20
185.6609054684
 30
0.0
 10
177.9836810639
 20
184.5759539839
 30
0.0
 10
178.8735501038
 20
183.2938214691
 30
0.0
 10
179.2885082061
 20
182.3385243109
 30
0.0
 10
179.4468877593
 20
181.846735146
 30
0.0
  0
LINE
  5
486
100
AcDbEntity
  8
0
100
AcDbLine
 62
7
  6
CONTINUOUS
 10
183.699724185
 20
188.9735646598
 11
183.0660165396
 21
189.3462350156
  0
LINE
  5
487
100
AcDbEntity
  8
0
100
AcDbLine
 62
7
  6
CONTINUOUS
 10
171.888724185
 20
195.0218824135
 11
172.3576217065
 21
194.746064212
  0
LINE
  5
488
100
AcDbEntity
  8
0
100
AcDbLine
 62
7
  6
CONTINUOUS
 10
171.4199535081
 20
194.7461387701
 11
171.888724185
 21
195.0218824135
  0
LINE
  5
489
100
AcDbEntity
  8
0
100
AcDbLine
 62
7
  6
CONTINUOUS
 10
183.1723176918
 20
188.5252189791
 11
183.699724185
 21
188.2287470576
  0
SPLINE
  5
48A
100
AcDbEntity
  8
0
100
AcDbSpline
 62
7
  6
CONTINUOUS
 70
0
 71
3
 72
15
 73
11
 74
0
 42
0.0000001
 43
0.0000001
 44
0.0000000001
 40
0.0
 40
0.0
 40
0.0
 40
0.0
 40
0.1247661887
 40
0.2495679826
 40
0.374435642
 40
0.4993892468
 40
0.6244357976
 40
0.7495689588
 40
0.8747624945
 40
1.0
 40
1.0
 40
1.0
 40
1.0
 10
179.8262137731
 20
180.1126382729
 30
0.0
 10
179.8262137731
 20
180.6293572795
 30
0.0
 10
179.7238537059
 20
181.6658275995
 30
0.0
 10
179.2691370643
 20
183.1584190905
 30
0.0
 10
178.5307487492
 20
184.5344881972
 30
0.0
 10
177.5371368792
 20
185.7403846625
 30
0.0
 10
176.3265644845
 20
186.7300030078
 30
0.0
 10
174.9453683676
 20
187.4652414855
 30
0.0
 10
173.4474115992
 20
187.9180310831
 30
0.0
 10
172.4073951496
 20
188.019933689
 30
0.0
 10
171.888724185
 20
188.019933689
 30
0.0
  0
SPLINE
  5
48B
100
AcDbEntity
  8
0
100
AcDbSpline
 62
7
  6
CONTINUOUS
 70
0
 71
3
 72
9
 73
5
 74
0
 42
0.0000001
 43
0.0000001
 44
0.0000000001
 40
0.0
 40
0.0
 40
0.0
 40
0.0
 40
0.2497819083
 40
1.0
 40
1.0
 40
1.0
 40
1.0
 10
161.6600981418
 20
186.8066528255
 30
0.0
 10
161.3746745387
 20
186.3141658635
 30
0.0
 10
160.2336621455
 20
184.3415248521
 30
0.0
 10
159.0992111329
 20
182.3650936396
 30
0.0
 10
158.2505561262
 20
180.8809546107
 30
0.0
  0
SPLINE
  5
48C
100
AcDbEntity
  8
0
100
AcDbSpline
 62
7
  6
CONTINUOUS
 70
0
 71
3
 72
9
 73
5
 74
0
 42
0.0000001
 43
0.0000001
 44
0.0000000001
 40
0.0
 40
0.0
 40
0.0
 40
0.0
 40
0.2499342544
 40
1.0
 40
1.0
 40
1.0
 40
1.0
 10
185.5268922438
 20
180.8809546107
 30
0.0
 10
185.2441638855
 20
181.3753936793
 30
0.0
 10
184.1119075552
 20
183.3530717208
 30
0.0
 10
182.974443692
 20
185.327772482
 30
0.0
 10
182.1173502306
 20
186.8066528214
 30
0.0
  0
LINE
  5
48D
100
AcDbEntity
  8
0
100
AcDbLine
 62
7
  6
CONTINUOUS
 10
182.1173502306
 20
186.8066528214
 11
182.0338106777
 21
186.9507692915
  0
SPLINE
  5
48E
100
AcDbEntity
  8
0
100
AcDbSpline
 62
7
  6
CONTINUOUS
 70
0
 71
3
 72
9
 73
5
 74
0
 42
0.0000001
 43
0.0000001
 44
0.0000000001
 40
0.0
 40
0.0
 40
0.0
 40
0.0
 40
0.2517493357
 40
1.0
 40
1.0
 40
1.0
 40
1.0
 10
182.0338106777
 20
186.9507692915
 30
0.0
 10
181.7561753736
 20
187.4296340027
 30
0.0
 10
180.651778008
 20
189.3308709825
 30
0.0
 10
179.5411891292
 20
191.2285071006
 30
0.0
 10
178.7078082144
 20
192.6470101898
 30
0.0
  0
SPLINE
  5
48F
100
AcDbEntity
  8
0
100
AcDbSpline
 62
7
  6
CONTINUOUS
 70
0
 71
3
 72
9
 73
5
 74
0
 42
0.0000001
 43
0.0000001
 44
0.0000000001
 40
0.0
 40
0.0
 40
0.0
 40
0.0
 40
0.2507680694
 40
1.0
 40
1.0
 40
1.0
 40
1.0
 10
171.8887241848
 20
192.6896806135
 30
0.0
 10
171.3187081827
 20
192.6896806135
 30
0.0
 10
169.0456272315
 20
192.6858399588
 30
0.0
 10
166.7725885386
 20
192.6668949313
 30
0.0
 10
165.0696401556
 20
192.6470101898
 30
0.0
  0
SPLINE
  5
490
100
AcDbEntity
  8
0
100
AcDbSpline
 62
7
  6
CONTINUOUS
 70
0
 71
3
 72
9
 73
5
 74
0
 42
0.0000001
 43
0.0000001
 44
0.0000000001
 40
0.0
 40
0.0
 40
0.0
 40
0.0
 40
0.2480932958
 40
1.0
 40
1.0
 40
1.0
 40
1.0
 10
165.0696401556
 20
192.6470101898
 30
0.0
 10
164.7863426275
 20
192.1648076201
 30
0.0
 10
163.6455149805
 20
190.2205447351
 30
0.0
 10
162.5100157945
 20
188.2731515952
 30
0.0
 10
161.6600981418
 20
186.8066528255
 30
0.0
  0
SPLINE
  5
491
100
AcDbEntity
  8
0
100
AcDbSpline
 62
7
  6
CONTINUOUS
 70
0
 71
3
 72
9
 73
5
 74
0
 42
0.0000001
 43
0.0000001
 44
0.0000000001
 40
0.0
 40
0.0
 40
0.0
 40
0.0
 40
0.2497819083
 40
1.0
 40
1.0
 40
1.0
 40
1.0
 10
161.6600981393
 20
174.2104387977
 30
0.0
 10
161.3746745364
 20
174.7029257595
 30
0.0
 10
160.2336621443
 20
176.6755667696
 30
0.0
 10
159.0992111322
 20
178.6519979806
 30
0.0
 10
158.2505561262
 20
180.1361370084
 30
0.0
  0
SPLINE
  5
492
100
AcDbEntity
  8
0
100
AcDbSpline
 62
7
  6
CONTINUOUS
 70
0
 71
3
 72
9
 73
5
 74
0
 42
0.0000001
 43
0.0000001
 44
0.0000000001
 40
0.0
 40
0.0
 40
0.0
 40
0.0
 40
0.2480932938
 40
1.0
 40
1.0
 40
1.0
 40
1.0
 10
165.0696401556
 20
168.3700814293
 30
0.0
 10
164.7863426296
 20
168.8522839954
 30
0.0
 10
163.6455149728
 20
170.7965468766
 30
0.0
 10
162.5100157949
 20
172.7439400231
 30
0.0
 10
161.6600981393
 20
174.2104387977
 30
0.0
  0
SPLINE
  5
493
100
AcDbEntity
  8
0
100
AcDbSpline
 62
7
  6
CONTINUOUS
 70
0
 71
3
 72
9
 73
5
 74
0
 42
0.0000001
 43
0.0000001
 44
0.0000000001
 40
0.0
 40
0.0
 40
0.0
 40
0.0
 40
0.2517731272
 40
1.0
 40
1.0
 40
1.0
 40
1.0
 10
182.1173502282
 20
174.2104387936
 30
0.0
 10
181.8327584689
 20
173.7193871447
 30
0.0
 10
180.7007547966
 20
171.7699718492
 30
0.0
 10
179.5622079633
 20
169.824360813
 30
0.0
 10
178.7078082144
 20
168.3700814293
 30
0.0
  0
SPLINE
  5
494
100
AcDbEntity
  8
0
100
AcDbSpline
 62
7
  6
CONTINUOUS
 70
0
 71
3
 72
9
 73
5
 74
0
 42
0.0000001
 43
0.0000001
 44
0.0000000001
 40
0.0
 40
0.0
 40
0.0
 40
0.0
 40
0.2499342544
 40
1.0
 40
1.0
 40
1.0
 40
1.0
 10
185.5268922438
 20
180.1361370084
 30
0.0
 10
185.2441638854
 20
179.6416979396
 30
0.0
 10
184.1119075631
 20
177.6640198916
 30
0.0
 10
182.9744436903
 20
175.6893191341
 30
0.0
 10
182.1173502282
 20
174.2104387936
 30
0.0
  0
SPLINE
  5
495
100
AcDbEntity
  8
0
100
AcDbSpline
 62
7
  6
CONTINUOUS
 70
0
 71
3
 72
15
 73
11
 74
0
 42
0.0000001
 43
0.0000001
 44
0.0000000001
 40
0.0
 40
0.0
 40
0.0
 40
0.0
 40
0.1252375055
 40
0.2504310412
 40
0.3755642024
 40
0.5006107532
 40
0.625564358
 40
0.7504320174
 40
0.8752338113
 40
1.0
 40
1.0
 40
1.0
 40
1.0
 10
171.888724185
 20
188.019933689
 30
0.0
 10
171.3700532203
 20
188.019933689
 30
0.0
 10
170.3300367707
 20
187.9180310831
 30
0.0
 10
168.8320800023
 20
187.4652414855
 30
0.0
 10
167.4508838854
 20
186.7300030078
 30
0.0
 10
166.2403114907
 20
185.7403846625
 30
0.0
 10
165.2466996207
 20
184.5344881972
 30
0.0
 10
164.5083113057
 20
183.1584190905
 30
0.0
 10
164.053594664
 20
181.6658275995
 30
0.0
 10
163.9512345969
 20
180.6293572795
 30
0.0
 10
163.9512345969
 20
180.1126382729
 30
0.0
  0
SPLINE
  5
496
100
AcDbEntity
  8
0
100
AcDbSpline
 62
7
  6
CONTINUOUS
 70
0
 71
3
 72
9
 73
5
 74
0
 42
0.0000001
 43
0.0000001
 44
0.0000000001
 40
0.0
 40
0.0
 40
0.0
 40
0.0
 40
0.2497819083
 40
1.0
 40
1.0
 40
1.0
 40
1.0
 10
161.6600981418
 20
185.9764943759
 30
0.0
 10
161.9455217447
 20
186.4689813377
 30
0.0
 10
163.086534137
 20
188.4416223481
 30
0.0
 10
164.2209851493
 20
190.4180535595
 30
0.0
 10
165.0696401556
 20
191.9021925876
 30
0.0
  0
SPLINE
  5
497
100
AcDbEntity
  8
0
100
AcDbSpline
 62
7
  6
CONTINUOUS
 70
0
 71
3
 72
9
 73
5
 74
0
 42
0.0000001
 43
0.0000001
 44
0.0000000001
 40
0.0
 40
0.0
 40
0.0
 40
0.0
 40
0.2490248493
 40
1.0
 40
1.0
 40
1.0
 40
1.0
 10
165.0696401556
 20
191.9021925876
 30
0.0
 10
165.6356548129
 20
191.8955834295
 30
0.0
 10
167.9086053609
 20
191.8714826314
 30
0.0
 10
170.1816980771
 20
191.8595221639
 30
0.0
 10
171.8887241846
 20
191.8595221639
 30
0.0
  0
SPLINE
  5
498
100
AcDbEntity
  8
0
100
AcDbSpline
 62
7
  6
CONTINUOUS
 70
0
 71
3
 72
9
 73
5
 74
0
 42
0.0000001
 43
0.0000001
 44
0.0000000001
 40
0.0
 40
0.0
 40
0.0
 40
0.0
 40
0.2480932938
 40
1.0
 40
1.0
 40
1.0
 40
1.0
 10
158.2505561262
 20
180.1361370084
 30
0.0
 10
158.5338536521
 20
180.6183395745
 30
0.0
 10
159.6746813087
 20
182.5626024553
 30
0.0
 10
160.8101804863
 20
184.5099956015
 30
0.0
 10
161.6600981418
 20
185.9764943759
 30
0.0
  0
SPLINE
  5
499
100
AcDbEntity
  8
0
100
AcDbSpline
 62
7
  6
CONTINUOUS
 70
0
 71
3
 72
9
 73
5
 74
0
 42
0.0000001
 43
0.0000001
 44
0.0000000001
 40
0.0
 40
0.0
 40
0.0
 40
0.0
 40
0.2517731272
 40
1.0
 40
1.0
 40
1.0
 40
1.0
 10
182.1173502306
 20
185.9764943717
 30
0.0
 10
182.4019419898
 20
185.4854427229
 30
0.0
 10
183.5339456618
 20
183.5360274277
 30
0.0
 10
184.672492495
 20
181.5904163919
 30
0.0
 10
185.5268922438
 20
180.1361370084
 30
0.0
  0
SPLINE
  5
49A
100
AcDbEntity
  8
0
100
AcDbSpline
 62
7
  6
CONTINUOUS
 70
0
 71
3
 72
9
 73
5
 74
0
 42
0.0000001
 43
0.0000001
 44
0.0000000001
 40
0.0
 40
0.0
 40
0.0
 40
0.0
 40
0.2507680645
 40
1.0
 40
1.0
 40
1.0
 40
1.0
 10
171.8887241846
 20
191.8595221639
 30
0.0
 10
172.4587401758
 20
191.8595221639
 30
0.0
 10
174.7318211269
 20
191.8633628821
 30
0.0
 10
177.0048598201
 20
191.882307846
 30
0.0
 10
178.7078082144
 20
191.9021925876
 30
0.0
  0
SPLINE
  5
49B
100
AcDbEntity
  8
0
100
AcDbSpline
 62
7
  6
CONTINUOUS
 70
0
 71
3
 72
9
 73
5
 74
0
 42
0.0000001
 43
0.0000001
 44
0.0000000001
 40
0.0
 40
0.0
 40
0.0
 40
0.0
 40
0.2499342544
 40
1.0
 40
1.0
 40
1.0
 40
1.0
 10
178.7078082144
 20
191.9021925876
 30
0.0
 10
178.9905365728
 20
191.4077535187
 30
0.0
 10
180.1227928953
 20
189.4300754704
 30
0.0
 10
181.2602567683
 20
187.4553747125
 30
0.0
 10
182.1173502306
 20
185.9764943717
 30
0.0
  0
SPLINE
  5
49C
100
AcDbEntity
  8
0
100
AcDbSpline
 62
7
  6
CONTINUOUS
 70
0
 71
3
 72
15
 73
11
 74
0
 42
0.0000001
 43
0.0000001
 44
0.0000000001
 40
0.0
 40
0.0
 40
0.0
 40
0.0
 40
0.1248102038
 40
0.2496804773
 40
0.3746129096
 40
0.4996053508
 40
0.6246515693
 40
0.7497416786
 40
0.8748628116
 40
1.0
 40
1.0
 40
1.0
 40
1.0
 10
161.6600981396
 20
185.9764943722
 30
0.0
 10
161.9176478942
 20
186.4208861282
 30
0.0
 10
162.4919432571
 20
187.2771152629
 30
0.0
 10
163.5134539599
 20
188.4373493286
 30
0.0
 10
164.6783845297
 20
189.4550355306
 30
0.0
 10
165.9666295428
 20
190.3124698447
 30
0.0
 10
167.3561669404
 20
190.995072159
 30
0.0
 10
168.8233032208
 20
191.4911513098
 30
0.0
 10
170.3426010985
 20
191.7922330348
 30
0.0
 10
171.3737484203
 20
191.8595221639
 30
0.0
 10
171.888724185
 20
191.8595221639
 30
0.0
  0
SPLINE
  5
49D
100
AcDbEntity
  8
0
100
AcDbSpline
 62
7
  6
CONTINUOUS
 70
0
 71
3
 72
15
 73
11
 74
0
 42
0.0000001
 43
0.0000001
 44
0.0000000001
 40
0.0
 40
0.0
 40
0.0
 40
0.0
 40
0.1251371884
 40
0.2502583214
 40
0.3753484307
 40
0.5003946492
 40
0.6253870904
 40
0.7503195227
 40
0.8751897962
 40
1.0
 40
1.0
 40
1.0
 40
1.0
 10
171.888724185
 20
191.8595221639
 30
0.0
 10
172.4036999497
 20
191.8595221639
 30
0.0
 10
173.4348472714
 20
191.7922330348
 30
0.0
 10
174.9541451491
 20
191.4911513098
 30
0.0
 10
176.4212814295
 20
190.995072159
 30
0.0
 10
177.8108188271
 20
190.3124698447
 30
0.0
 10
179.0990638403
 20
189.4550355306
 30
0.0
 10
180.26399441
 20
188.4373493286
 30
0.0
 10
181.2855051127
 20
187.2771152628
 30
0.0
 10
181.8598004759
 20
186.4208861283
 30
0.0
 10
182.1173502303
 20
185.9764943722
 30
0.0
  0
SPLINE
  5
49E
100
AcDbEntity
  8
0
100
AcDbSpline
 62
7
  6
CONTINUOUS
 70
0
 71
3
 72
11
 73
7
 74
0
 42
0.0000001
 43
0.0000001
 44
0.0000000001
 40
0.0
 40
0.0
 40
0.0
 40
0.0
 40
0.2498001675
 40
0.4997262981
 40
0.7497995066
 40
1.0
 40
1.0
 40
1.0
 40
1.0
 10
182.1173502303
 20
174.2104387972
 30
0.0
 10
181.828403527
 20
173.7118728675
 30
0.0
 10
181.1758819092
 20
172.7556015632
 30
0.0
 10
179.9979662565
 20
171.4808243922
 30
0.0
 10
178.645639217
 20
170.3913601948
 30
0.0
 10
177.6465134141
 20
169.8041246983
 30
0.0
 10
177.1288729393
 20
169.5488372567
 30
0.0
  0
SPLINE
  5
49F
100
AcDbEntity
  8
0
100
AcDbSpline
 62
7
  6
CONTINUOUS
 70
0
 71
3
 72
11
 73
7
 74
0
 42
0.0000001
 43
0.0000001
 44
0.0000000001
 40
0.0
 40
0.0
 40
0.0
 40
0.0
 40
0.2502004934
 40
0.5002737019
 40
0.7501998325
 40
1.0
 40
1.0
 40
1.0
 40
1.0
 10
166.6485754306
 20
169.5488372567
 30
0.0
 10
166.1309349558
 20
169.8041246983
 30
0.0
 10
165.1318091529
 20
170.3913601948
 30
0.0
 10
163.7794821134
 20
171.4808243922
 30
0.0
 10
162.6015664608
 20
172.7556015632
 30
0.0
 10
161.9490448427
 20
173.7118728674
 30
0.0
 10
161.6600981396
 20
174.2104387972
 30
0.0
  0
SPLINE
  5
4A0
100
AcDbEntity
  8
0
100
AcDbSpline
 62
7
  6
CONTINUOUS
 70
0
 71
3
 72
15
 73
11
 74
0
 42
0.0000001
 43
0.0000001
 44
0.0000000001
 40
0.0
 40
0.0
 40
0.0
 40
0.0
 40
0.1251799943
 40
0.2503341156
 40
0.3754471323
 40
0.50049856
 40
0.6254805118
 40
0.750387963
 40
0.8752242767
 40
1.0
 40
1.0
 40
1.0
 40
1.0
 10
171.888724185
 20
188.3803121808
 30
0.0
 10
171.4548839526
 20
188.3803121808
 30
0.0
 10
170.5857714909
 20
188.3124313003
 30
0.0
 10
169.3151618916
 20
188.0094164289
 30
0.0
 10
168.1072005748
 20
187.512658714
 30
0.0
 10
166.9918618813
 20
186.8342592376
 30
0.0
 10
165.9963478375
 20
185.990861229
 30
0.0
 10
165.1450343489
 20
185.002976831
 30
0.0
 10
164.4589049051
 20
183.8951837001
 30
0.0
 10
164.122411848
 20
183.0936509887
 30
0.0
 10
163.9868201335
 20
182.6830191647
 30
0.0
  0
SPLINE
  5
4A1
100
AcDbEntity
  8
0
100
AcDbSpline
 62
7
  6
CONTINUOUS
 70
0
 71
3
 72
15
 73
11
 74
0
 42
0.0000001
 43
0.0000001
 44
0.0000000001
 40
0.0
 40
0.0
 40
0.0
 40
0.0
 40
0.1247756012
 40
0.2496116471
 40
0.3745185734
 40
0.4995001065
 40
0.6245516139
 40
0.7496650297
 40
0.8748197412
 40
1.0
 40
1.0
 40
1.0
 40
1.0
 10
179.7906267854
 20
182.6830236137
 30
0.0
 10
179.6550353461
 20
183.0936548786
 30
0.0
 10
179.3185421125
 20
183.8951856476
 30
0.0
 10
178.6324147385
 20
185.002975542
 30
0.0
 10
177.7811048187
 20
185.9908566304
 30
0.0
 10
176.7855944971
 20
186.8342534277
 30
0.0
 10
175.6702569177
 20
187.5126539833
 30
0.0
 10
174.4622933887
 20
188.0094146531
 30
0.0
 10
173.1916801488
 20
188.3124307727
 30
0.0
 10
172.3225651393
 20
188.3803121808
 30
0.0
 10
171.888724185
 20
188.3803121808
 30
0.0
  0
SPLINE
  5
4A2
100
AcDbEntity
  8
0
100
AcDbSpline
 62
7
  6
CONTINUOUS
 70
0
 71
3
 72
15
 73
11
 74
0
 42
0.0000001
 43
0.0000001
 44
0.0000000001
 40
0.0
 40
0.0
 40
0.0
 40
0.0
 40
0.1251817014
 40
0.2503053468
 40
0.3753695472
 40
0.5003766583
 40
0.6253329508
 40
0.7502476473
 40
0.8751321875
 40
1.0
 40
1.0
 40
1.0
 40
1.0
 10
164.7931402345
 20
192.3923326066
 30
0.0
 10
164.3190880207
 20
192.0986514302
 30
0.0
 10
163.4067525169
 20
191.4516680895
 30
0.0
 10
162.1706168911
 20
190.3194315748
 30
0.0
 10
161.0852725887
 20
189.04259886
 30
0.0
 10
160.1678855231
 20
187.641175621
 30
0.0
 10
159.4326445532
 20
186.1369174717
 30
0.0
 10
158.8910020792
 20
184.5531250489
 30
0.0
 10
158.5513913538
 20
182.914758097
 30
0.0
 10
158.4631613882
 20
181.8022299103
 30
0.0
 10
158.4539660919
 20
181.2460536594
 30
0.0
  0
SPLINE
  5
4A3
100
AcDbEntity
  8
0
100
AcDbSpline
 62
7
  6
CONTINUOUS
 70
0
 71
3
 72
11
 73
7
 74
0
 42
0.0000001
 43
0.0000001
 44
0.0000000001
 40
0.0
 40
0.0
 40
0.0
 40
0.0
 40
0.2502627269
 40
0.500327819
 40
0.7502215999
 40
1.0
 40
1.0
 40
1.0
 40
1.0
 10
163.9658653958
 20
170.1127254342
 30
0.0
 10
163.2094258433
 20
170.6628634127
 30
0.0
 10
161.8080807343
 20
171.9252333706
 30
0.0
 10
160.1500561217
 20
174.2110449403
 30
0.0
 10
159.004803809
 20
176.7902684696
 30
0.0
 10
158.617119057
 20
178.6336917513
 30
0.0
 10
158.5218029645
 20
179.562338376
 30
0.0
  0
SPLINE
  5
4A4
100
AcDbEntity
  8
0
100
AcDbSpline
 62
7
  6
CONTINUOUS
 70
0
 71
3
 72
9
 73
5
 74
0
 42
0.0000001
 43
0.0000001
 44
0.0000000001
 40
0.0
 40
0.0
 40
0.0
 40
0.0
 40
0.5001899265
 40
1.0
 40
1.0
 40
1.0
 40
1.0
 10
179.0769169736
 20
192.2326053184
 30
0.0
 10
179.8335059297
 20
191.7553353974
 30
0.0
 10
181.25424851
 20
190.6470433571
 30
0.0
 10
182.4254367408
 20
189.2776052552
 30
0.0
 10
182.935594639
 20
188.5436179158
 30
0.0
  0
SPLINE
  5
4A5
100
AcDbEntity
  8
0
100
AcDbSpline
 62
7
  6
CONTINUOUS
 70
0
 71
3
 72
15
 73
11
 74
0
 42
0.0000001
 43
0.0000001
 44
0.0000000001
 40
0.0
 40
0.0
 40
0.0
 40
0.0
 40
0.1248690929
 40
0.2497551151
 40
0.3746711459
 40
0.4996283177
 40
0.6246355527
 40
0.749698899
 40
0.8748207242
 40
1.0
 40
1.0
 40
1.0
 40
1.0
 10
158.4562023688
 20
181.2527570445
 30
0.0
 10
158.4696994203
 20
181.7997835091
 30
0.0
 10
158.5642789046
 20
182.8934383322
 30
0.0
 10
158.9065042179
 20
184.503277477
 30
0.0
 10
159.4440012229
 20
186.0595192458
 30
0.0
 10
160.1686669696
 20
187.5384320055
 30
0.0
 10
161.0695809034
 20
188.9178484575
 30
0.0
 10
162.1332599894
 20
190.1770459535
 30
0.0
 10
163.3434243729
 20
191.2969331401
 30
0.0
 10
164.2362218927
 20
191.9396900324
 30
0.0
 10
164.7001667829
 20
192.2323753031
 30
0.0
  0
SPLINE
  5
4A6
100
AcDbEntity
  8
0
100
AcDbSpline
 62
7
  6
CONTINUOUS
 70
0
 71
3
 72
9
 73
5
 74
0
 42
0.0000001
 43
0.0000001
 44
0.0000000001
 40
0.0
 40
0.0
 40
0.0
 40
0.0
 40
0.4997414158
 40
1.0
 40
1.0
 40
1.0
 40
1.0
 10
183.064724185
 20
163.5661495254
 30
0.0
 10
183.064724185
 20
163.3686625192
 30
0.0
 10
182.9857287774
 20
162.9695267989
 30
0.0
 10
182.7584100569
 20
162.6321416866
 30
0.0
 10
182.6183549195
 20
162.4926195012
 30
0.0
  0
SPLINE
  5
4A7
100
AcDbEntity
  8
0
100
AcDbSpline
 62
7
  6
CONTINUOUS
 70
0
 71
3
 72
9
 73
5
 74
0
 42
0.0000001
 43
0.0000001
 44
0.0000000001
 40
0.0
 40
0.0
 40
0.0
 40
0.0
 40
0.4997427007
 40
1.0
 40
1.0
 40
1.0
 40
1.0
 10
182.6183549195
 20
162.4926195012
 30
0.0
 10
182.4780953114
 20
162.3528936233
 30
0.0
 10
182.1389941603
 20
162.1264307209
 30
0.0
 10
181.7389080459
 20
162.0479488056
 30
0.0
 10
181.5407241851
 20
162.0479488056
 30
0.0
  0
SPLINE
  5
4A8
100
AcDbEntity
  8
0
100
AcDbSpline
 62
7
  6
CONTINUOUS
 70
0
 71
3
 72
16
 73
12
 74
0
 42
0.0000001
 43
0.0000001
 44
0.0000000001
 40
0.0
 40
0.0
 40
0.0
 40
0.0
 40
0.0096861695
 40
0.0261858021
 40
0.0846872355
 40
0.1771948987
 40
0.3007511984
 40
0.4508513383
 40
0.6218273853
 40
0.8072609042
 40
1.0
 40
1.0
 40
1.0
 40
1.0
 10
155.759724185
 20
162.4132185234
 30
0.0
 10
155.759724185
 20
162.3995224528
 30
0.0
 10
155.7857091016
 20
162.3664430802
 30
0.0
 10
155.8930633647
 20
162.3160504723
 30
0.0
 10
156.125966966
 20
162.2588412097
 30
0.0
 10
156.5088052678
 20
162.2011169413
 30
0.0
 10
157.0245451971
 20
162.1485719773
 30
0.0
 10
157.6516290396
 20
162.1051283829
 30
0.0
 10
158.3672002507
 20
162.0725520302
 30
0.0
 10
159.1434489138
 20
162.0524582895
 30
0.0
 10
159.6781945471
 20
162.0479488056
 30
0.0
 10
159.9507241849
 20
162.0479488056
 30
0.0
  0
SPLINE
  5
4A9
100
AcDbEntity
  8
0
100
AcDbSpline
 62
7
  6
CONTINUOUS
 70
0
 71
3
 72
9
 73
5
 74
0
 42
0.0000001
 43
0.0000001
 44
0.0000000001
 40
0.0
 40
0.0
 40
0.0
 40
0.0
 40
0.4997414158
 40
1.0
 40
1.0
 40
1.0
 40
1.0
 10
183.064724185
 20
192.3028238814
 30
0.0
 10
183.064724185
 20
192.5003108876
 30
0.0
 10
182.9857287774
 20
192.8994466079
 30
0.0
 10
182.7584100569
 20
193.2368317203
 30
0.0
 10
182.6183549195
 20
193.3763539056
 30
0.0
  0
SPLINE
  5
4AA
100
AcDbEntity
  8
0
100
AcDbSpline
 62
7
  6
CONTINUOUS
 70
0
 71
3
 72
9
 73
5
 74
0
 42
0.0000001
 43
0.0000001
 44
0.0000000001
 40
0.0
 40
0.0
 40
0.0
 40
0.0
 40
0.4997427007
 40
1.0
 40
1.0
 40
1.0
 40
1.0
 10
182.6183549195
 20
193.3763539056
 30
0.0
 10
182.4780953114
 20
193.5160797835
 30
0.0
 10
182.1389941603
 20
193.7425426859
 30
0.0
 10
181.7389080458
 20
193.8210246013
 30
0.0
 10
181.540724185
 20
193.8210246013
 30
0.0
  0
SPLINE
  5
4AB
100
AcDbEntity
  8
0
100
AcDbSpline
 62
7
  6
CONTINUOUS
 70
0
 71
3
 72
11
 73
7
 74
0
 42
0.0000001
 43
0.0000001
 44
0.0000000001
 40
0.0
 40
0.0
 40
0.0
 40
0.0
 40
0.3202645018
 40
0.6108704816
 40
0.8447071383
 40
1.0
 40
1.0
 40
1.0
 40
1.0
 10
159.950724185
 20
193.9095748359
 30
0.0
 10
159.7978117534
 20
193.9070497701
 30
0.0
 10
159.5060670203
 20
193.9070565933
 30
0.0
 10
159.102757636
 20
193.9160840894
 30
0.0
 10
158.7784080651
 20
193.9259249148
 30
0.0
 10
158.5925130667
 20
193.9313143596
 30
0.0
 10
158.5183939485
 20
193.928984565
 30
0.0
  0
SPLINE
  5
4AC
100
AcDbEntity
  8
0
100
AcDbSpline
 62
7
  6
CONTINUOUS
 70
0
 71
3
 72
18
 73
14
 74
0
 42
0.0000001
 43
0.0000001
 44
0.0000000001
 40
0.0
 40
0.0
 40
0.0
 40
0.0
 40
0.0058980238
 40
0.0197270013
 40
0.0419934425
 40
0.0727077848
 40
0.1117173937
 40
0.1588239439
 40
0.2763336218
 40
0.4226721539
 40
0.5946563954
 40
0.7885366311
 40
1.0
 40
1.0
 40
1.0
 40
1.0
 10
155.759724185
 20
193.9095748359
 30
0.0
 10
155.759724185
 20
193.9043856445
 30
0.0
 10
155.7798068862
 20
193.8948524836
 30
0.0
 10
155.8113629044
 20
193.8850223432
 30
0.0
 10
155.8708801209
 20
193.8719390085
 30
0.0
 10
155.9497632895
 20
193.8584178432
 30
0.0
 10
156.0518547202
 20
193.8437012181
 30
0.0
 10
156.229512405
 20
193.8218135166
 30
0.0
 10
156.5018993128
 20
193.7948222887
 30
0.0
 10
156.8841423724
 20
193.7647190102
 30
0.0
 10
157.3339529894
 20
193.736744809
 30
0.0
 10
157.841325883
 20
193.7124658214
 30
0.0
 10
158.1977539632
 20
193.7001133897
 30
0.0
 10
158.3837282839
 20
193.6948277383
 30
0.0
  0
SPLINE
  5
4AD
100
AcDbEntity
  8
0
100
AcDbSpline
 62
7
  6
CONTINUOUS
 70
0
 71
3
 72
9
 73
5
 74
0
 42
0.0000001
 43
0.0000001
 44
0.0000000001
 40
0.0
 40
0.0
 40
0.0
 40
0.0
 40
0.5002572993
 40
1.0
 40
1.0
 40
1.0
 40
1.0
 10
181.540724185
 20
193.5885802353
 30
0.0
 10
181.7389080458
 20
193.5885802353
 30
0.0
 10
182.1389941603
 20
193.51009832
 30
0.0
 10
182.4780953114
 20
193.2836354176
 30
0.0
 10
182.6183549195
 20
193.1439095397
 30
0.0
  0
SPLINE
  5
4AE
100
AcDbEntity
  8
0
100
AcDbSpline
 62
7
  6
CONTINUOUS
 70
0
 71
3
 72
9
 73
5
 74
0
 42
0.0000001
 43
0.0000001
 44
0.0000000001
 40
0.0
 40
0.0
 40
0.0
 40
0.0
 40
0.5002585842
 40
1.0
 40
1.0
 40
1.0
 40
1.0
 10
182.6183549195
 20
193.1439095397
 30
0.0
 10
182.7584100569
 20
193.0043873544
 30
0.0
 10
182.9857287774
 20
192.667002242
 30
0.0
 10
183.064724185
 20
192.2678665217
 30
0.0
 10
183.064724185
 20
192.0703795155
 30
0.0
  0
SPLINE
  5
4AF
100
AcDbEntity
  8
0
100
AcDbSpline
 62
7
  6
CONTINUOUS
 70
0
 71
3
 72
9
 73
5
 74
0
 42
0.0000001
 43
0.0000001
 44
0.0000000001
 40
0.0
 40
0.0
 40
0.0
 40
0.0
 40
0.4999621002
 40
1.0
 40
1.0
 40
1.0
 40
1.0
 10
243.0341541981
 20
266.1599932003
 30
0.0
 10
243.0341541981
 20
265.2254268666
 30
0.0
 10
243.2419840339
 20
263.3503461543
 30
0.0
 10
243.8579531619
 20
261.567192038
 30
0.0
 10
244.2585258568
 20
260.7226681446
 30
0.0
  0
SPLINE
  5
4B0
100
AcDbEntity
  8
0
100
AcDbSpline
 62
7
  6
CONTINUOUS
 70
0
 71
3
 72
9
 73
5
 74
0
 42
0.0000001
 43
0.0000001
 44
0.0000000001
 40
0.0
 40
0.0
 40
0.0
 40
0.0
 40
0.1976658122
 40
1.0
 40
1.0
 40
1.0
 40
1.0
 10
244.304124185
 20
253.7447444522
 30
0.0
 10
244.3673985363
 20
253.7492913542
 30
0.0
 10
244.6877450952
 20
253.7689306104
 30
0.0
 10
245.0085439537
 20
253.7800783453
 30
0.0
 10
245.265931796
 20
253.7875282858
 30
0.0
  0
SPLINE
  5
4B1
100
AcDbEntity
  8
0
100
AcDbSpline
 62
7
  6
CONTINUOUS
 70
0
 71
3
 72
9
 73
5
 74
0
 42
0.0000001
 43
0.0000001
 44
0.0000000001
 40
0.0
 40
0.0
 40
0.0
 40
0.0
 40
0.2994788151
 40
1.0
 40
1.0
 40
1.0
 40
1.0
 10
245.265931796
 20
279.1720552921
 30
0.0
 10
245.1698603444
 20
279.1692745602
 30
0.0
 10
244.8491136324
 20
279.1588697608
 30
0.0
 10
244.5283641048
 20
279.1453853641
 30
0.0
 10
244.304124185
 20
279.1292714585
 30
0.0
  0
SPLINE
  5
4B2
100
AcDbEntity
  8
0
100
AcDbSpline
 62
7
  6
CONTINUOUS
 70
0
 71
3
 72
9
 73
5
 74
0
 42
0.0000001
 43
0.0000001
 44
0.0000000001
 40
0.0
 40
0.0
 40
0.0
 40
0.0
 40
0.1978999884
 40
1.0
 40
1.0
 40
1.0
 40
1.0
 10
244.304124185
 20
226.6234944375
 30
0.0
 10
244.3673523779
 20
226.6303080848
 30
0.0
 10
244.6873808232
 20
226.65973546
 30
0.0
 10
245.0084230666
 20
226.6764765757
 30
0.0
 10
245.265931796
 20
226.6876538969
 30
0.0
  0
SPLINE
  5
4B3
100
AcDbEntity
  8
0
100
AcDbSpline
 62
7
  6
CONTINUOUS
 70
0
 71
3
 72
15
 73
11
 74
0
 42
0.0000001
 43
0.0000001
 44
0.0000000001
 40
0.0
 40
0.0
 40
0.0
 40
0.0
 40
0.1747670398
 40
0.3437580341
 40
0.5011235414
 40
0.6420925137
 40
0.7627538184
 40
0.8609965806
 40
0.9378287233
 40
1.0
 40
1.0
 40
1.0
 40
1.0
 10
113.494124185
 20
213.0233230943
 30
0.0
 10
113.287601281
 20
213.0233230943
 30
0.0
 10
112.8812438213
 20
213.0098284655
 30
0.0
 10
112.2916350382
 20
212.9498098422
 30
0.0
 10
111.7474253307
 20
212.8523319326
 30
0.0
 10
111.2690872564
 20
212.7214851405
 30
0.0
 10
110.8732560826
 20
212.5622867877
 30
0.0
 10
110.5730445274
 20
212.3795555523
 30
0.0
 10
110.3732978798
 20
212.1756248488
 30
0.0
 10
110.319124185
 20
212.0108771834
 30
0.0
 10
110.319124185
 20
211.9374091392
 30
0.0
  0
SPLINE
  5
4B4
100
AcDbEntity
  8
0
100
AcDbSpline
 62
7
  6
CONTINUOUS
 70
0
 71
3
 72
15
 73
11
 74
0
 42
0.0000001
 43
0.0000001
 44
0.0000000001
 40
0.0
 40
0.0
 40
0.0
 40
0.0
 40
0.0621712542
 40
0.1390033517
 40
0.2372460791
 40
0.3579073537
 40
0.4988763135
 40
0.6562418332
 40
0.825232911
 40
1.0
 40
1.0
 40
1.0
 40
1.0
 10
84.919124185
 20
211.9374091392
 30
0.0
 10
84.919124185
 20
212.0108771572
 30
0.0
 10
84.8649505969
 20
212.1756247657
 30
0.0
 10
84.6652040202
 20
212.3795553878
 30
0.0
 10
84.3649926261
 20
212.5622866201
 30
0.0
 10
83.9691615514
 20
212.7214849946
 30
0.0
 10
83.4908235246
 20
212.8523318289
 30
0.0
 10
82.9466137226
 20
212.9498097958
 30
0.0
 10
82.3570047656
 20
213.0098284324
 30
0.0
 10
81.950647148
 20
213.0233230943
 30
0.0
 10
81.744124185
 20
213.0233230943
 30
0.0
  0
SPLINE
  5
4B5
100
AcDbEntity
  8
0
100
AcDbSpline
 62
7
  6
CONTINUOUS
 70
0
 71
3
 72
13
 73
9
 74
0
 42
0.0000001
 43
0.0000001
 44
0.0000000001
 40
0.0
 40
0.0
 40
0.0
 40
0.0
 40
0.1214271701
 40
0.2434798627
 40
0.366602475
 40
0.4911536975
 40
0.7435113478
 40
1.0
 40
1.0
 40
1.0
 40
1.0
 10
32.976124185
 20
205.5048424354
 30
0.0
 10
32.976124185
 20
205.9964105737
 30
0.0
 10
33.0799893631
 20
206.9851346732
 30
0.0
 10
33.5400438083
 20
208.4067265618
 30
0.0
 10
34.2870856855
 20
209.7160833758
 30
0.0
 10
35.627544181
 20
211.2484740366
 30
0.0
 10
37.8591768825
 20
212.6412904418
 30
0.0
 10
39.9387927378
 20
213.0233230943
 30
0.0
 10
40.977124185
 20
213.0233230943
 30
0.0
  0
SPLINE
  5
4B6
100
AcDbEntity
  8
0
100
AcDbSpline
 62
7
  6
CONTINUOUS
 70
0
 71
3
 72
13
 73
9
 74
0
 42
0.0000001
 43
0.0000001
 44
0.0000000001
 40
0.0
 40
0.0
 40
0.0
 40
0.0
 40
0.2564886522
 40
0.5088463025
 40
0.633397525
 40
0.7565201373
 40
0.8785728299
 40
1.0
 40
1.0
 40
1.0
 40
1.0
 10
154.261124185
 20
213.0233230943
 30
0.0
 10
155.2994556321
 20
213.0233230943
 30
0.0
 10
157.3790714874
 20
212.6412904418
 30
0.0
 10
159.6107041889
 20
211.2484740366
 30
0.0
 10
160.9511626844
 20
209.7160833758
 30
0.0
 10
161.6982045616
 20
208.4067265618
 30
0.0
 10
162.1582590068
 20
206.9851346732
 30
0.0
 10
162.262124185
 20
205.9964105737
 30
0.0
 10
162.262124185
 20
205.5048424354
 30
0.0
  0
SPLINE
  5
4B7
100
AcDbEntity
  8
0
100
AcDbSpline
 62
7
  6
CONTINUOUS
 70
0
 71
3
 72
8
 73
4
 74
0
 42
0.0000001
 43
0.0000001
 44
0.0000000001
 40
0.0
 40
0.0
 40
0.0
 40
0.0
 40
1.0
 40
1.0
 40
1.0
 40
1.0
 10
154.261124185
 20
196.98496337
 30
0.0
 10
154.7834044754
 20
196.98496337
 30
0.0
 10
155.3119149715
 20
196.9032139388
 30
0.0
 10
155.8093154019
 20
196.7439358374
 30
0.0
  0
SPLINE
  5
4B8
100
AcDbEntity
  8
0
100
AcDbSpline
 62
7
  6
CONTINUOUS
 70
0
 71
3
 72
11
 73
7
 74
0
 42
0.0000001
 43
0.0000001
 44
0.0000000001
 40
0.0
 40
0.0
 40
0.0
 40
0.0
 40
0.2547713802
 40
0.5065478514
 40
0.7548840883
 40
1.0
 40
1.0
 40
1.0
 40
1.0
 10
155.8093154019
 20
196.7439358374
 30
0.0
 10
156.145932543
 20
196.6361439341
 30
0.0
 10
156.79470817
 20
196.3499236126
 30
0.0
 10
157.6459055448
 20
195.7258000986
 30
0.0
 10
158.3296304331
 20
194.9389606679
 30
0.0
 10
158.6525971002
 20
194.3270982237
 30
0.0
 10
158.7748985403
 20
194.0097929445
 30
0.0
  0
SPLINE
  5
4B9
100
AcDbEntity
  8
0
100
AcDbSpline
 62
7
  6
CONTINUOUS
 70
0
 71
3
 72
13
 73
9
 74
0
 42
0.0000001
 43
0.0000001
 44
0.0000000001
 40
0.0
 40
0.0
 40
0.0
 40
0.0
 40
0.1213996613
 40
0.2434896271
 40
0.3665973079
 40
0.4911523212
 40
0.7434993324
 40
1.0
 40
1.0
 40
1.0
 40
1.0
 10
36.176524185
 20
192.4738749747
 30
0.0
 10
36.176524185
 20
192.768748176
 30
0.0
 10
36.2389561541
 20
193.3619847699
 30
0.0
 10
36.5148301769
 20
194.2149736319
 30
0.0
 10
36.9631452976
 20
195.0006126505
 30
0.0
 10
37.7673179323
 20
195.9200561792
 30
0.0
 10
39.10634312
 20
196.7557026304
 30
0.0
 10
40.3540979573
 20
196.98496337
 30
0.0
 10
40.977124185
 20
196.98496337
 30
0.0
  0
SPLINE
  5
4BA
100
AcDbEntity
  8
0
100
AcDbSpline
 62
7
  6
CONTINUOUS
 70
0
 71
3
 72
13
 73
9
 74
0
 42
0.0000001
 43
0.0000001
 44
0.0000000001
 40
0.0
 40
0.0
 40
0.0
 40
0.0
 40
0.1213996613
 40
0.2434896271
 40
0.3665973079
 40
0.4911523212
 40
0.7434993324
 40
1.0
 40
1.0
 40
1.0
 40
1.0
 10
159.061724185
 20
205.5048424354
 30
0.0
 10
159.061724185
 20
205.7997156367
 30
0.0
 10
158.9992922159
 20
206.3929522306
 30
0.0
 10
158.723418193
 20
207.2459410926
 30
0.0
 10
158.2751030723
 20
208.0315801112
 30
0.0
 10
157.4709304377
 20
208.9510236399
 30
0.0
 10
156.1319052499
 20
209.7866700912
 30
0.0
 10
154.8841504126
 20
210.0159308307
 30
0.0
 10
154.261124185
 20
210.0159308307
 30
0.0
  0
SPLINE
  5
4BB
100
AcDbEntity
  8
0
100
AcDbSpline
 62
7
  6
CONTINUOUS
 70
0
 71
3
 72
13
 73
9
 74
0
 42
0.0000001
 43
0.0000001
 44
0.0000000001
 40
0.0
 40
0.0
 40
0.0
 40
0.0
 40
0.2565005638
 40
0.5088475512
 40
0.6334025729
 40
0.7565102742
 40
0.8786003029
 40
1.0
 40
1.0
 40
1.0
 40
1.0
 10
40.977124185
 20
210.0159308307
 30
0.0
 10
40.354098209
 20
210.0159308307
 30
0.0
 10
39.1063436929
 20
209.786670257
 30
0.0
 10
37.7673186239
 20
208.9510241895
 30
0.0
 10
36.9631457881
 20
208.0315808248
 30
0.0
 10
36.5148303999
 20
207.2459416872
 30
0.0
 10
36.2389563011
 20
206.3929525449
 30
0.0
 10
36.176524185
 20
205.7997157238
 30
0.0
 10
36.176524185
 20
205.5048424354
 30
0.0
  0
SPLINE
  5
4BC
100
AcDbEntity
  8
0
100
AcDbSpline
 62
7
  6
CONTINUOUS
 70
0
 71
3
 72
11
 73
7
 74
0
 42
0.0000001
 43
0.0000001
 44
0.0000000001
 40
0.0
 40
0.0
 40
0.0
 40
0.0
 40
0.3048360264
 40
0.5857048534
 40
0.8219514234
 40
1.0
 40
1.0
 40
1.0
 40
1.0
 10
81.744124185
 20
210.0159308307
 30
0.0
 10
82.0577421531
 20
210.0159308307
 30
0.0
 10
82.6606438152
 20
209.9859921727
 30
0.0
 10
83.4984667547
 20
209.8534436579
 30
0.0
 10
84.1843436919
 20
209.6479162153
 30
0.0
 10
84.5679283724
 20
209.4431818166
 30
0.0
 10
84.7051858851
 20
209.3218783548
 30
0.0
  0
SPLINE
  5
4BD
100
AcDbEntity
  8
0
100
AcDbSpline
 62
7
  6
CONTINUOUS
 70
0
 71
3
 72
15
 73
11
 74
0
 42
0.0000001
 43
0.0000001
 44
0.0000000001
 40
0.0
 40
0.0
 40
0.0
 40
0.0
 40
0.0621712542
 40
0.1390033517
 40
0.2372460791
 40
0.3579073537
 40
0.4988763135
 40
0.6562418332
 40
0.825232911
 40
1.0
 40
1.0
 40
1.0
 40
1.0
 10
84.919124185
 20
202.4145331453
 30
0.0
 10
84.919124185
 20
202.3410651274
 30
0.0
 10
84.973297773
 20
202.1763175189
 30
0.0
 10
85.1730443497
 20
201.9723868968
 30
0.0
 10
85.4732557439
 20
201.7896556645
 30
0.0
 10
85.8690868185
 20
201.63045729
 30
0.0
 10
86.3474248453
 20
201.4996104557
 30
0.0
 10
86.8916346473
 20
201.4021324887
 30
0.0
 10
87.4812436043
 20
201.3421138521
 30
0.0
 10
87.8876012219
 20
201.3286191903
 30
0.0
 10
88.094124185
 20
201.3286191903
 30
0.0
  0
SPLINE
  5
4BE
100
AcDbEntity
  8
0
100
AcDbSpline
 62
7
  6
CONTINUOUS
 70
0
 71
3
 72
15
 73
11
 74
0
 42
0.0000001
 43
0.0000001
 44
0.0000000001
 40
0.0
 40
0.0
 40
0.0
 40
0.0
 40
0.1747670398
 40
0.3437580341
 40
0.5011235414
 40
0.6420925137
 40
0.7627538184
 40
0.8609965806
 40
0.9378287233
 40
1.0
 40
1.0
 40
1.0
 40
1.0
 10
107.144124185
 20
201.3286191903
 30
0.0
 10
107.3506470889
 20
201.3286191903
 30
0.0
 10
107.7570045486
 20
201.3421138191
 30
0.0
 10
108.3466133317
 20
201.4021324424
 30
0.0
 10
108.8908230392
 20
201.499610352
 30
0.0
 10
109.3691611135
 20
201.630457144
 30
0.0
 10
109.7649922873
 20
201.7896554969
 30
0.0
 10
110.0652038425
 20
201.9723867323
 30
0.0
 10
110.2649504901
 20
202.1763174357
 30
0.0
 10
110.319124185
 20
202.3410651011
 30
0.0
 10
110.319124185
 20
202.4145331453
 30
0.0
  0
SPLINE
  5
4BF
100
AcDbEntity
  8
0
100
AcDbSpline
 62
7
  6
CONTINUOUS
 70
0
 71
3
 72
11
 73
7
 74
0
 42
0.0000001
 43
0.0000001
 44
0.0000000001
 40
0.0
 40
0.0
 40
0.0
 40
0.0
 40
0.1780482581
 40
0.4142947193
 40
0.6951636768
 40
1.0
 40
1.0
 40
1.0
 40
1.0
 10
110.5330599626
 20
209.3218761263
 30
0.0
 10
110.6703169787
 20
209.4431799536
 30
0.0
 10
111.0539014509
 20
209.6479150172
 30
0.0
 10
111.7397786788
 20
209.8534430636
 30
0.0
 10
112.5776028217
 20
209.9859920593
 30
0.0
 10
113.1805055733
 20
210.0159308307
 30
0.0
 10
113.494124185
 20
210.0159308307
 30
0.0
  0
ELLIPSE
  5
4C0
100
AcDbEntity
  8
0
100
AcDbEllipse
 62
7
  6
CONTINUOUS
 10
241.256124185
 20
238.8471202029
 30
0.0
 11
4.6237523754
 21
-4.4861505503
 31
0.0
 40
0.9701866204
 41
-2.3864152811
 42
-1.7597710695
  0
ELLIPSE
  5
4C1
100
AcDbEntity
  8
0
100
AcDbEllipse
 62
7
  6
CONTINUOUS
 10
241.256124185
 20
239.1003922105
 30
0.0
 11
4.6237523754
 21
4.4861505503
 31
0.0
 40
0.9701866204
 41
8.6593346456
 42
9.2962447999
  0
ENDSEC
  0
SECTION
  2
OBJECTS
  0
DICTIONARY
  5
C
100
AcDbDictionary
280
0
281
1
  3
ACAD_GROUP
350
D
  3
ACAD_MLINESTYLE
350
17
  3
ACAD_LAYOUT
350
1A
  3
ACAD_PLOTSETTINGS
350
19
  3
ACAD_PLOTSTYLENAME
350
E
  0
DICTIONARY
  5
D
102
{ACAD_REACTORS
330
C
102
}
100
AcDbDictionary
280
0
281
1
  0
ACDBDICTIONARYWDFLT
  5
E
102
{ACAD_REACTORS
330
C
102
}
100
AcDbDictionary
281
1
  3
Normal
350
F
100
AcDbDictionaryWithDefault
340
F
  0
DICTIONARY
  5
17
102
{ACAD_REACTORS
330
C
102
}
100
AcDbDictionary
280
0
281
1
  3
Standard
350
18
  0
DICTIONARY
  5
19
102
{ACAD_REACTORS
330
C
102
}
100
AcDbDictionary
281
1
  0
DICTIONARY
  5
1A
102
{ACAD_REACTORS
330
C
102
}
100
AcDbDictionary
281
1
  3
Model
350
4C2
  3
Layout1
350
4C3
  0
ACDBPLACEHOLDER
  5
F
102
{ACAD_REACTORS
330
E
102
}
  0
MLINESTYLE
  5
18
102
{ACAD_REACTORS
330
17
102
}
100
AcDbMlineStyle
  2
STANDARD
 70
0
  3

 62
256
 51
90.0
 52
90.0
 71
2
 49
0.5
 62
256
  6
BYLAYER
 49
-0.5
 62
256
  6
BYLAYER
  0
LAYOUT
  5
4C2
102
{ACAD_REACTORS
330
1A
102
}
100
AcDbPlotSettings
  1

  2
none_device
  4

  6

 40
0.0
 41
0.0
 42
0.0
 43
0.0
 44
210.0
 45
297.0
 46
0.0
 47
0.0
 48
0.0
 49
0.0
140
0.0
141
0.0
142
1.0
143
1.0
 70
1024
 72
1
 73
0
 74
0
  7

 75
0
147
1.0
148
0.0
149
0.0
100
AcDbLayout
  1
Model
 70
0
 71
0
 10
0.0
 20
0.0
 11
210.0
 21
297.0
 12
0.0
 22
0.0
 32
0.0
 14
0.0
 24
0.0
 34
0.0
 15
0.0
 25
0.0
 35
0.0
146
0.0
 13
0.0
 23
0.0
 33
0.0
 16
1.0
 26
0.0
 36
0.0
 17
0.0
 27
1.0
 37
0.0
 76
0
330
210
345
0
346
0
  0
LAYOUT
  5
4C3
102
{ACAD_REACTORS
330
1A
102
}
100
AcDbPlotSettings
  1

  2
none_device
  4

  6

 40
0.0
 41
0.0
 42
0.0
 43
0.0
 44
210.0
 45
297.0
 46
0.0
 47
0.0
 48
0.0
 49
0.0
140
0.0
141
0.0
142
1.0
143
1.0
 70
0
 72
1
 73
0
 74
0
  7

 75
0
147
1.0
148
0.0
149
0.0
100
AcDbLayout
  1
Layout1
 70
0
 71
1
 10
0.0
 20
0.0
 11
210.0
 21
297.0
 12
0.0
 22
0.0
 32
0.0
 14
0.0
 24
0.0
 34
0.0
 15
0.0
 25
0.0
 35
0.0
146
0.0
 13
0.0
 23
0.0
 33
0.0
 16
1.0
 26
0.0
 36
0.0
 17
0.0
 27
1.0
 37
0.0
 76
0
330
211
345
0
346
0
  0
ENDSEC
  0
EOF
