999
DXF file: C:\Users\sesa63760\Dev\_Creo\CAD\MCADID0000435_3D-CAD\drw0001_1.dxf
999
Pro/ENGINEER 2019471 by Parametric Technology Corporation
  0
SECTION
  2
HEADER
  9
$ACADVER
  1
AC1024
  9
$DWGCODEPAGE
  3
ANSI_1252
  9
$EXTMAX
 10
74.9965306825
 20
106.0665219652
 30
0.0
  9
$EXTMIN
 10
0.0
 20
0.0
 30
0.0
  9
$LIMMIN
 10
0.0
 20
0.0
  9
$LIMMAX
 10
74.9965306825
 20
106.0665219652
  9
$VIEWCTR
 10
37.4982653412
 20
53.0332609826
  9
$VIEWSIZE
 40
106.0665219652
  9
$CLAYER
  8
0
  9
$LTSCALE
 40
6.9139658763
  9
$CELTYPE
  6
BYLAYER
  9
$DIMSCALE
 40
1.0
  9
$DIMASZ
 40
0.8928158415
  9
$DIMEXO
 40
1.0
  9
$DIMDLI
 40
4.7769218781
  9
$DIMEXE
 40
1.0
  9
$DIMCEN
 40
1.1313762343
  9
$DIMLFAC
 40
1.0
  9
$DIMBLK
  1
_FILLED
  9
$DIMALT
 70
0
  9
$DIMALTF
 40
0.0393700787
  9
$DIMTXT
 40
1.249942178
  9
$DIMTOL
 70
1
  9
$DIMLIM
 70
0
  9
$DIMTFAC
 40
1.0
  9
$DIMTP
 40
0.01
  9
$DIMTM
 40
0.01
  9
$DIMGAP
 40
0.625
  9
$DIMDSEP
 70
46
  9
$AUNITS
 70
0
  9
$PDMODE
 70
3
  9
$PDSIZE
 40
0.3125
  9
$HANDSEED
  5
269
  9
$TILEMODE
 70
1
  9
$MEASUREMENT
 70
1
  9
$INSUNITS
 70
4
  0
ENDSEC
  0
SECTION
  2
CLASSES
  0
CLASS
  1
ACDBDICTIONARYWDFLT
  2
AcDbDictionaryWithDefault
  3
AutoCAD 2000
 90
0
 91
1
280
0
281
0
  0
CLASS
  1
ACDBPLACEHOLDER
  2
AcDbPlaceHolder
  3
AutoCAD 2000
 90
0
 91
1
280
0
281
0
  0
CLASS
  1
LAYOUT
  2
AcDbLayout
  3
AutoCAD 2000
 90
0
 91
0
280
0
281
0
  0
ENDSEC
  0
SECTION
  2
TABLES
  0
TABLE
  2
VPORT
  5
8
100
AcDbSymbolTable
 70
2
  0
VPORT
  5
1F4
100
AcDbSymbolTableRecord
100
AcDbViewportTableRecord
  2
*ACTIVE
 70
0
 10
0.0
 20
0.0
 11
1.0
 21
1.0
 12
37.4982653412
 22
53.0332609826
 13
0.0
 23
0.0
 14
1.0
 24
1.0
 15
0.0
 25
0.0
 16
0.0
 26
0.0
 36
1.0
 17
0.0
 27
0.0
 37
0.0
 40
106.0665219652
 41
0.7070707071
 42
50.0
 43
0.0
 44
0.0
 50
0.0
 51
0.0
 71
0
 72
100
 73
1
 74
1
 75
0
 76
0
 77
0
 78
0
  0
ENDTAB
  0
TABLE
  2
LTYPE
  5
5
100
AcDbSymbolTable
 70
6
  0
LTYPE
  5
14
100
AcDbSymbolTableRecord
100
AcDbLinetypeTableRecord
  2
BYBLOCK
 70
0
  3

 72
65
 73
0
 40
0.0
  0
LTYPE
  5
15
100
AcDbSymbolTableRecord
100
AcDbLinetypeTableRecord
  2
BYLAYER
 70
0
  3

 72
65
 73
0
 40
0.0
  0
LTYPE
  5
16
100
AcDbSymbolTableRecord
100
AcDbLinetypeTableRecord
  2
CONTINUOUS
 70
64
  3
Solid line
 72
65
 73
0
 40
0.0
  0
LTYPE
  5
1F5
100
AcDbSymbolTableRecord
100
AcDbLinetypeTableRecord
  2
CENTER
 70
64
  3
____ _ ____ _ ____ _ ____ _ ____ _ ____ _ ____
 72
65
 73
4
 40
0.6
 49
0.375
 74
0
 49
-0.075
 74
0
 49
0.075
 74
0
 49
-0.075
 74
0
  0
LTYPE
  5
1F6
100
AcDbSymbolTableRecord
100
AcDbLinetypeTableRecord
  2
HIDDEN
 70
64
  3
- - - - - - - - - - - - - - - - - - - -
 72
65
 73
2
 40
0.2
 49
0.1
 74
0
 49
-0.1
 74
0
  0
LTYPE
  5
1F7
100
AcDbSymbolTableRecord
100
AcDbLinetypeTableRecord
  2
PHANTOM
 70
64
  3
_____ _ _ _____ _ _ _____ _ _ _____
 72
65
 73
6
 40
0.8
 49
0.45
 74
0
 49
-0.05
 74
0
 49
0.1
 74
0
 49
-0.05
 74
0
 49
0.1
 74
0
 49
-0.05
 74
0
  0
LTYPE
  5
1F8
100
AcDbSymbolTableRecord
100
AcDbLinetypeTableRecord
  2
DOT
 70
64
  3
. . . . . . . . . . . . . . . . . . . .
 72
65
 73
2
 40
0.2
 49
0.1
 74
0
 49
-0.1
 74
0
  0
LTYPE
  5
1F9
100
AcDbSymbolTableRecord
100
AcDbLinetypeTableRecord
  2
DASHED
 70
64
  3
- - - - - - - - - - - - - - - - - - - -
 72
65
 73
2
 40
0.2
 49
0.1
 74
0
 49
-0.1
 74
0
  0
ENDTAB
  0
TABLE
  2
LAYER
  5
2
100
AcDbSymbolTable
 70
36
  0
LAYER
  5
10
100
AcDbSymbolTableRecord
100
AcDbLayerTableRecord
  2
0
 70
0
 62
7
  6
CONTINUOUS
370
-3
390
F
  0
LAYER
  5
1FA
100
AcDbSymbolTableRecord
100
AcDbLayerTableRecord
  2
DEFAULT_1
 70
0
 62
7
  6
CENTER
370
-3
390
F
  0
LAYER
  5
1FB
100
AcDbSymbolTableRecord
100
AcDbLayerTableRecord
  2
DEFAULT_2
 70
0
 62
8
  6
HIDDEN
370
-3
390
F
  0
LAYER
  5
1FC
100
AcDbSymbolTableRecord
100
AcDbLayerTableRecord
  2
DEFAULT_3
 70
0
 62
7
  6
PHANTOM
370
-3
390
F
  0
LAYER
  5
1FD
100
AcDbSymbolTableRecord
100
AcDbLayerTableRecord
  2
00_COMPONENTS
 70
0
 62
7
  6
CONTINUOUS
370
-3
390
F
  0
LAYER
  5
1FE
100
AcDbSymbolTableRecord
100
AcDbLayerTableRecord
  2
01_1_DEFAULT_DATUMS
 70
0
 62
7
  6
CONTINUOUS
370
-3
390
F
  0
LAYER
  5
1FF
100
AcDbSymbolTableRecord
100
AcDbLayerTableRecord
  2
01_PLANES
 70
0
 62
7
  6
CONTINUOUS
370
-3
390
F
  0
LAYER
  5
200
100
AcDbSymbolTableRecord
100
AcDbLayerTableRecord
  2
02_COORD_SYS
 70
0
 62
7
  6
CONTINUOUS
370
-3
390
F
  0
LAYER
  5
201
100
AcDbSymbolTableRecord
100
AcDbLayerTableRecord
  2
03_AXES
 70
0
 62
7
  6
CONTINUOUS
370
-3
390
F
  0
LAYER
  5
202
100
AcDbSymbolTableRecord
100
AcDbLayerTableRecord
  2
04_POINTS
 70
0
 62
7
  6
CONTINUOUS
370
-3
390
F
  0
LAYER
  5
203
100
AcDbSymbolTableRecord
100
AcDbLayerTableRecord
  2
05_CURVES
 70
0
 62
7
  6
CONTINUOUS
370
-3
390
F
  0
LAYER
  5
204
100
AcDbSymbolTableRecord
100
AcDbLayerTableRecord
  2
06_SURFS
 70
0
 62
7
  6
CONTINUOUS
370
-3
390
F
  0
LAYER
  5
205
100
AcDbSymbolTableRecord
100
AcDbLayerTableRecord
  2
07_COSMETICS
 70
0
 62
7
  6
CONTINUOUS
370
-3
390
F
  0
LAYER
  5
206
100
AcDbSymbolTableRecord
100
AcDbLayerTableRecord
  2
10_NOTES
 70
0
 62
7
  6
CONTINUOUS
370
-3
390
F
  0
LAYER
  5
207
100
AcDbSymbolTableRecord
100
AcDbLayerTableRecord
  2
11_NOTES_PUB
 70
0
 62
7
  6
CONTINUOUS
370
-3
390
F
  0
LAYER
  5
208
100
AcDbSymbolTableRecord
100
AcDbLayerTableRecord
  2
13_REF_GTOL
 70
0
 62
7
  6
CONTINUOUS
370
-3
390
F
  0
LAYER
  5
209
100
AcDbSymbolTableRecord
100
AcDbLayerTableRecord
  2
16_MISC
 70
0
 62
7
  6
CONTINUOUS
370
-3
390
F
  0
LAYER
  5
20A
100
AcDbSymbolTableRecord
100
AcDbLayerTableRecord
  2
17_NO_PRINT
 70
0
 62
7
  6
CONTINUOUS
370
-3
390
F
  0
LAYER
  5
20B
100
AcDbSymbolTableRecord
100
AcDbLayerTableRecord
  2
18_DATUM_CAMS_JOINTS
 70
0
 62
7
  6
CONTINUOUS
370
-3
390
F
  0
LAYER
  5
20C
100
AcDbSymbolTableRecord
100
AcDbLayerTableRecord
  2
19_DATUM_FUNCTIONAL
 70
0
 62
7
  6
CONTINUOUS
370
-3
390
F
  0
LAYER
  5
20D
100
AcDbSymbolTableRecord
100
AcDbLayerTableRecord
  2
20_DATUM_KINEMATIC_SCHEME
 70
0
 62
7
  6
CONTINUOUS
370
-3
390
F
  0
ENDTAB
  0
TABLE
  2
STYLE
  5
3
100
AcDbSymbolTable
 70
1
  0
STYLE
  5
11
100
AcDbSymbolTableRecord
100
AcDbTextStyleTableRecord
  2
STANDARD
 70
0
 40
0.0
 41
0.8
 50
0.0
 71
0
 42
0.2
  3
txt
  4

  0
STYLE
  5
20E
100
AcDbSymbolTableRecord
100
AcDbTextStyleTableRecord
  2
TEXTSTYLE_1
 70
0
 40
0.0
 41
0.8
 50
0.0
 71
0
 42
0.2
  3
gdt
  4

  0
ENDTAB
  0
TABLE
  2
VIEW
  5
6
100
AcDbSymbolTable
 70
0
  0
ENDTAB
  0
TABLE
  2
UCS
  5
7
100
AcDbSymbolTable
 70
0
  0
ENDTAB
  0
TABLE
  2
APPID
  5
9
100
AcDbSymbolTable
 70
1
  0
APPID
  5
20F
100
AcDbSymbolTableRecord
100
AcDbRegAppTableRecord
  2
ACAD
 70
0
  0
ENDTAB
  0
TABLE
  2
BLOCK_RECORD
  5
1
100
AcDbSymbolTable
 70
0
  0
BLOCK_RECORD
  5
210
100
AcDbSymbolTableRecord
100
AcDbBlockTableRecord
  2
*Model_Space
  0
BLOCK_RECORD
  5
211
100
AcDbSymbolTableRecord
100
AcDbBlockTableRecord
  2
*Paper_Space
  0
BLOCK_RECORD
  5
212
100
AcDbSymbolTableRecord
100
AcDbBlockTableRecord
  2
_FILLED
  0
ENDTAB
  0
TABLE
  2
DIMSTYLE
  5
A
100
AcDbSymbolTable
 70
1
100
AcDbDimStyleTable
 71
0
  0
DIMSTYLE
105
213
100
AcDbSymbolTableRecord
100
AcDbDimStyleTableRecord
  2
STANDARD
 70
0
  3

  4

 40
1.0
 41
0.8928158415
 42
1.0
 43
0.38
 44
1.0
 45
0.0
 46
0.0
 47
0.01
 48
0.01
140
1.249942178
141
0.09
142
0.0
143
25.4
144
1.0
145
0.0
146
1.0
147
0.625
 71
1
 72
0
 73
0
 74
0
 75
0
 76
0
 77
1
 78
8
 79
2
170
0
171
1
172
0
173
0
174
0
175
0
176
0
177
0
178
0
270
2
179
2
271
2
272
2
273
2
274
2
275
0
280
0
281
0
282
0
283
1
284
8
285
0
286
0
287
3
288
0
340
11
278
46
341
212
342
212
343
212
344
212
  0
ENDTAB
  0
ENDSEC
  0
SECTION
  2
BLOCKS
  0
BLOCK
  5
20
100
AcDbEntity
  8
0
100
AcDbBlockBegin
  2
*Model_Space
 70
0
 10
0.0
 20
0.0
 30
0.0
  3
*Model_Space
  1

  0
ENDBLK
  5
21
100
AcDbEntity
  8
0
100
AcDbBlockEnd
  0
BLOCK
  5
1C
100
AcDbEntity
  8
0
100
AcDbBlockBegin
  2
*Paper_Space
 70
0
 10
0.0
 20
0.0
 30
0.0
  3
*Paper_Space
  1

  0
ENDBLK
  5
1D
100
AcDbEntity
  8
0
100
AcDbBlockEnd
  0
BLOCK
  5
214
100
AcDbEntity
  8
0
100
AcDbBlockBegin
  2
_FILLED
 70
64
 10
0.0
 20
0.0
  3
_FILLED
  1

  0
SOLID
  5
215
100
AcDbEntity
  8
0
  6
BYBLOCK
 62
0
100
AcDbTrace
 10
0.0
 20
0.0
 11
-1.0
 21
0.25
 12
-1.0
 22
-0.25
 13
-1.0
 23
-0.25
  0
ENDBLK
  5
216
100
AcDbEntity
  8
0
  6
BYBLOCK
 62
0
100
AcDbBlockEnd
  0
ENDSEC
  0
SECTION
  2
ENTITIES
  0
LINE
  5
217
100
AcDbEntity
  8
0
100
AcDbLine
 62
7
  6
CONTINUOUS
 10
26.2481495226
 20
13.8062965371
 11
9.9139148717
 21
23.2366579666
  0
LINE
  5
218
100
AcDbEntity
  8
0
100
AcDbLine
 62
7
  6
CONTINUOUS
 10
25.0346950656
 20
14.5975605824
 11
8.7004604147
 21
24.0279220118
  0
LINE
  5
219
100
AcDbEntity
  8
0
100
AcDbLine
 62
7
  6
CONTINUOUS
 10
8.7004604147
 20
67.233168824
 11
8.7004604147
 21
24.0279220118
  0
LINE
  5
21A
100
AcDbEntity
  8
0
100
AcDbLine
 62
7
  6
CONTINUOUS
 10
48.6217845748
 20
93.1740676014
 11
11.2053664875
 21
71.5718174946
  0
LWPOLYLINE
  5
21B
100
AcDbEntity
  8
0
100
AcDbPolyline
 62
7
  6
CONTINUOUS
 90
4
 70
0
 10
33.9890182268
 20
25.0054040829
 10
30.494325885
 20
27.6360858949
 10
28.2735386719
 20
31.9547601774
 10
27.5095584959
 20
37.6290385271
  0
LINE
  5
21C
100
AcDbEntity
  8
0
100
AcDbLine
 62
7
  6
CONTINUOUS
 10
25.0346950656
 20
57.8028073946
 11
25.0346950656
 21
14.5975605824
  0
LINE
  5
21D
100
AcDbEntity
  8
0
100
AcDbLine
 62
7
  6
CONTINUOUS
 10
64.9560192257
 20
83.7437061719
 11
27.5396011384
 21
62.1414560651
  0
LINE
  5
21E
100
AcDbEntity
  8
0
100
AcDbLine
 62
7
  6
CONTINUOUS
 10
32.8390365266
 20
37.676319203
 11
37.2844725577
 21
35.1098035761
  0
LINE
  5
21F
100
AcDbEntity
  8
0
100
AcDbLine
 62
7
  6
CONTINUOUS
 10
32.5817201719
 20
40.065872894
 11
39.9356613134
 21
35.820169047
  0
LINE
  5
220
100
AcDbEntity
  8
0
100
AcDbLine
 62
7
  6
CONTINUOUS
 10
8.7004604147
 20
67.233168824
 11
25.0346950656
 21
57.8028073946
  0
LINE
  5
221
100
AcDbEntity
  8
0
100
AcDbLine
 62
7
  6
CONTINUOUS
 10
27.5396011384
 20
62.1414560651
 11
11.2053664875
 21
71.5718174946
  0
LINE
  5
222
100
AcDbEntity
  8
0
100
AcDbLine
 62
7
  6
CONTINUOUS
 10
37.1530792583
 20
43.0163549169
 11
39.1059283589
 21
45.0990056931
  0
LWPOLYLINE
  5
223
100
AcDbEntity
  8
0
100
AcDbPolyline
 62
7
  6
CONTINUOUS
 90
3
 70
0
 10
36.7606344537
 20
42.7213681698
 10
37.8076079402
 20
43.7160559365
 10
38.9925506573
 20
45.1901441223
  0
LINE
  5
224
100
AcDbEntity
  8
0
100
AcDbLine
 62
7
  6
CONTINUOUS
 10
45.9628243294
 20
56.7122478764
 11
53.3167654709
 21
52.4665440293
  0
LINE
  5
225
100
AcDbEntity
  8
0
100
AcDbLine
 62
7
  6
CONTINUOUS
 10
46.3164869656
 20
58.3827863393
 11
50.488434344
 21
55.9741658876
  0
LINE
  5
226
100
AcDbEntity
  8
0
100
AcDbLine
 62
7
  6
CONTINUOUS
 10
46.6732082154
 20
60.1837494672
 11
54.027149357
 21
55.9380456202
  0
LWPOLYLINE
  5
227
100
AcDbEntity
  8
0
100
AcDbPolyline
 62
7
  6
CONTINUOUS
 90
9
 70
0
 10
64.9860618682
 20
59.2659786822
 10
64.2255781491
 20
52.725274435
 10
62.0122841032
 20
45.8526038581
 10
58.5171052423
 20
39.1771154179
 10
54.0330765057
 20
33.2609137131
 10
48.9153385586
 20
28.5706645625
 10
43.5832989707
 20
25.4917276851
 10
38.4704583166
 20
24.2717139489
 10
33.9890182268
 20
25.0054040829
  0
LINE
  5
228
100
AcDbEntity
  8
0
100
AcDbLine
 62
7
  6
CONTINUOUS
 10
67.4609252985
 20
39.0922098147
 11
67.4609252985
 21
82.2974566269
  0
LINE
  5
229
100
AcDbEntity
  8
0
100
AcDbLine
 62
7
  6
CONTINUOUS
 10
27.5396011384
 20
13.1513110374
 11
64.9560192257
 21
34.7535611442
  0
LINE
  5
22A
100
AcDbEntity
  8
0
100
AcDbLine
 62
7
  6
CONTINUOUS
 10
48.6217845748
 20
93.1740676014
 11
64.9560192257
 21
83.7437061719
  0
LINE
  5
22B
100
AcDbEntity
  8
0
100
AcDbLine
 62
7
  6
CONTINUOUS
 10
66.2474708415
 20
83.0887206722
 11
49.9132361906
 21
92.5190821016
  0
ARC
  5
22C
100
AcDbEntity
  8
0
100
AcDbCircle
 62
7
  6
CONTINUOUS
 10
69.8651801669
 20
34.8123218586
 40
69.2259652177
100
AcDbArc
 50
147.9264579844
 51
152.0738174605
  0
ARC
  5
22D
100
AcDbEntity
  8
0
100
AcDbCircle
 62
7
  6
CONTINUOUS
 10
6.2962376341
 20
71.5130382544
 40
69.2259281902
100
AcDbArc
 50
327.9264568748
 51
332.0738185701
  0
ARC
  5
22E
100
AcDbEntity
  8
0
100
AcDbCircle
 62
7
  6
CONTINUOUS
 10
86.19938273
 20
25.3819789549
 40
69.2259281902
100
AcDbArc
 50
147.9264568748
 51
152.0738185701
  0
ARC
  5
22F
100
AcDbEntity
  8
0
100
AcDbCircle
 62
7
  6
CONTINUOUS
 10
88.360338682
 20
51.6652203247
 40
42.5771201505
100
AcDbArc
 50
169.9937794521
 51
170.922280519
  0
ARC
  5
230
100
AcDbEntity
  8
0
100
AcDbCircle
 62
7
  6
CONTINUOUS
 10
9.3614832074
 20
70.5965953876
 40
38.8221315326
100
AcDbArc
 50
341.7550514395
 51
342.7175330245
  0
ARC
  5
231
100
AcDbEntity
  8
0
100
AcDbCircle
 62
7
  6
CONTINUOUS
 10
14.6626750465
 20
62.719381432
 40
29.8655572352
100
AcDbArc
 50
306.2931488992
 51
308.759252663
  0
ARC
  5
232
100
AcDbEntity
  8
0
100
AcDbCircle
 62
7
  6
CONTINUOUS
 10
15.6525899433
 20
61.9730185496
 40
28.7197688785
100
AcDbArc
 50
305.5398316237
 51
308.1964758718
  0
ARC
  5
233
100
AcDbEntity
  8
0
100
AcDbCircle
 62
7
  6
CONTINUOUS
 10
59.5486295193
 20
71.4895317518
 40
13.3946132681
100
AcDbArc
 50
53.7927838801
 51
59.9924189411
  0
ARC
  5
234
100
AcDbEntity
  8
0
100
AcDbCircle
 62
7
  6
CONTINUOUS
 10
32.9469908448
 20
25.4054854575
 40
13.3946132681
100
AcDbArc
 50
233.7927838801
 51
239.9924189411
  0
ARC
  5
235
100
AcDbEntity
  8
0
100
AcDbCircle
 62
7
  6
CONTINUOUS
 10
43.2177144411
 20
80.9180333608
 40
13.3945641705
100
AcDbArc
 50
60.0086938587
 51
66.2058121289
  0
ARC
  5
236
100
AcDbEntity
  8
0
100
AcDbCircle
 62
7
  6
CONTINUOUS
 10
16.5981055976
 20
34.8133792599
 40
13.3678303207
100
AcDbArc
 50
233.786567195
 51
239.9986356263
  0
ARC
  5
237
100
AcDbEntity
  8
0
100
AcDbCircle
 62
7
  6
CONTINUOUS
 10
32.9315487233
 20
25.3834429302
 40
13.367802714
100
AcDbArc
 50
240.0024846757
 51
246.2120213118
  0
ARC
  5
238
100
AcDbEntity
  8
0
100
AcDbCircle
 62
7
  6
CONTINUOUS
 10
59.5640716408
 20
71.5115742791
 40
13.3678027141
100
AcDbArc
 50
60.0024846757
 51
66.2120213118
  0
SPLINE
  5
239
100
AcDbEntity
  8
0
100
AcDbSpline
 62
7
  6
CONTINUOUS
 70
0
 71
3
 72
15
 73
11
 74
0
 42
0.0000001
 43
0.0000001
 44
0.0000000001
 40
0.0
 40
0.0
 40
0.0
 40
0.0
 40
0.0959977079
 40
0.1889198486
 40
0.2869992852
 40
0.3965533307
 40
0.5215470604
 40
0.6637626725
 40
0.8234697536
 40
1.0
 40
1.0
 40
1.0
 40
1.0
 10
53.928678186
 20
62.598568882
 30
0.0
 10
53.9632010342
 20
62.6184899664
 30
0.0
 10
54.0261119719
 20
62.6681267364
 30
0.0
 10
54.0895993178
 20
62.7717072172
 30
0.0
 10
54.1172855297
 20
62.8953363272
 30
0.0
 10
54.1106523196
 20
63.0345011543
 30
0.0
 10
54.0723763378
 20
63.186943703
 30
0.0
 10
54.0040541273
 20
63.3510384163
 30
0.0
 10
53.9070639157
 20
63.5247839115
 30
0.0
 10
53.8279953527
 20
63.6400712536
 30
0.0
 10
53.7843313319
 20
63.6989410392
 30
0.0
  0
SPLINE
  5
23A
100
AcDbEntity
  8
0
100
AcDbSpline
 62
7
  6
CONTINUOUS
 70
0
 71
3
 72
20
 73
16
 74
0
 42
0.0000001
 43
0.0000001
 44
0.0000000001
 40
0.0
 40
0.0
 40
0.0
 40
0.0
 40
0.042830492
 40
0.0874305808
 40
0.135231524
 40
0.1871635927
 40
0.2436324515
 40
0.3046134553
 40
0.3697388436
 40
0.4383737481
 40
0.582625055
 40
0.7296912724
 40
0.871189482
 40
0.937608848
 40
1.0
 40
1.0
 40
1.0
 40
1.0
 10
38.7429273162
 20
27.6049282848
 30
0.0
 10
38.675138519
 20
27.6440805813
 30
0.0
 10
38.5465995253
 20
27.7424164762
 30
0.0
 10
38.3919844365
 20
27.9380157252
 30
0.0
 10
38.2763634178
 20
28.177158052
 30
0.0
 10
38.2015608518
 20
28.4541048678
 30
0.0
 10
38.168234906
 20
28.7629606668
 30
0.0
 10
38.1767196211
 20
29.097393238
 30
0.0
 10
38.2267237085
 20
29.4505191696
 30
0.0
 10
38.3491664455
 20
29.9444063083
 30
0.0
 10
38.5972342931
 20
30.5578808683
 30
0.0
 10
39.013235567
 20
31.2345983401
 30
0.0
 10
39.4442505433
 20
31.7250828868
 30
0.0
 10
39.8228605259
 20
32.0436311791
 30
0.0
 10
40.0191389292
 20
32.1748624261
 30
0.0
 10
40.1178960712
 20
32.2318795483
 30
0.0
  0
SPLINE
  5
23B
100
AcDbEntity
  8
0
100
AcDbSpline
 62
7
  6
CONTINUOUS
 70
0
 71
3
 72
9
 73
5
 74
0
 42
0.0000001
 43
0.0000001
 44
0.0000000001
 40
0.0
 40
0.0
 40
0.0
 40
0.0
 40
0.2463266385
 40
1.0
 40
1.0
 40
1.0
 40
1.0
 10
46.4308636026
 20
59.0632119357
 30
0.0
 10
46.4908429245
 20
59.1300551608
 30
0.0
 10
46.7295277158
 20
59.4057026896
 30
0.0
 10
46.9492875003
 20
59.6976626143
 30
0.0
 10
47.103763947
 20
59.9249118507
 30
0.0
  0
SPLINE
  5
23C
100
AcDbEntity
  8
0
100
AcDbSpline
 62
7
  6
CONTINUOUS
 70
0
 71
3
 72
20
 73
16
 74
0
 42
0.0000001
 43
0.0000001
 44
0.0000000001
 40
0.0
 40
0.0
 40
0.0
 40
0.0
 40
0.042830492
 40
0.0874305808
 40
0.135231524
 40
0.1871635927
 40
0.2436324515
 40
0.3046134553
 40
0.3697388436
 40
0.4383737481
 40
0.582625055
 40
0.7296912724
 40
0.871189482
 40
0.937608848
 40
1.0
 40
1.0
 40
1.0
 40
1.0
 10
57.7954068759
 20
51.306613539
 30
0.0
 10
57.7276180788
 20
51.3457658356
 30
0.0
 10
57.599079085
 20
51.4441017304
 30
0.0
 10
57.4444639962
 20
51.6397009794
 30
0.0
 10
57.3288429776
 20
51.8788433062
 30
0.0
 10
57.2540404115
 20
52.155790122
 30
0.0
 10
57.2207144658
 20
52.464645921
 30
0.0
 10
57.2291991809
 20
52.7990784922
 30
0.0
 10
57.2792032683
 20
53.1522044238
 30
0.0
 10
57.4016460052
 20
53.6460915626
 30
0.0
 10
57.6497138528
 20
54.2595661225
 30
0.0
 10
58.0657151268
 20
54.9362835944
 30
0.0
 10
58.496730103
 20
55.426768141
 30
0.0
 10
58.8753400857
 20
55.7453164333
 30
0.0
 10
59.0716184889
 20
55.8765476804
 30
0.0
 10
59.1703756309
 20
55.9335648025
 30
0.0
  0
SPLINE
  5
23D
100
AcDbEntity
  8
0
100
AcDbSpline
 62
7
  6
CONTINUOUS
 70
0
 71
3
 72
17
 73
13
 74
0
 42
0.0000001
 43
0.0000001
 44
0.0000000001
 40
0.0
 40
0.0
 40
0.0
 40
0.0
 40
0.0441710278
 40
0.0893359865
 40
0.1857381325
 40
0.238466936
 40
0.2945582666
 40
0.4169181566
 40
0.5519656367
 40
0.6968811601
 40
0.8477292486
 40
1.0
 40
1.0
 40
1.0
 40
1.0
 10
46.7954526734
 20
66.9559821811
 30
0.0
 10
46.746044768
 20
66.9845183559
 30
0.0
 10
46.6513146615
 20
67.0518095454
 30
0.0
 10
46.4835626767
 20
67.2248841977
 30
0.0
 10
46.3594907584
 20
67.448630276
 30
0.0
 10
46.2800664466
 20
67.7019077432
 30
0.0
 10
46.2255808276
 20
67.9962448282
 30
0.0
 10
46.2183060212
 20
68.4039145051
 30
0.0
 10
46.2972854289
 20
68.9195188245
 30
0.0
 10
46.460020478
 20
69.4535185773
 30
0.0
 10
46.6991208788
 20
69.9821133362
 30
0.0
 10
46.9036545955
 20
70.3173833326
 30
0.0
 10
47.0164480144
 20
70.4785200712
 30
0.0
  0
SPLINE
  5
23E
100
AcDbEntity
  8
0
100
AcDbSpline
 62
7
  6
CONTINUOUS
 70
0
 71
3
 72
9
 73
5
 74
0
 42
0.0000001
 43
0.0000001
 44
0.0000000001
 40
0.0
 40
0.0
 40
0.0
 40
0.0
 40
0.4754098775
 40
1.0
 40
1.0
 40
1.0
 40
1.0
 10
48.981491002
 20
54.9678625366
 30
0.0
 10
49.2474546033
 20
55.0789733952
 30
0.0
 10
49.7810287942
 20
55.3760338665
 30
0.0
 10
50.2551164618
 20
55.7580096152
 30
0.0
 10
50.488434344
 20
55.9741658876
 30
0.0
  0
SPLINE
  5
23F
100
AcDbEntity
  8
0
100
AcDbSpline
 62
7
  6
CONTINUOUS
 70
0
 71
3
 72
11
 73
7
 74
0
 42
0.0000001
 43
0.0000001
 44
0.0000000001
 40
0.0
 40
0.0
 40
0.0
 40
0.0
 40
0.2497808281
 40
0.5022303209
 40
0.7535339618
 40
1.0
 40
1.0
 40
1.0
 40
1.0
 10
39.0149762015
 20
45.1588042811
 30
0.0
 10
39.804082122
 20
46.1471734634
 30
0.0
 10
41.3006433124
 20
48.2080428076
 30
0.0
 10
43.2679908305
 20
51.4824895288
 30
0.0
 10
44.9379317263
 20
54.8995243656
 30
0.0
 10
45.8412077651
 20
57.2569385611
 30
0.0
 10
46.2318993312
 20
58.4421595065
 30
0.0
  0
SPLINE
  5
240
100
AcDbEntity
  8
0
100
AcDbSpline
 62
7
  6
CONTINUOUS
 70
0
 71
3
 72
11
 73
7
 74
0
 42
0.0000001
 43
0.0000001
 44
0.0000000001
 40
0.0
 40
0.0
 40
0.0
 40
0.0
 40
0.2340538342
 40
0.4796903856
 40
0.7355210361
 40
1.0
 40
1.0
 40
1.0
 40
1.0
 10
27.5095584959
 20
37.6290385271
 30
0.0
 10
27.5095584959
 20
38.4380385207
 30
0.0
 10
27.5899066296
 20
40.0967838134
 30
0.0
 10
27.9282442141
 20
42.6191193408
 30
0.0
 10
28.48359537
 20
45.2101644357
 30
0.0
 10
28.9868493905
 20
46.9385408991
 30
0.0
 10
29.2718091649
 20
47.8071564026
 30
0.0
  0
SPLINE
  5
241
100
AcDbEntity
  8
0
100
AcDbSpline
 62
7
  6
CONTINUOUS
 70
0
 71
3
 72
15
 73
11
 74
0
 42
0.0000001
 43
0.0000001
 44
0.0000000001
 40
0.0
 40
0.0
 40
0.0
 40
0.0
 40
0.1279900806
 40
0.2585011413
 40
0.3898136739
 40
0.5201758396
 40
0.6478744592
 40
0.7713072508
 40
0.8890618561
 40
1.0
 40
1.0
 40
1.0
 40
1.0
 10
29.2718091649
 20
47.8071564026
 30
0.0
 10
29.6517939602
 20
48.9654275486
 30
0.0
 10
30.5244869017
 20
51.2714588736
 30
0.0
 10
32.1259454702
 20
54.62536971
 30
0.0
 10
34.0068401279
 20
57.8573670244
 30
0.0
 10
36.1298576177
 20
60.9031651353
 30
0.0
 10
38.4530392864
 20
63.7026378061
 30
0.0
 10
40.9307948992
 20
66.2006555409
 30
0.0
 10
43.5140042157
 20
68.34769983
 30
0.0
 10
45.3327652572
 20
69.5565243784
 30
0.0
 10
46.2478101821
 20
70.0848226586
 30
0.0
  0
SPLINE
  5
242
100
AcDbEntity
  8
0
100
AcDbSpline
 62
7
  6
CONTINUOUS
 70
0
 71
3
 72
15
 73
11
 74
0
 42
0.0000001
 43
0.0000001
 44
0.0000000001
 40
0.0
 40
0.0
 40
0.0
 40
0.0
 40
0.1479731754
 40
0.2883850209
 40
0.421282168
 40
0.5471022432
 40
0.6665860358
 40
0.780857129
 40
0.8914021995
 40
1.0
 40
1.0
 40
1.0
 40
1.0
 10
46.2598665186
 20
70.08756721
 30
0.0
 10
46.8315311678
 20
70.4044572083
 30
0.0
 10
47.9717826998
 20
70.9766949023
 30
0.0
 10
49.7081472723
 20
71.6539218279
 30
0.0
 10
51.4116979052
 20
72.121588074
 30
0.0
 10
53.0672015498
 20
72.3748186405
 30
0.0
 10
54.6600037386
 20
72.4102245596
 30
0.0
 10
56.1754271002
 20
72.2260883993
 30
0.0
 10
57.5981360137
 20
71.8229227735
 30
0.0
 10
58.4785921189
 20
71.4082357721
 30
0.0
 10
58.894021086
 20
71.1683931617
 30
0.0
  0
SPLINE
  5
243
100
AcDbEntity
  8
0
100
AcDbSpline
 62
7
  6
CONTINUOUS
 70
0
 71
3
 72
26
 73
22
 74
0
 42
0.0000001
 43
0.0000001
 44
0.0000000001
 40
0.0
 40
0.0
 40
0.0
 40
0.0
 40
0.0213314445
 40
0.042891117
 40
0.064895858
 40
0.0875397063
 40
0.1353131587
 40
0.1607353094
 40
0.1872598776
 40
0.2436950911
 40
0.3046401092
 40
0.3697246211
 40
0.4383183704
 40
0.5096011539
 40
0.5826216707
 40
0.6563498091
 40
0.7297229713
 40
0.8016950183
 40
0.8712830557
 40
0.9376205271
 40
1.0
 40
1.0
 40
1.0
 40
1.0
 10
35.3943112518
 20
34.5065015691
 30
0.0
 10
35.179304879
 20
34.6306319039
 30
0.0
 10
34.7625468465
 20
34.9083063969
 30
0.0
 10
34.1904696167
 20
35.4042907931
 30
0.0
 10
33.6732243845
 20
35.9780479959
 30
0.0
 10
33.0494986765
 20
36.8568523505
 30
0.0
 10
32.5600073533
 20
37.8693459277
 30
0.0
 10
32.2022362274
 20
38.9743468225
 30
0.0
 10
31.9173570043
 20
40.2046804445
 30
0.0
 10
31.7370729157
 20
41.8763358032
 30
0.0
 10
31.7912665102
 20
44.0043636561
 30
0.0
 10
32.1093473809
 20
46.2515794951
 30
0.0
 10
32.6842219047
 20
48.5705855023
 30
0.0
 10
33.5035670913
 20
50.9125829733
 30
0.0
 10
34.5499307062
 20
53.2278156507
 30
0.0
 10
35.801014446
 20
55.4669520671
 30
0.0
 10
37.2301129336
 20
57.5822388769
 30
0.0
 10
38.8067586037
 20
59.5285171379
 30
0.0
 10
40.4975479364
 20
61.2645382345
 30
0.0
 10
42.2663693039
 20
62.7530918899
 30
0.0
 10
43.5154200094
 20
63.5878168349
 30
0.0
 10
44.1441587497
 20
63.9508171491
 30
0.0
  0
SPLINE
  5
244
100
AcDbEntity
  8
0
100
AcDbSpline
 62
7
  6
CONTINUOUS
 70
0
 71
3
 72
15
 73
11
 74
0
 42
0.0000001
 43
0.0000001
 44
0.0000000001
 40
0.0
 40
0.0
 40
0.0
 40
0.0
 40
0.1485718466
 40
0.2895069744
 40
0.4227231083
 40
0.5486371305
 40
0.6679985876
 40
0.7819353163
 40
0.8919844543
 40
1.0
 40
1.0
 40
1.0
 40
1.0
 10
44.1441587497
 20
63.9508171491
 30
0.0
 10
44.5388061986
 20
64.1786655999
 30
0.0
 10
45.3267336349
 20
64.5911039552
 30
0.0
 10
46.5285528827
 20
65.0830670365
 30
0.0
 10
47.7090238383
 20
65.4272109668
 30
0.0
 10
48.8568828463
 20
65.6197055603
 30
0.0
 10
49.9614950554
 20
65.6582117713
 30
0.0
 10
51.0122411144
 20
65.5410021984
 30
0.0
 10
51.9978928655
 20
65.2684174131
 30
0.0
 10
52.6070857408
 20
64.9831968873
 30
0.0
 10
52.8940062476
 20
64.8175481296
 30
0.0
  0
SPLINE
  5
245
100
AcDbEntity
  8
0
100
AcDbSpline
 62
7
  6
CONTINUOUS
 70
0
 71
3
 72
13
 73
9
 74
0
 42
0.0000001
 43
0.0000001
 44
0.0000000001
 40
0.0
 40
0.0
 40
0.0
 40
0.0
 40
0.289347215
 40
0.5483228082
 40
0.667748616
 40
0.7817630569
 40
0.8919047309
 40
1.0
 40
1.0
 40
1.0
 40
1.0
 10
59.1703756309
 20
55.9335648025
 30
0.0
 10
59.291059133
 20
56.003241039
 30
0.0
 10
59.5309549316
 20
56.1174677592
 30
0.0
 10
59.8468015408
 20
56.1935858885
 30
0.0
 10
60.084538326
 20
56.2018757002
 30
0.0
 10
60.2496359775
 20
56.1833964199
 30
0.0
 10
60.4045299855
 20
56.1406153442
 30
0.0
 10
60.5002632717
 20
56.0957899524
 30
0.0
 10
60.5453443858
 20
56.0697527719
 30
0.0
  0
SPLINE
  5
246
100
AcDbEntity
  8
0
100
AcDbSpline
 62
7
  6
CONTINUOUS
 70
0
 71
3
 72
13
 73
9
 74
0
 42
0.0000001
 43
0.0000001
 44
0.0000000001
 40
0.0
 40
0.0
 40
0.0
 40
0.0
 40
0.289347215
 40
0.5483228082
 40
0.667748616
 40
0.7817630569
 40
0.8919047309
 40
1.0
 40
1.0
 40
1.0
 40
1.0
 10
40.1178960712
 20
32.2318795483
 30
0.0
 10
40.2385795732
 20
32.3015557848
 30
0.0
 10
40.4784753719
 20
32.415782505
 30
0.0
 10
40.794321981
 20
32.4919006342
 30
0.0
 10
41.0320587663
 20
32.500190446
 30
0.0
 10
41.1971564177
 20
32.4817111657
 30
0.0
 10
41.3520504257
 20
32.4389300899
 30
0.0
 10
41.447783712
 20
32.3941046981
 30
0.0
 10
41.4928648261
 20
32.3680675176
 30
0.0
  0
SPLINE
  5
247
100
AcDbEntity
  8
0
100
AcDbSpline
 62
7
  6
CONTINUOUS
 70
0
 71
3
 72
11
 73
7
 74
0
 42
0.0000001
 43
0.0000001
 44
0.0000000001
 40
0.0
 40
0.0
 40
0.0
 40
0.0
 40
0.2824283695
 40
0.5391098217
 40
0.7753267118
 40
1.0
 40
1.0
 40
1.0
 40
1.0
 10
29.3569746418
 20
48.0021771344
 30
0.0
 10
29.4585480755
 20
48.0462884182
 30
0.0
 10
29.6595172719
 20
48.1158321664
 30
0.0
 10
29.9629991769
 20
48.1575674937
 30
0.0
 10
30.2458935772
 20
48.1290561426
 30
0.0
 10
30.4166269583
 20
48.0614947772
 30
0.0
 10
30.4929106236
 20
48.0174361597
 30
0.0
  0
SPLINE
  5
248
100
AcDbEntity
  8
0
100
AcDbSpline
 62
7
  6
CONTINUOUS
 70
0
 71
3
 72
15
 73
11
 74
0
 42
0.0000001
 43
0.0000001
 44
0.0000000001
 40
0.0
 40
0.0
 40
0.0
 40
0.0
 40
0.1085970209
 40
0.2191414293
 40
0.3334120735
 40
0.4528956924
 40
0.5787158952
 40
0.7116134576
 40
0.852025967
 40
1.0
 40
1.0
 40
1.0
 40
1.0
 10
32.894489553
 20
26.1348648021
 30
0.0
 10
32.4790462269
 20
26.3747157024
 30
0.0
 10
31.6796510008
 20
26.9298759049
 30
0.0
 10
30.6190948868
 20
27.960420814
 30
0.0
 10
29.7018735999
 20
29.1807885159
 30
0.0
 10
28.9360998295
 20
30.5779529873
 30
0.0
 10
28.3276255547
 20
32.1383430764
 30
0.0
 10
27.8808434659
 20
33.8475715556
 30
0.0
 10
27.5991486139
 20
35.6900070137
 30
0.0
 10
27.5245960666
 20
36.9636728243
 30
0.0
 10
27.513200407
 20
37.6172250425
 30
0.0
  0
SPLINE
  5
249
100
AcDbEntity
  8
0
100
AcDbSpline
 62
7
  6
CONTINUOUS
 70
0
 71
3
 72
11
 73
7
 74
0
 42
0.0000001
 43
0.0000001
 44
0.0000000001
 40
0.0
 40
0.0
 40
0.0
 40
0.0
 40
0.2420223832
 40
0.4939031425
 40
0.7488888189
 40
1.0
 40
1.0
 40
1.0
 40
1.0
 10
46.3715148602
 20
68.8608461384
 30
0.0
 10
46.501582654
 20
68.9804278083
 30
0.0
 10
46.7499906994
 20
69.243443748
 30
0.0
 10
47.0745478152
 20
69.6849121521
 30
0.0
 10
47.3487911757
 20
70.1669020565
 30
0.0
 10
47.4931203064
 20
70.50816829
 30
0.0
 10
47.5537155444
 20
70.6811835994
 30
0.0
  0
SPLINE
  5
24A
100
AcDbEntity
  8
0
100
AcDbSpline
 62
7
  6
CONTINUOUS
 70
0
 71
3
 72
10
 73
6
 74
0
 42
0.0000001
 43
0.0000001
 44
0.0000000001
 40
0.0
 40
0.0
 40
0.0
 40
0.0
 40
0.2658365792
 40
0.5215841614
 40
1.0
 40
1.0
 40
1.0
 40
1.0
 10
46.6732082154
 20
60.1837494672
 30
0.0
 10
46.7245290899
 20
60.6037219725
 30
0.0
 10
46.7994860831
 20
61.4313139108
 30
0.0
 10
46.8346140636
 20
63.0229913167
 30
0.0
 10
46.7330613734
 20
64.193867888
 30
0.0
 10
46.5973191836
 20
64.9431012831
 30
0.0
  0
SPLINE
  5
24B
100
AcDbEntity
  8
0
100
AcDbSpline
 62
7
  6
CONTINUOUS
 70
0
 71
3
 72
9
 73
5
 74
0
 42
0.0000001
 43
0.0000001
 44
0.0000000001
 40
0.0
 40
0.0
 40
0.0
 40
0.0
 40
0.5096197801
 40
1.0
 40
1.0
 40
1.0
 40
1.0
 10
53.3167654709
 20
52.4665440293
 30
0.0
 10
53.4810042048
 20
53.0461046976
 30
0.0
 10
53.7633236733
 20
54.1951348938
 30
0.0
 10
53.9568399114
 20
55.3626845355
 30
0.0
 10
54.027149357
 20
55.9380456202
 30
0.0
  0
SPLINE
  5
24C
100
AcDbEntity
  8
0
100
AcDbSpline
 62
7
  6
CONTINUOUS
 70
0
 71
3
 72
10
 73
6
 74
0
 42
0.0000001
 43
0.0000001
 44
0.0000000001
 40
0.0
 40
0.0
 40
0.0
 40
0.0
 40
0.2193902008
 40
0.460660873
 40
1.0
 40
1.0
 40
1.0
 40
1.0
 10
53.7843313319
 20
63.6989410392
 30
0.0
 10
53.7231519864
 20
63.7814257692
 30
0.0
 10
53.5858871401
 20
63.9481506221
 30
0.0
 10
53.26217242
 20
64.2866361988
 30
0.0
 10
52.9856732317
 20
64.5268836768
 30
0.0
 10
52.788901103
 20
64.6850591972
 30
0.0
  0
SPLINE
  5
24D
100
AcDbEntity
  8
0
100
AcDbSpline
 62
7
  6
CONTINUOUS
 70
0
 71
3
 72
9
 73
5
 74
0
 42
0.0000001
 43
0.0000001
 44
0.0000000001
 40
0.0
 40
0.0
 40
0.0
 40
0.0
 40
0.2423797018
 40
1.0
 40
1.0
 40
1.0
 40
1.0
 10
52.788901103
 20
64.6850591972
 30
0.0
 10
52.7452044212
 20
64.7201848292
 30
0.0
 10
52.5636300114
 20
64.863496063
 30
0.0
 10
52.3772887625
 20
65.0007127169
 30
0.0
 10
52.2342767872
 20
65.1019939025
 30
0.0
  0
SPLINE
  5
24E
100
AcDbEntity
  8
0
100
AcDbSpline
 62
7
  6
CONTINUOUS
 70
0
 71
3
 72
11
 73
7
 74
0
 42
0.0000001
 43
0.0000001
 44
0.0000000001
 40
0.0
 40
0.0
 40
0.0
 40
0.0
 40
0.2448143663
 40
0.4999534335
 40
0.7551010209
 40
1.0
 40
1.0
 40
1.0
 40
1.0
 10
57.3714690627
 20
53.2114774963
 30
0.0
 10
57.5311052802
 20
53.3582437704
 30
0.0
 10
57.8315501316
 20
53.6865267743
 30
0.0
 10
58.2073051989
 20
54.2424428498
 30
0.0
 10
58.5012693654
 20
54.8456991874
 30
0.0
 10
58.6356546122
 20
55.2700235567
 30
0.0
 10
58.6830941526
 20
55.4816979806
 30
0.0
  0
SPLINE
  5
24F
100
AcDbEntity
  8
0
100
AcDbSpline
 62
7
  6
CONTINUOUS
 70
0
 71
3
 72
13
 73
9
 74
0
 42
0.0000001
 43
0.0000001
 44
0.0000000001
 40
0.0
 40
0.0
 40
0.0
 40
0.0
 40
0.2936467972
 40
0.5553636316
 40
0.6749076595
 40
0.7878263385
 40
0.8955474997
 40
1.0
 40
1.0
 40
1.0
 40
1.0
 10
33.923033282
 20
37.1288351074
 30
0.0
 10
33.9515682981
 20
37.4195150373
 30
0.0
 10
33.9632076872
 20
37.9749261929
 30
0.0
 10
33.841860298
 20
38.6418687383
 30
0.0
 10
33.6594296154
 20
39.0998989344
 30
0.0
 10
33.4889871287
 20
39.3938069836
 30
0.0
 10
33.2824721178
 20
39.6445578243
 30
0.0
 10
33.1205422571
 20
39.7820482572
 30
0.0
 10
33.0354062091
 20
39.8415953111
 30
0.0
  0
SPLINE
  5
250
100
AcDbEntity
  8
0
100
AcDbSpline
 62
7
  6
CONTINUOUS
 70
0
 71
3
 72
15
 73
11
 74
0
 42
0.0000001
 43
0.0000001
 44
0.0000000001
 40
0.0
 40
0.0
 40
0.0
 40
0.0
 40
0.1111286693
 40
0.22939806
 40
0.3535092493
 40
0.4818502661
 40
0.6126022386
 40
0.7438347572
 40
0.8735957591
 40
1.0
 40
1.0
 40
1.0
 40
1.0
 10
34.4390777721
 20
40.9763369054
 30
0.0
 10
35.0787151105
 20
41.3456294905
 30
0.0
 10
36.3490824474
 20
42.1966426706
 30
0.0
 10
38.1456860139
 20
43.7169484677
 30
0.0
 10
39.8603874253
 20
45.4917116779
 30
0.0
 10
41.4552881681
 20
47.4817396285
 30
0.0
 10
42.8954963968
 20
49.643337063
 30
0.0
 10
44.1492743874
 20
51.9289429618
 30
0.0
 10
45.1888995082
 20
54.2878712203
 30
0.0
 10
45.7337686055
 20
55.9039629778
 30
0.0
 10
45.9628243294
 20
56.7122478764
 30
0.0
  0
SPLINE
  5
251
100
AcDbEntity
  8
0
100
AcDbSpline
 62
7
  6
CONTINUOUS
 70
0
 71
3
 72
9
 73
5
 74
0
 42
0.0000001
 43
0.0000001
 44
0.0000000001
 40
0.0
 40
0.0
 40
0.0
 40
0.0
 40
0.2425137383
 40
1.0
 40
1.0
 40
1.0
 40
1.0
 10
32.5817201719
 20
40.065872894
 30
0.0
 10
32.736938786
 20
40.1282771183
 30
0.0
 10
33.3719725841
 20
40.3979792147
 30
0.0
 10
33.9865464069
 20
40.7150693594
 30
0.0
 10
34.4390777721
 20
40.9763369054
 30
0.0
  0
SPLINE
  5
252
100
AcDbEntity
  8
0
100
AcDbSpline
 62
7
  6
CONTINUOUS
 70
0
 71
3
 72
9
 73
5
 74
0
 42
0.0000001
 43
0.0000001
 44
0.0000000001
 40
0.0
 40
0.0
 40
0.0
 40
0.0
 40
0.2384051756
 40
1.0
 40
1.0
 40
1.0
 40
1.0
 10
37.2844725577
 20
35.1098035761
 30
0.0
 10
37.5012360057
 20
35.1370241013
 30
0.0
 10
38.4061825047
 20
35.2848251193
 30
0.0
 10
39.2881359676
 20
35.5598374034
 30
0.0
 10
39.9356613134
 20
35.820169047
 30
0.0
  0
SPLINE
  5
253
100
AcDbEntity
  8
0
100
AcDbSpline
 62
7
  6
CONTINUOUS
 70
0
 71
3
 72
11
 73
7
 74
0
 42
0.0000001
 43
0.0000001
 44
0.0000000001
 40
0.0
 40
0.0
 40
0.0
 40
0.0
 40
0.2448143663
 40
0.4999534335
 40
0.7551010209
 40
1.0
 40
1.0
 40
1.0
 40
1.0
 10
38.318989503
 20
29.5097922421
 30
0.0
 10
38.4786257205
 20
29.6565585162
 30
0.0
 10
38.7790705719
 20
29.9848415201
 30
0.0
 10
39.1548256392
 20
30.5407575956
 30
0.0
 10
39.4487898056
 20
31.1440139331
 30
0.0
 10
39.5831750524
 20
31.5683383025
 30
0.0
 10
39.6306145929
 20
31.7800127263
 30
0.0
  0
SPLINE
  5
254
100
AcDbEntity
  8
0
100
AcDbSpline
 62
7
  6
CONTINUOUS
 70
0
 71
3
 72
15
 73
11
 74
0
 42
0.0000001
 43
0.0000001
 44
0.0000000001
 40
0.0
 40
0.0
 40
0.0
 40
0.0
 40
0.1080123313
 40
0.218061245
 40
0.3319987442
 40
0.4513580083
 40
0.5772773594
 40
0.7104921563
 40
0.8514147805
 40
1.0
 40
1.0
 40
1.0
 40
1.0
 10
58.894021086
 20
71.1683931617
 30
0.0
 10
59.3203068709
 20
70.9222825063
 30
0.0
 10
60.1399130173
 20
70.3504026914
 30
0.0
 10
61.2228577594
 20
69.2846253623
 30
0.0
 10
62.1542163317
 20
68.0196723873
 30
0.0
 10
62.9253888079
 20
66.5697814647
 30
0.0
 10
63.5303469088
 20
64.9497617859
 30
0.0
 10
63.9644900719
 20
63.1752152859
 30
0.0
 10
64.2243508102
 20
61.2633467718
 30
0.0
 10
64.278955087
 20
59.9431038367
 30
0.0
 10
64.278955087
 20
59.2659769826
 30
0.0
  0
SPLINE
  5
255
100
AcDbEntity
  8
0
100
AcDbSpline
 62
7
  6
CONTINUOUS
 70
0
 71
3
 72
15
 73
11
 74
0
 42
0.0000001
 43
0.0000001
 44
0.0000000001
 40
0.0
 40
0.0
 40
0.0
 40
0.0
 40
0.1077235921
 40
0.2181372545
 40
0.3327449896
 40
0.45276267
 40
0.5790697898
 40
0.7122369308
 40
0.8525765181
 40
1.0
 40
1.0
 40
1.0
 40
1.0
 10
31.8167654957
 20
26.7952868017
 30
0.0
 10
32.2370512227
 20
26.5992911715
 30
0.0
 10
33.1214208893
 20
26.2701859709
 30
0.0
 10
34.5295368526
 20
25.9811439283
 30
0.0
 10
36.0171713237
 20
25.8942306266
 30
0.0
 10
37.5707769607
 20
26.0091881651
 30
0.0
 10
39.1774403281
 20
26.3237629714
 30
0.0
 10
40.8241213042
 20
26.8348143782
 30
0.0
 10
42.4970339143
 20
27.5375264423
 30
0.0
 10
43.5945403508
 20
28.1156415675
 30
0.0
 10
44.1441587497
 20
28.432962004
 30
0.0
  0
SPLINE
  5
256
100
AcDbEntity
  8
0
100
AcDbSpline
 62
7
  6
CONTINUOUS
 70
0
 71
3
 72
9
 73
5
 74
0
 42
0.0000001
 43
0.0000001
 44
0.0000000001
 40
0.0
 40
0.0
 40
0.0
 40
0.0
 40
0.5120185946
 40
1.0
 40
1.0
 40
1.0
 40
1.0
 10
46.2478101821
 20
70.0848226586
 30
0.0
 10
46.7961189101
 20
70.4013869607
 30
0.0
 10
47.890991259
 20
70.9792585206
 30
0.0
 10
49.0314136893
 20
71.4621842265
 30
0.0
 10
49.5977832023
 20
71.6703365406
 30
0.0
  0
SPLINE
  5
257
100
AcDbEntity
  8
0
100
AcDbSpline
 62
7
  6
CONTINUOUS
 70
0
 71
3
 72
23
 73
19
 74
0
 42
0.0000001
 43
0.0000001
 44
0.0000000001
 40
0.0
 40
0.0
 40
0.0
 40
0.0
 40
0.0689150271
 40
0.1344620351
 40
0.1968893633
 40
0.2565743345
 40
0.3140449124
 40
0.3699608321
 40
0.4250844517
 40
0.4802361122
 40
0.5362340918
 40
0.5938350987
 40
0.6536904619
 40
0.7163186683
 40
0.782086953
 40
0.851236031
 40
0.9238934622
 40
1.0
 40
1.0
 40
1.0
 40
1.0
 10
49.5977832023
 20
71.6703365406
 30
0.0
 10
50.1187725719
 20
71.861810729
 30
0.0
 10
51.1527134771
 20
72.1905132335
 30
0.0
 10
52.7074635957
 20
72.5169693324
 30
0.0
 10
54.2154622395
 20
72.6616966248
 30
0.0
 10
55.6652980873
 20
72.6224672468
 30
0.0
 10
57.0457218773
 20
72.3988412806
 30
0.0
 10
58.3455497322
 20
71.9917202345
 30
0.0
 10
59.5536826813
 20
71.4036864365
 30
0.0
 10
60.6597984823
 20
70.6397311854
 30
0.0
 10
61.6545224519
 20
69.706432942
 30
0.0
 10
62.5301377899
 20
68.6121666761
 30
0.0
 10
63.2804074144
 20
67.3662498485
 30
0.0
 10
63.9001324665
 20
65.9787145284
 30
0.0
 10
64.3856295483
 20
64.4604397739
 30
0.0
 10
64.7336790182
 20
62.8226047782
 30
0.0
 10
64.9419643728
 20
61.0777747657
 30
0.0
 10
64.9860618682
 20
59.8789617072
 30
0.0
 10
64.9860618682
 20
59.2659786822
 30
0.0
  0
SPLINE
  5
258
100
AcDbEntity
  8
0
100
AcDbSpline
 62
7
  6
CONTINUOUS
 70
0
 71
3
 72
20
 73
16
 74
0
 42
0.0000001
 43
0.0000001
 44
0.0000000001
 40
0.0
 40
0.0
 40
0.0
 40
0.0
 40
0.042830492
 40
0.0874305808
 40
0.135231524
 40
0.1871635927
 40
0.2436324515
 40
0.3046134553
 40
0.3697388436
 40
0.4383737481
 40
0.582625055
 40
0.7296912724
 40
0.871189482
 40
0.937608848
 40
1.0
 40
1.0
 40
1.0
 40
1.0
 10
41.4928648261
 20
32.3680675176
 30
0.0
 10
41.5606536233
 20
32.3289152211
 30
0.0
 10
41.689192617
 20
32.2305793262
 30
0.0
 10
41.8438077059
 20
32.0349800772
 30
0.0
 10
41.9594287245
 20
31.7958377504
 30
0.0
 10
42.0342312905
 20
31.5188909346
 30
0.0
 10
42.0675572363
 20
31.2100351356
 30
0.0
 10
42.0590725212
 20
30.8756025645
 30
0.0
 10
42.0090684338
 20
30.5224766329
 30
0.0
 10
41.8866256968
 20
30.0285894941
 30
0.0
 10
41.6385578492
 20
29.4151149341
 30
0.0
 10
41.2225565753
 20
28.7383974623
 30
0.0
 10
40.791541599
 20
28.2479129156
 30
0.0
 10
40.4129316164
 20
27.9293646233
 30
0.0
 10
40.2166532132
 20
27.7981333763
 30
0.0
 10
40.1178960712
 20
27.7411162541
 30
0.0
  0
SPLINE
  5
259
100
AcDbEntity
  8
0
100
AcDbSpline
 62
7
  6
CONTINUOUS
 70
0
 71
3
 72
15
 73
11
 74
0
 42
0.0000001
 43
0.0000001
 44
0.0000000001
 40
0.0
 40
0.0
 40
0.0
 40
0.0
 40
0.1485844099
 40
0.2895063998
 40
0.4227207936
 40
0.548640014
 40
0.6679994381
 40
0.7819373651
 40
0.8919869157
 40
1.0
 40
1.0
 40
1.0
 40
1.0
 10
45.8942553195
 20
27.4225661365
 30
0.0
 10
45.3078718651
 20
27.0840195122
 30
0.0
 10
44.1372567285
 20
26.4712168536
 30
0.0
 10
42.3516772643
 20
25.7403636259
 30
0.0
 10
40.5978779254
 20
25.2290920539
 30
0.0
 10
38.8924905324
 20
24.9430010713
 30
0.0
 10
37.2513254179
 20
24.8859069556
 30
0.0
 10
35.6902202379
 20
25.0599934772
 30
0.0
 10
34.2258035319
 20
25.4649318674
 30
0.0
 10
33.3207613841
 20
25.8887622027
 30
0.0
 10
32.894489553
 20
26.1348648021
 30
0.0
  0
SPLINE
  5
25A
100
AcDbEntity
  8
0
100
AcDbSpline
 62
7
  6
CONTINUOUS
 70
0
 71
3
 72
11
 73
7
 74
0
 42
0.0000001
 43
0.0000001
 44
0.0000000001
 40
0.0
 40
0.0
 40
0.0
 40
0.0
 40
0.2497741147
 40
0.5023208607
 40
0.753693331
 40
1.0
 40
1.0
 40
1.0
 40
1.0
 10
39.1059283589
 20
45.0990056931
 30
0.0
 10
39.8983123612
 20
46.0847480562
 30
0.0
 10
41.3999961878
 20
48.142751847
 30
0.0
 10
43.3695153791
 20
51.4171735389
 30
0.0
 10
45.0352680731
 20
54.8366091358
 30
0.0
 10
45.931143119
 20
57.1966297056
 30
0.0
 10
46.3164869656
 20
58.3827863393
 30
0.0
  0
SPLINE
  5
25B
100
AcDbEntity
  8
0
100
AcDbSpline
 62
7
  6
CONTINUOUS
 70
0
 71
3
 72
23
 73
19
 74
0
 42
0.0000001
 43
0.0000001
 44
0.0000000001
 40
0.0
 40
0.0
 40
0.0
 40
0.0
 40
0.0558317564
 40
0.1141830298
 40
0.1747835311
 40
0.2373540648
 40
0.3015501818
 40
0.3669938106
 40
0.433284132
 40
0.5000015996
 40
0.5667190112
 40
0.633009166
 40
0.6984525206
 40
0.7626482616
 40
0.8252183252
 40
0.8858182727
 40
0.9441689217
 40
1.0
 40
1.0
 40
1.0
 40
1.0
 10
64.278955087
 20
59.2659769826
 30
0.0
 10
64.278955087
 20
58.5548120363
 30
0.0
 10
64.2157450805
 20
57.0998608129
 30
0.0
 10
63.9478725674
 20
54.8877993503
 30
0.0
 10
63.5070818598
 20
52.616152692
 30
0.0
 10
62.8978176977
 20
50.3069240417
 30
0.0
 10
62.1258581688
 20
47.9818938392
 30
0.0
 10
61.1986033673
 20
45.663307929
 30
0.0
 10
60.1248907412
 20
43.3733415329
 30
0.0
 10
58.9149933844
 20
41.1338886493
 30
0.0
 10
57.5805305579
 20
38.966355718
 30
0.0
 10
56.1342310404
 20
36.8915085776
 30
0.0
 10
54.589918915
 20
34.9291910001
 30
0.0
 10
52.9623796169
 20
33.0981440316
 30
0.0
 10
51.2671784038
 20
31.4158992149
 30
0.0
 10
49.5202884675
 20
29.8983506617
 30
0.0
 10
47.7385425829
 20
28.5603491313
 30
0.0
 10
46.5101356675
 20
27.7781426988
 30
0.0
 10
45.8942553195
 20
27.4225661365
 30
0.0
  0
SPLINE
  5
25C
100
AcDbEntity
  8
0
100
AcDbSpline
 62
7
  6
CONTINUOUS
 70
0
 71
3
 72
26
 73
22
 74
0
 42
0.0000001
 43
0.0000001
 44
0.0000000001
 40
0.0
 40
0.0
 40
0.0
 40
0.0
 40
0.0213314445
 40
0.042891117
 40
0.064895858
 40
0.0875397063
 40
0.1353131587
 40
0.1607353094
 40
0.1872598776
 40
0.2436950911
 40
0.3046401092
 40
0.3697246211
 40
0.4383183704
 40
0.5096011539
 40
0.5826216707
 40
0.6563498091
 40
0.7297229713
 40
0.8016950183
 40
0.8712830557
 40
0.9376205271
 40
1.0
 40
1.0
 40
1.0
 40
1.0
 10
52.8940062476
 20
64.8175481296
 30
0.0
 10
53.1090126205
 20
64.6934177948
 30
0.0
 10
53.525770653
 20
64.4157433018
 30
0.0
 10
54.0978478828
 20
63.9197589056
 30
0.0
 10
54.615093115
 20
63.3460017028
 30
0.0
 10
55.238818823
 20
62.4671973482
 30
0.0
 10
55.7283101461
 20
61.454703771
 30
0.0
 10
56.0860812721
 20
60.3497028762
 30
0.0
 10
56.3709604952
 20
59.1193692542
 30
0.0
 10
56.5512445838
 20
57.4477138955
 30
0.0
 10
56.4970509893
 20
55.3196860427
 30
0.0
 10
56.1789701186
 20
53.0724702036
 30
0.0
 10
55.6040955948
 20
50.7534641964
 30
0.0
 10
54.7847504082
 20
48.4114667254
 30
0.0
 10
53.7383867933
 20
46.096234048
 30
0.0
 10
52.4873030535
 20
43.8570976316
 30
0.0
 10
51.0582045659
 20
41.7418108218
 30
0.0
 10
49.4815588958
 20
39.7955325608
 30
0.0
 10
47.7907695631
 20
38.0595114642
 30
0.0
 10
46.0219481956
 20
36.5709578088
 30
0.0
 10
44.7728974901
 20
35.7362328638
 30
0.0
 10
44.1441587497
 20
35.3732325496
 30
0.0
  0
SPLINE
  5
25D
100
AcDbEntity
  8
0
100
AcDbSpline
 62
7
  6
CONTINUOUS
 70
0
 71
3
 72
29
 73
25
 74
0
 42
0.0000001
 43
0.0000001
 44
0.0000000001
 40
0.0
 40
0.0
 40
0.0
 40
0.0
 40
0.0617395858
 40
0.1273025394
 40
0.1960412132
 40
0.267150797
 40
0.3397205817
 40
0.4127767019
 40
0.4853254368
 40
0.5563941827
 40
0.6250734934
 40
0.6905615807
 40
0.7219121316
 40
0.7522405959
 40
0.7815002512
 40
0.8096640029
 40
0.8367233523
 40
0.8626946081
 40
0.8876180185
 40
0.9115636788
 40
0.9346301315
 40
0.9569479889
 40
0.9786761302
 40
1.0
 40
1.0
 40
1.0
 40
1.0
 10
44.1441587497
 20
28.432962004
 30
0.0
 10
45.0509141752
 20
28.956474368
 30
0.0
 10
46.8529640436
 20
30.1558045552
 30
0.0
 10
49.41058525
 20
32.2881538298
 30
0.0
 10
51.8617612478
 20
34.7705573959
 30
0.0
 10
54.1569623363
 20
37.5528762054
 30
0.0
 10
56.2502926146
 20
40.5792822602
 30
0.0
 10
58.0995490118
 20
43.7887961424
 30
0.0
 10
59.6674594718
 20
47.1167003202
 30
0.0
 10
60.9224643303
 20
50.4960677677
 30
0.0
 10
61.8391985503
 20
53.8586823374
 30
0.0
 10
62.3128209041
 20
56.6310030124
 30
0.0
 10
62.4998344179
 20
58.7804836588
 30
0.0
 10
62.5444967261
 20
60.3229939449
 30
0.0
 10
62.4951640188
 20
61.8113611151
 30
0.0
 10
62.3522467479
 20
63.2380993791
 30
0.0
 10
62.116127794
 20
64.595977814
 30
0.0
 10
61.7881270394
 20
65.8781654826
 30
0.0
 10
61.3694650174
 20
67.0780899878
 30
0.0
 10
60.8623063959
 20
68.1896855549
 30
0.0
 10
60.2687255033
 20
69.2070331783
 30
0.0
 10
59.591717732
 20
70.1248809511
 30
0.0
 10
58.8345015648
 20
70.9378662495
 30
0.0
 10
58.2750371565
 20
71.4102852061
 30
0.0
 10
57.9848122753
 20
71.6260253574
 30
0.0
  0
SPLINE
  5
25E
100
AcDbEntity
  8
0
100
AcDbSpline
 62
7
  6
CONTINUOUS
 70
0
 71
3
 72
15
 73
11
 74
0
 42
0.0000001
 43
0.0000001
 44
0.0000000001
 40
0.0
 40
0.0
 40
0.0
 40
0.0
 40
0.1485718466
 40
0.2895069744
 40
0.4227231083
 40
0.5486371305
 40
0.6679985876
 40
0.7819353163
 40
0.8919844543
 40
1.0
 40
1.0
 40
1.0
 40
1.0
 10
44.1441587497
 20
35.3732325496
 30
0.0
 10
43.7495113008
 20
35.1453840988
 30
0.0
 10
42.9615838646
 20
34.7329457435
 30
0.0
 10
41.7597646168
 20
34.2409826622
 30
0.0
 10
40.5792936611
 20
33.8968387319
 30
0.0
 10
39.4314346532
 20
33.7043441384
 30
0.0
 10
38.3268224441
 20
33.6658379274
 30
0.0
 10
37.2760763851
 20
33.7830475003
 30
0.0
 10
36.290424634
 20
34.0556322856
 30
0.0
 10
35.6812317587
 20
34.3408528114
 30
0.0
 10
35.3943112518
 20
34.5065015691
 30
0.0
  0
SPLINE
  5
25F
100
AcDbEntity
  8
0
100
AcDbSpline
 62
7
  6
CONTINUOUS
 70
0
 71
3
 72
13
 73
9
 74
0
 42
0.0000001
 43
0.0000001
 44
0.0000000001
 40
0.0
 40
0.0
 40
0.0
 40
0.0
 40
0.289347215
 40
0.5483228082
 40
0.667748616
 40
0.7817630569
 40
0.8919047309
 40
1.0
 40
1.0
 40
1.0
 40
1.0
 10
48.1704214283
 20
67.0921701504
 30
0.0
 10
48.0497379263
 20
67.0224939139
 30
0.0
 10
47.8098421276
 20
66.9082671937
 30
0.0
 10
47.4939955184
 20
66.8321490645
 30
0.0
 10
47.2562587332
 20
66.8238592527
 30
0.0
 10
47.0911610818
 20
66.842338533
 30
0.0
 10
46.9362670737
 20
66.8851196088
 30
0.0
 10
46.8405337875
 20
66.9299450006
 30
0.0
 10
46.7954526734
 20
66.9559821811
 30
0.0
  0
SPLINE
  5
260
100
AcDbEntity
  8
0
100
AcDbSpline
 62
7
  6
CONTINUOUS
 70
0
 71
3
 72
20
 73
16
 74
0
 42
0.0000001
 43
0.0000001
 44
0.0000000001
 40
0.0
 40
0.0
 40
0.0
 40
0.0
 40
0.042830492
 40
0.0874305808
 40
0.135231524
 40
0.1871635927
 40
0.2436324515
 40
0.3046134553
 40
0.3697388436
 40
0.4383737481
 40
0.582625055
 40
0.7296912724
 40
0.871189482
 40
0.937608848
 40
1.0
 40
1.0
 40
1.0
 40
1.0
 10
60.5453443858
 20
56.0697527719
 30
0.0
 10
60.613133183
 20
56.0306004753
 30
0.0
 10
60.7416721767
 20
55.9322645805
 30
0.0
 10
60.8962872656
 20
55.7366653314
 30
0.0
 10
61.0119082842
 20
55.4975230047
 30
0.0
 10
61.0867108502
 20
55.2205761888
 30
0.0
 10
61.120036796
 20
54.9117203898
 30
0.0
 10
61.1115520809
 20
54.5772878187
 30
0.0
 10
61.0615479935
 20
54.2241618871
 30
0.0
 10
60.9391052565
 20
53.7302747483
 30
0.0
 10
60.6910374089
 20
53.1168001883
 30
0.0
 10
60.275036135
 20
52.4400827165
 30
0.0
 10
59.8440211587
 20
51.9495981698
 30
0.0
 10
59.4654111761
 20
51.6310498775
 30
0.0
 10
59.2691327729
 20
51.4998186305
 30
0.0
 10
59.1703756309
 20
51.4428015083
 30
0.0
  0
SPLINE
  5
261
100
AcDbEntity
  8
0
100
AcDbSpline
 62
7
  6
CONTINUOUS
 70
0
 71
3
 72
13
 73
9
 74
0
 42
0.0000001
 43
0.0000001
 44
0.0000000001
 40
0.0
 40
0.0
 40
0.0
 40
0.0
 40
0.289347215
 40
0.5483228082
 40
0.667748616
 40
0.7817630569
 40
0.8919047309
 40
1.0
 40
1.0
 40
1.0
 40
1.0
 10
59.1703756309
 20
51.4428015083
 30
0.0
 10
59.0496921288
 20
51.3731252718
 30
0.0
 10
58.8097963301
 20
51.2588985517
 30
0.0
 10
58.493949721
 20
51.1827804224
 30
0.0
 10
58.2562129357
 20
51.1744906107
 30
0.0
 10
58.0911152843
 20
51.1929698909
 30
0.0
 10
57.9362212763
 20
51.2357509667
 30
0.0
 10
57.84048799
 20
51.2805763585
 30
0.0
 10
57.7954068759
 20
51.306613539
 30
0.0
  0
SPLINE
  5
262
100
AcDbEntity
  8
0
100
AcDbSpline
 62
7
  6
CONTINUOUS
 70
0
 71
3
 72
13
 73
9
 74
0
 42
0.0000001
 43
0.0000001
 44
0.0000000001
 40
0.0
 40
0.0
 40
0.0
 40
0.0
 40
0.289347215
 40
0.5483228082
 40
0.667748616
 40
0.7817630569
 40
0.8919047309
 40
1.0
 40
1.0
 40
1.0
 40
1.0
 10
40.1178960712
 20
27.7411162541
 30
0.0
 10
39.9972125691
 20
27.6714400176
 30
0.0
 10
39.7573167704
 20
27.5572132974
 30
0.0
 10
39.4414701613
 20
27.4810951682
 30
0.0
 10
39.203733376
 20
27.4728053565
 30
0.0
 10
39.0386357246
 20
27.4912846367
 30
0.0
 10
38.8837417166
 20
27.5340657125
 30
0.0
 10
38.7880084303
 20
27.5788911043
 30
0.0
 10
38.7429273162
 20
27.6049282848
 30
0.0
  0
SPLINE
  5
263
100
AcDbEntity
  8
0
100
AcDbSpline
 62
7
  6
CONTINUOUS
 70
0
 71
3
 72
9
 73
5
 74
0
 42
0.0000001
 43
0.0000001
 44
0.0000000001
 40
0.0
 40
0.0
 40
0.0
 40
0.0
 40
0.2771893965
 40
1.0
 40
1.0
 40
1.0
 40
1.0
 10
29.1179418686
 20
43.3904848962
 30
0.0
 10
29.0419141044
 20
43.346590508
 30
0.0
 10
28.7607577895
 20
43.2024998366
 30
0.0
 10
28.4406546063
 20
43.1189519601
 30
0.0
 10
28.2118411784
 20
43.1260239831
 30
0.0
  0
SPLINE
  5
264
100
AcDbEntity
  8
0
100
AcDbSpline
 62
7
  6
CONTINUOUS
 70
0
 71
3
 72
18
 73
14
 74
0
 42
0.0000001
 43
0.0000001
 44
0.0000000001
 40
0.0
 40
0.0
 40
0.0
 40
0.0
 40
0.1479614794
 40
0.3046047895
 40
0.4616669577
 40
0.6104703124
 40
0.6793114472
 40
0.7432632869
 40
0.8016338442
 40
0.853900034
 40
0.8997399264
 40
0.9390835382
 40
1.0
 40
1.0
 40
1.0
 40
1.0
 10
49.7072432336
 20
65.4416575312
 30
0.0
 10
49.8743984993
 20
65.240274148
 30
0.0
 10
50.2255092642
 20
64.8313984001
 30
0.0
 10
50.7864199496
 20
64.2373253603
 30
0.0
 10
51.3850840069
 20
63.6788263849
 30
0.0
 10
51.9062930518
 20
63.2674422582
 30
0.0
 10
52.3225353388
 20
62.9933415455
 30
0.0
 10
52.6165855089
 20
62.8258775166
 30
0.0
 10
52.8960814912
 20
62.6935926657
 30
0.0
 10
53.1563102195
 20
62.598435849
 30
0.0
 10
53.3936839135
 20
62.5407937001
 30
0.0
 10
53.6499729096
 20
62.5154380358
 30
0.0
 10
53.8353510479
 20
62.544715336
 30
0.0
 10
53.928678186
 20
62.598568882
 30
0.0
  0
SPLINE
  5
265
100
AcDbEntity
  8
0
100
AcDbSpline
 62
7
  6
CONTINUOUS
 70
0
 71
3
 72
20
 73
16
 74
0
 42
0.0000001
 43
0.0000001
 44
0.0000000001
 40
0.0
 40
0.0
 40
0.0
 40
0.0
 40
0.042830492
 40
0.0874305808
 40
0.135231524
 40
0.1871635927
 40
0.2436324515
 40
0.3046134553
 40
0.3697388436
 40
0.4383737481
 40
0.582625055
 40
0.7296912724
 40
0.871189482
 40
0.937608848
 40
1.0
 40
1.0
 40
1.0
 40
1.0
 10
30.4929106236
 20
48.0174361597
 30
0.0
 10
30.5606994207
 20
47.9782838631
 30
0.0
 10
30.6892384145
 20
47.8799479683
 30
0.0
 10
30.8438535033
 20
47.6843487193
 30
0.0
 10
30.9594745219
 20
47.4452063925
 30
0.0
 10
31.034277088
 20
47.1682595767
 30
0.0
 10
31.0676030337
 20
46.8594037777
 30
0.0
 10
31.0591183186
 20
46.5249712065
 30
0.0
 10
31.0091142312
 20
46.1718452749
 30
0.0
 10
30.8866714943
 20
45.6779581361
 30
0.0
 10
30.6386036467
 20
45.0644835762
 30
0.0
 10
30.2226023727
 20
44.3877661044
 30
0.0
 10
29.7915873965
 20
43.8972815577
 30
0.0
 10
29.4129774138
 20
43.5787332654
 30
0.0
 10
29.2166990106
 20
43.4475020183
 30
0.0
 10
29.1179418686
 20
43.3904848962
 30
0.0
  0
SPLINE
  5
266
100
AcDbEntity
  8
0
100
AcDbSpline
 62
7
  6
CONTINUOUS
 70
0
 71
3
 72
18
 73
14
 74
0
 42
0.0000001
 43
0.0000001
 44
0.0000000001
 40
0.0
 40
0.0
 40
0.0
 40
0.0
 40
0.0443898322
 40
0.0919542635
 40
0.143305257
 40
0.1986862981
 40
0.3208695478
 40
0.45559917
 40
0.5973810242
 40
0.7396354324
 40
0.8756836319
 40
0.9396515698
 40
1.0
 40
1.0
 40
1.0
 40
1.0
 10
49.8052657869
 20
71.4971463705
 30
0.0
 10
49.8535704462
 20
71.4384007973
 30
0.0
 10
49.9404296403
 20
71.3054307241
 30
0.0
 10
50.0341488404
 20
71.0772352253
 30
0.0
 10
50.0941857166
 20
70.8187366296
 30
0.0
 10
50.1293272782
 20
70.4270916466
 30
0.0
 10
50.0791386121
 20
69.8898474869
 30
0.0
 10
49.8910773789
 20
69.2300361452
 30
0.0
 10
49.5859462361
 20
68.5773795593
 30
0.0
 10
49.184592524
 20
67.9767522931
 30
0.0
 10
48.7841744837
 20
67.5439451055
 30
0.0
 10
48.43816489
 20
67.2614739541
 30
0.0
 10
48.2599666169
 20
67.1438687805
 30
0.0
 10
48.1704214283
 20
67.0921701504
 30
0.0
  0
ENDSEC
  0
SECTION
  2
OBJECTS
  0
DICTIONARY
  5
C
100
AcDbDictionary
280
0
281
1
  3
ACAD_GROUP
350
D
  3
ACAD_MLINESTYLE
350
17
  3
ACAD_LAYOUT
350
1A
  3
ACAD_PLOTSETTINGS
350
19
  3
ACAD_PLOTSTYLENAME
350
E
  0
DICTIONARY
  5
D
102
{ACAD_REACTORS
330
C
102
}
100
AcDbDictionary
280
0
281
1
  0
ACDBDICTIONARYWDFLT
  5
E
102
{ACAD_REACTORS
330
C
102
}
100
AcDbDictionary
281
1
  3
Normal
350
F
100
AcDbDictionaryWithDefault
340
F
  0
DICTIONARY
  5
17
102
{ACAD_REACTORS
330
C
102
}
100
AcDbDictionary
280
0
281
1
  3
Standard
350
18
  0
DICTIONARY
  5
19
102
{ACAD_REACTORS
330
C
102
}
100
AcDbDictionary
281
1
  0
DICTIONARY
  5
1A
102
{ACAD_REACTORS
330
C
102
}
100
AcDbDictionary
281
1
  3
Model
350
267
  3
Layout1
350
268
  0
ACDBPLACEHOLDER
  5
F
102
{ACAD_REACTORS
330
E
102
}
  0
MLINESTYLE
  5
18
102
{ACAD_REACTORS
330
17
102
}
100
AcDbMlineStyle
  2
STANDARD
 70
0
  3

 62
256
 51
90.0
 52
90.0
 71
2
 49
0.5
 62
256
  6
BYLAYER
 49
-0.5
 62
256
  6
BYLAYER
  0
LAYOUT
  5
267
102
{ACAD_REACTORS
330
1A
102
}
100
AcDbPlotSettings
  1

  2
none_device
  4

  6

 40
0.0
 41
0.0
 42
0.0
 43
0.0
 44
210.0
 45
297.0
 46
0.0
 47
0.0
 48
0.0
 49
0.0
140
0.0
141
0.0
142
1.0
143
1.0
 70
1024
 72
1
 73
0
 74
0
  7

 75
0
147
1.0
148
0.0
149
0.0
100
AcDbLayout
  1
Model
 70
0
 71
0
 10
0.0
 20
0.0
 11
210.0
 21
297.0
 12
0.0
 22
0.0
 32
0.0
 14
0.0
 24
0.0
 34
0.0
 15
0.0
 25
0.0
 35
0.0
146
0.0
 13
0.0
 23
0.0
 33
0.0
 16
1.0
 26
0.0
 36
0.0
 17
0.0
 27
1.0
 37
0.0
 76
0
330
210
345
0
346
0
  0
LAYOUT
  5
268
102
{ACAD_REACTORS
330
1A
102
}
100
AcDbPlotSettings
  1

  2
none_device
  4

  6

 40
0.0
 41
0.0
 42
0.0
 43
0.0
 44
210.0
 45
297.0
 46
0.0
 47
0.0
 48
0.0
 49
0.0
140
0.0
141
0.0
142
1.0
143
1.0
 70
0
 72
1
 73
0
 74
0
  7

 75
0
147
1.0
148
0.0
149
0.0
100
AcDbLayout
  1
Layout1
 70
0
 71
1
 10
0.0
 20
0.0
 11
210.0
 21
297.0
 12
0.0
 22
0.0
 32
0.0
 14
0.0
 24
0.0
 34
0.0
 15
0.0
 25
0.0
 35
0.0
146
0.0
 13
0.0
 23
0.0
 33
0.0
 16
1.0
 26
0.0
 36
0.0
 17
0.0
 27
1.0
 37
0.0
 76
0
330
211
345
0
346
0
  0
ENDSEC
  0
EOF
