999
DXF file: C:\Users\sesa63760\Dev\_Creo\CAD\MCADUE0002560_3D-CAD\drw0001_3.dxf
999
Pro/ENGINEER 2019471 by Parametric Technology Corporation
  0
SECTION
  2
HEADER
  9
$ACADVER
  1
AC1024
  9
$DWGCODEPAGE
  3
ANSI_1252
  9
$EXTMAX
 10
252.8125897929
 20
357.5492341357
 30
0.0
  9
$EXTMIN
 10
0.0
 20
0.0
 30
0.0
  9
$LIMMIN
 10
0.0
 20
0.0
  9
$LIMMAX
 10
252.8125897929
 20
357.5492341357
  9
$VIEWCTR
 10
126.4062948964
 20
178.7746170678
  9
$VIEWSIZE
 40
357.5492341357
  9
$CLAYER
  8
0
  9
$LTSCALE
 40
23.30691304
  9
$CELTYPE
  6
BYLAYER
  9
$DIMSCALE
 40
1.0
  9
$DIMASZ
 40
3.009673688
  9
$DIMEXO
 40
1.0
  9
$DIMDLI
 40
16.1029581003
  9
$DIMEXE
 40
1.0
  9
$DIMCEN
 40
3.8138584974
  9
$DIMLFAC
 40
1.0
  9
$DIMBLK
  1
_FILLED
  9
$DIMALT
 70
0
  9
$DIMALTF
 40
0.0393700787
  9
$DIMTXT
 40
4.2135431632
  9
$DIMTOL
 70
1
  9
$DIMLIM
 70
0
  9
$DIMTFAC
 40
1.0
  9
$DIMTP
 40
0.01
  9
$DIMTM
 40
0.01
  9
$DIMGAP
 40
0.625
  9
$DIMDSEP
 70
46
  9
$AUNITS
 70
0
  9
$PDMODE
 70
3
  9
$PDSIZE
 40
0.3125
  9
$HANDSEED
  5
2DA
  9
$TILEMODE
 70
1
  9
$MEASUREMENT
 70
1
  9
$INSUNITS
 70
4
  0
ENDSEC
  0
SECTION
  2
CLASSES
  0
CLASS
  1
ACDBDICTIONARYWDFLT
  2
AcDbDictionaryWithDefault
  3
AutoCAD 2000
 90
0
 91
1
280
0
281
0
  0
CLASS
  1
ACDBPLACEHOLDER
  2
AcDbPlaceHolder
  3
AutoCAD 2000
 90
0
 91
1
280
0
281
0
  0
CLASS
  1
LAYOUT
  2
AcDbLayout
  3
AutoCAD 2000
 90
0
 91
0
280
0
281
0
  0
ENDSEC
  0
SECTION
  2
TABLES
  0
TABLE
  2
VPORT
  5
8
100
AcDbSymbolTable
 70
2
  0
VPORT
  5
1F4
100
AcDbSymbolTableRecord
100
AcDbViewportTableRecord
  2
*ACTIVE
 70
0
 10
0.0
 20
0.0
 11
1.0
 21
1.0
 12
126.4062948964
 22
178.7746170678
 13
0.0
 23
0.0
 14
1.0
 24
1.0
 15
0.0
 25
0.0
 16
0.0
 26
0.0
 36
1.0
 17
0.0
 27
0.0
 37
0.0
 40
357.5492341357
 41
0.7070707071
 42
50.0
 43
0.0
 44
0.0
 50
0.0
 51
0.0
 71
0
 72
100
 73
1
 74
1
 75
0
 76
0
 77
0
 78
0
  0
ENDTAB
  0
TABLE
  2
LTYPE
  5
5
100
AcDbSymbolTable
 70
6
  0
LTYPE
  5
14
100
AcDbSymbolTableRecord
100
AcDbLinetypeTableRecord
  2
BYBLOCK
 70
0
  3

 72
65
 73
0
 40
0.0
  0
LTYPE
  5
15
100
AcDbSymbolTableRecord
100
AcDbLinetypeTableRecord
  2
BYLAYER
 70
0
  3

 72
65
 73
0
 40
0.0
  0
LTYPE
  5
16
100
AcDbSymbolTableRecord
100
AcDbLinetypeTableRecord
  2
CONTINUOUS
 70
64
  3
Solid line
 72
65
 73
0
 40
0.0
  0
LTYPE
  5
1F5
100
AcDbSymbolTableRecord
100
AcDbLinetypeTableRecord
  2
CENTER
 70
64
  3
____ _ ____ _ ____ _ ____ _ ____ _ ____ _ ____
 72
65
 73
4
 40
0.6
 49
0.375
 74
0
 49
-0.075
 74
0
 49
0.075
 74
0
 49
-0.075
 74
0
  0
LTYPE
  5
1F6
100
AcDbSymbolTableRecord
100
AcDbLinetypeTableRecord
  2
HIDDEN
 70
64
  3
- - - - - - - - - - - - - - - - - - - -
 72
65
 73
2
 40
0.2
 49
0.1
 74
0
 49
-0.1
 74
0
  0
LTYPE
  5
1F7
100
AcDbSymbolTableRecord
100
AcDbLinetypeTableRecord
  2
PHANTOM
 70
64
  3
_____ _ _ _____ _ _ _____ _ _ _____
 72
65
 73
6
 40
0.8
 49
0.45
 74
0
 49
-0.05
 74
0
 49
0.1
 74
0
 49
-0.05
 74
0
 49
0.1
 74
0
 49
-0.05
 74
0
  0
LTYPE
  5
1F8
100
AcDbSymbolTableRecord
100
AcDbLinetypeTableRecord
  2
DOT
 70
64
  3
. . . . . . . . . . . . . . . . . . . .
 72
65
 73
2
 40
0.2
 49
0.1
 74
0
 49
-0.1
 74
0
  0
LTYPE
  5
1F9
100
AcDbSymbolTableRecord
100
AcDbLinetypeTableRecord
  2
DASHED
 70
64
  3
- - - - - - - - - - - - - - - - - - - -
 72
65
 73
2
 40
0.2
 49
0.1
 74
0
 49
-0.1
 74
0
  0
ENDTAB
  0
TABLE
  2
LAYER
  5
2
100
AcDbSymbolTable
 70
36
  0
LAYER
  5
10
100
AcDbSymbolTableRecord
100
AcDbLayerTableRecord
  2
0
 70
0
 62
7
  6
CONTINUOUS
370
-3
390
F
  0
LAYER
  5
1FA
100
AcDbSymbolTableRecord
100
AcDbLayerTableRecord
  2
DEFAULT_1
 70
0
 62
7
  6
CENTER
370
-3
390
F
  0
LAYER
  5
1FB
100
AcDbSymbolTableRecord
100
AcDbLayerTableRecord
  2
DEFAULT_2
 70
0
 62
8
  6
HIDDEN
370
-3
390
F
  0
LAYER
  5
1FC
100
AcDbSymbolTableRecord
100
AcDbLayerTableRecord
  2
DEFAULT_3
 70
0
 62
7
  6
PHANTOM
370
-3
390
F
  0
LAYER
  5
1FD
100
AcDbSymbolTableRecord
100
AcDbLayerTableRecord
  2
00_COMPONENTS
 70
0
 62
7
  6
CONTINUOUS
370
-3
390
F
  0
LAYER
  5
1FE
100
AcDbSymbolTableRecord
100
AcDbLayerTableRecord
  2
01_1_DEFAULT_DATUMS
 70
0
 62
7
  6
CONTINUOUS
370
-3
390
F
  0
LAYER
  5
1FF
100
AcDbSymbolTableRecord
100
AcDbLayerTableRecord
  2
01_PLANES
 70
0
 62
7
  6
CONTINUOUS
370
-3
390
F
  0
LAYER
  5
200
100
AcDbSymbolTableRecord
100
AcDbLayerTableRecord
  2
02_COORD_SYS
 70
0
 62
7
  6
CONTINUOUS
370
-3
390
F
  0
LAYER
  5
201
100
AcDbSymbolTableRecord
100
AcDbLayerTableRecord
  2
03_AXES
 70
0
 62
7
  6
CONTINUOUS
370
-3
390
F
  0
LAYER
  5
202
100
AcDbSymbolTableRecord
100
AcDbLayerTableRecord
  2
04_POINTS
 70
0
 62
7
  6
CONTINUOUS
370
-3
390
F
  0
LAYER
  5
203
100
AcDbSymbolTableRecord
100
AcDbLayerTableRecord
  2
05_CURVES
 70
0
 62
7
  6
CONTINUOUS
370
-3
390
F
  0
LAYER
  5
204
100
AcDbSymbolTableRecord
100
AcDbLayerTableRecord
  2
06_SURFS
 70
0
 62
7
  6
CONTINUOUS
370
-3
390
F
  0
LAYER
  5
205
100
AcDbSymbolTableRecord
100
AcDbLayerTableRecord
  2
07_COSMETICS
 70
0
 62
7
  6
CONTINUOUS
370
-3
390
F
  0
LAYER
  5
206
100
AcDbSymbolTableRecord
100
AcDbLayerTableRecord
  2
10_NOTES
 70
0
 62
7
  6
CONTINUOUS
370
-3
390
F
  0
LAYER
  5
207
100
AcDbSymbolTableRecord
100
AcDbLayerTableRecord
  2
11_NOTES_PUB
 70
0
 62
7
  6
CONTINUOUS
370
-3
390
F
  0
LAYER
  5
208
100
AcDbSymbolTableRecord
100
AcDbLayerTableRecord
  2
13_REF_GTOL
 70
0
 62
7
  6
CONTINUOUS
370
-3
390
F
  0
LAYER
  5
209
100
AcDbSymbolTableRecord
100
AcDbLayerTableRecord
  2
16_MISC
 70
0
 62
7
  6
CONTINUOUS
370
-3
390
F
  0
LAYER
  5
20A
100
AcDbSymbolTableRecord
100
AcDbLayerTableRecord
  2
17_NO_PRINT
 70
0
 62
7
  6
CONTINUOUS
370
-3
390
F
  0
LAYER
  5
20B
100
AcDbSymbolTableRecord
100
AcDbLayerTableRecord
  2
18_DATUM_CAMS_JOINTS
 70
0
 62
7
  6
CONTINUOUS
370
-3
390
F
  0
LAYER
  5
20C
100
AcDbSymbolTableRecord
100
AcDbLayerTableRecord
  2
19_DATUM_FUNCTIONAL
 70
0
 62
7
  6
CONTINUOUS
370
-3
390
F
  0
LAYER
  5
20D
100
AcDbSymbolTableRecord
100
AcDbLayerTableRecord
  2
20_DATUM_KINEMATIC_SCHEME
 70
0
 62
7
  6
CONTINUOUS
370
-3
390
F
  0
ENDTAB
  0
TABLE
  2
STYLE
  5
3
100
AcDbSymbolTable
 70
1
  0
STYLE
  5
11
100
AcDbSymbolTableRecord
100
AcDbTextStyleTableRecord
  2
STANDARD
 70
0
 40
0.0
 41
0.8
 50
0.0
 71
0
 42
0.2
  3
txt
  4

  0
STYLE
  5
20E
100
AcDbSymbolTableRecord
100
AcDbTextStyleTableRecord
  2
TEXTSTYLE_1
 70
0
 40
0.0
 41
0.8
 50
0.0
 71
0
 42
0.2
  3
gdt
  4

  0
ENDTAB
  0
TABLE
  2
VIEW
  5
6
100
AcDbSymbolTable
 70
0
  0
ENDTAB
  0
TABLE
  2
UCS
  5
7
100
AcDbSymbolTable
 70
0
  0
ENDTAB
  0
TABLE
  2
APPID
  5
9
100
AcDbSymbolTable
 70
1
  0
APPID
  5
20F
100
AcDbSymbolTableRecord
100
AcDbRegAppTableRecord
  2
ACAD
 70
0
  0
ENDTAB
  0
TABLE
  2
BLOCK_RECORD
  5
1
100
AcDbSymbolTable
 70
0
  0
BLOCK_RECORD
  5
210
100
AcDbSymbolTableRecord
100
AcDbBlockTableRecord
  2
*Model_Space
  0
BLOCK_RECORD
  5
211
100
AcDbSymbolTableRecord
100
AcDbBlockTableRecord
  2
*Paper_Space
  0
BLOCK_RECORD
  5
212
100
AcDbSymbolTableRecord
100
AcDbBlockTableRecord
  2
_FILLED
  0
ENDTAB
  0
TABLE
  2
DIMSTYLE
  5
A
100
AcDbSymbolTable
 70
1
100
AcDbDimStyleTable
 71
0
  0
DIMSTYLE
105
213
100
AcDbSymbolTableRecord
100
AcDbDimStyleTableRecord
  2
STANDARD
 70
0
  3

  4

 40
1.0
 41
3.009673688
 42
1.0
 43
0.38
 44
1.0
 45
0.0
 46
0.0
 47
0.01
 48
0.01
140
4.2135431632
141
0.09
142
0.0
143
25.4
144
1.0
145
0.0
146
1.0
147
0.625
 71
1
 72
0
 73
0
 74
0
 75
0
 76
0
 77
1
 78
8
 79
2
170
0
171
1
172
0
173
0
174
0
175
0
176
0
177
0
178
0
270
2
179
2
271
2
272
2
273
2
274
2
275
0
280
0
281
0
282
0
283
1
284
8
285
0
286
0
287
3
288
0
340
11
278
46
341
212
342
212
343
212
344
212
  0
ENDTAB
  0
ENDSEC
  0
SECTION
  2
BLOCKS
  0
BLOCK
  5
20
100
AcDbEntity
  8
0
100
AcDbBlockBegin
  2
*Model_Space
 70
0
 10
0.0
 20
0.0
 30
0.0
  3
*Model_Space
  1

  0
ENDBLK
  5
21
100
AcDbEntity
  8
0
100
AcDbBlockEnd
  0
BLOCK
  5
1C
100
AcDbEntity
  8
0
100
AcDbBlockBegin
  2
*Paper_Space
 70
0
 10
0.0
 20
0.0
 30
0.0
  3
*Paper_Space
  1

  0
ENDBLK
  5
1D
100
AcDbEntity
  8
0
100
AcDbBlockEnd
  0
BLOCK
  5
214
100
AcDbEntity
  8
0
100
AcDbBlockBegin
  2
_FILLED
 70
64
 10
0.0
 20
0.0
  3
_FILLED
  1

  0
SOLID
  5
215
100
AcDbEntity
  8
0
  6
BYBLOCK
 62
0
100
AcDbTrace
 10
0.0
 20
0.0
 11
-1.0
 21
0.25
 12
-1.0
 22
-0.25
 13
-1.0
 23
-0.25
  0
ENDBLK
  5
216
100
AcDbEntity
  8
0
  6
BYBLOCK
 62
0
100
AcDbBlockEnd
  0
ENDSEC
  0
SECTION
  2
ENTITIES
  0
LINE
  5
217
100
AcDbEntity
  8
0
100
AcDbLine
 62
7
  6
CONTINUOUS
 10
29.9073889884
 20
253.6498905908
 11
29.9073889884
 21
105.6498905908
  0
LINE
  5
218
100
AcDbEntity
  8
0
100
AcDbLine
 62
7
  6
CONTINUOUS
 10
30.9073889884
 20
254.6498905908
 11
30.9073889884
 21
253.6498905908
  0
LINE
  5
219
100
AcDbEntity
  8
0
100
AcDbLine
 62
7
  6
CONTINUOUS
 10
30.9073889884
 20
105.6498905908
 11
30.9073889884
 21
104.6498905908
  0
LINE
  5
21A
100
AcDbEntity
  8
0
100
AcDbLine
 62
7
  6
CONTINUOUS
 10
31.9073889884
 20
106.6498905908
 11
31.9073889884
 21
252.6498905908
  0
LINE
  5
21B
100
AcDbEntity
  8
0
100
AcDbLine
 62
7
  6
CONTINUOUS
 10
49.1573889884
 20
232.2697131738
 11
49.1573889884
 21
232.1232741981
  0
LINE
  5
21C
100
AcDbEntity
  8
0
100
AcDbLine
 62
7
  6
CONTINUOUS
 10
49.1573889884
 20
122.2697131738
 11
49.1573889884
 21
121.9350526623
  0
LINE
  5
21D
100
AcDbEntity
  8
0
100
AcDbLine
 62
7
  6
CONTINUOUS
 10
49.1573889884
 20
127.0334485479
 11
49.1573889884
 21
127.1765069835
  0
LINE
  5
21E
100
AcDbEntity
  8
0
100
AcDbLine
 62
7
  6
CONTINUOUS
 10
49.1573889884
 20
237.0334485479
 11
49.1573889884
 21
237.3647285193
  0
LINE
  5
21F
100
AcDbEntity
  8
0
100
AcDbLine
 62
7
  6
CONTINUOUS
 10
50.6573889884
 20
232.2663362034
 11
50.6573889884
 21
232.2057886112
  0
LINE
  5
220
100
AcDbEntity
  8
0
100
AcDbLine
 62
7
  6
CONTINUOUS
 10
50.6573889884
 20
122.2663362034
 11
50.6573889884
 21
121.9448147698
  0
LINE
  5
221
100
AcDbEntity
  8
0
100
AcDbLine
 62
7
  6
CONTINUOUS
 10
50.6573889884
 20
127.031458031
 11
50.6573889884
 21
127.0939925704
  0
LINE
  5
222
100
AcDbEntity
  8
0
100
AcDbLine
 62
7
  6
CONTINUOUS
 10
50.6573889884
 20
237.031458031
 11
50.6573889884
 21
237.3549664118
  0
LINE
  5
223
100
AcDbEntity
  8
0
100
AcDbLine
 62
7
  6
CONTINUOUS
 10
51.4157765424
 20
235.578848229
 11
52.0091296983
 21
235.8246231535
  0
LINE
  5
224
100
AcDbEntity
  8
0
100
AcDbLine
 62
7
  6
CONTINUOUS
 10
48.1990014343
 20
233.9209329526
 11
47.6056482784
 21
233.6751580281
  0
LINE
  5
225
100
AcDbEntity
  8
0
100
AcDbLine
 62
7
  6
CONTINUOUS
 10
30.9073889884
 20
104.6498905908
 11
228.9073889884
 21
104.6498905908
  0
LINE
  5
226
100
AcDbEntity
  8
0
100
AcDbLine
 62
7
  6
CONTINUOUS
 10
29.9073889884
 20
105.6498905908
 11
30.9073889884
 21
105.6498905908
  0
LINE
  5
227
100
AcDbEntity
  8
0
100
AcDbLine
 62
7
  6
CONTINUOUS
 10
228.9073889884
 20
105.6498905908
 11
229.9073889884
 21
105.6498905908
  0
LINE
  5
228
100
AcDbEntity
  8
0
100
AcDbLine
 62
7
  6
CONTINUOUS
 10
52.0091296983
 20
123.4751580281
 11
51.4706618491
 21
123.6981987142
  0
LINE
  5
229
100
AcDbEntity
  8
0
100
AcDbLine
 62
7
  6
CONTINUOUS
 10
47.6056482784
 20
125.6246231535
 11
48.1990014343
 21
125.378848229
  0
LINE
  5
22A
100
AcDbEntity
  8
0
100
AcDbLine
 62
7
  6
CONTINUOUS
 10
227.9073889884
 20
106.6498905908
 11
31.9073889884
 21
106.6498905908
  0
LINE
  5
22B
100
AcDbEntity
  8
0
100
AcDbLine
 62
7
  6
CONTINUOUS
 10
31.9073889884
 20
252.6498905908
 11
227.9073889884
 21
252.6498905908
  0
LINE
  5
22C
100
AcDbEntity
  8
0
100
AcDbLine
 62
7
  6
CONTINUOUS
 10
229.9073889884
 20
253.6498905908
 11
228.9073889884
 21
253.6498905908
  0
LINE
  5
22D
100
AcDbEntity
  8
0
100
AcDbLine
 62
7
  6
CONTINUOUS
 10
30.9073889884
 20
253.6498905908
 11
29.9073889884
 21
253.6498905908
  0
LINE
  5
22E
100
AcDbEntity
  8
0
100
AcDbLine
 62
7
  6
CONTINUOUS
 10
228.9073889884
 20
254.6498905908
 11
30.9073889884
 21
254.6498905908
  0
LINE
  5
22F
100
AcDbEntity
  8
0
100
AcDbLine
 62
7
  6
CONTINUOUS
 10
209.1573889884
 20
232.2683231507
 11
209.1573889884
 21
232.2057886112
  0
LINE
  5
230
100
AcDbEntity
  8
0
100
AcDbLine
 62
7
  6
CONTINUOUS
 10
209.1573889884
 20
122.2697131738
 11
209.1573889884
 21
121.9448147698
  0
LINE
  5
231
100
AcDbEntity
  8
0
100
AcDbLine
 62
7
  6
CONTINUOUS
 10
209.1573889884
 20
127.0334485479
 11
209.1573889884
 21
127.0939925704
  0
LINE
  5
232
100
AcDbEntity
  8
0
100
AcDbLine
 62
7
  6
CONTINUOUS
 10
209.1573889884
 20
237.0334449782
 11
209.1573889884
 21
237.3549664118
  0
LINE
  5
233
100
AcDbEntity
  8
0
100
AcDbLine
 62
7
  6
CONTINUOUS
 10
210.6573889884
 20
232.2663326337
 11
210.6573889884
 21
232.1232741981
  0
LINE
  5
234
100
AcDbEntity
  8
0
100
AcDbLine
 62
7
  6
CONTINUOUS
 10
210.6573889884
 20
122.2663362034
 11
210.6573889884
 21
121.9350526623
  0
LINE
  5
235
100
AcDbEntity
  8
0
100
AcDbLine
 62
7
  6
CONTINUOUS
 10
210.6573889884
 20
127.031458031
 11
210.6573889884
 21
127.1765069835
  0
LINE
  5
236
100
AcDbEntity
  8
0
100
AcDbLine
 62
7
  6
CONTINUOUS
 10
210.6573889884
 20
237.0300680078
 11
210.6573889884
 21
237.3647285193
  0
LINE
  5
237
100
AcDbEntity
  8
0
100
AcDbLine
 62
7
  6
CONTINUOUS
 10
211.6157765424
 20
125.378848229
 11
212.2091296983
 21
125.6246231535
  0
LINE
  5
238
100
AcDbEntity
  8
0
100
AcDbLine
 62
7
  6
CONTINUOUS
 10
208.3990014343
 20
123.7209329526
 11
207.8056482784
 21
123.4751580281
  0
LINE
  5
239
100
AcDbEntity
  8
0
100
AcDbLine
 62
7
  6
CONTINUOUS
 10
212.2091296983
 20
233.6751580281
 11
211.6157765424
 21
233.9209329526
  0
LINE
  5
23A
100
AcDbEntity
  8
0
100
AcDbLine
 62
7
  6
CONTINUOUS
 10
207.8056482784
 20
235.8246231535
 11
208.3441161276
 21
235.6015824674
  0
LINE
  5
23B
100
AcDbEntity
  8
0
100
AcDbLine
 62
7
  6
CONTINUOUS
 10
227.9073889884
 20
252.6498905908
 11
227.9073889884
 21
106.6498905908
  0
LINE
  5
23C
100
AcDbEntity
  8
0
100
AcDbLine
 62
7
  6
CONTINUOUS
 10
228.9073889884
 20
104.6498905908
 11
228.9073889884
 21
105.6498905908
  0
LINE
  5
23D
100
AcDbEntity
  8
0
100
AcDbLine
 62
7
  6
CONTINUOUS
 10
228.9073889884
 20
253.6498905908
 11
228.9073889884
 21
254.6498905908
  0
LINE
  5
23E
100
AcDbEntity
  8
0
100
AcDbLine
 62
7
  6
CONTINUOUS
 10
229.9073889884
 20
105.6498905908
 11
229.9073889884
 21
253.6498905908
  0
ARC
  5
23F
100
AcDbEntity
  8
0
100
AcDbCircle
 62
7
  6
CONTINUOUS
 10
48.7073889884
 20
123.4498905908
 40
7.0
100
AcDbArc
 50
12.6537686964
 51
79.2336810197
  0
ARC
  5
240
100
AcDbEntity
  8
0
100
AcDbCircle
 62
7
  6
CONTINUOUS
 10
49.9073889884
 20
124.6498905908
 40
5.766336506
100
AcDbArc
 50
38.6078630824
 51
54.8053868706
  0
CIRCLE
  5
241
100
AcDbEntity
  8
0
100
AcDbCircle
 62
7
  6
CONTINUOUS
 10
50.4073889884
 20
125.1498905908
 40
5.1
  0
ARC
  5
242
100
AcDbEntity
  8
0
100
AcDbCircle
 62
7
  6
CONTINUOUS
 10
49.8073889884
 20
124.5498905908
 40
2.75
100
AcDbArc
 50
161.0018123528
 51
288.9981876472
  0
ARC
  5
243
100
AcDbEntity
  8
0
100
AcDbCircle
 62
7
  6
CONTINUOUS
 10
49.8073889884
 20
124.5498905908
 40
2.75
100
AcDbArc
 50
341.0018123528
 51
108.9981876472
  0
ARC
  5
244
100
AcDbEntity
  8
0
100
AcDbCircle
 62
7
  6
CONTINUOUS
 10
49.9073889884
 20
124.6498905908
 40
2.5000000008
100
AcDbArc
 50
154.253740459
 51
299.7777531118
  0
ARC
  5
245
100
AcDbEntity
  8
0
100
AcDbCircle
 62
7
  6
CONTINUOUS
 10
49.9073889884
 20
124.6498905908
 40
2.5000000008
100
AcDbArc
 50
329.3021353735
 51
119.7777538832
  0
ARC
  5
246
100
AcDbEntity
  8
0
100
AcDbCircle
 62
7
  6
CONTINUOUS
 10
49.7761758813
 20
124.6043057456
 40
1.6390508295
100
AcDbArc
 50
28.1221352355
 51
29.5358965089
  0
ARC
  5
247
100
AcDbEntity
  8
0
100
AcDbCircle
 62
7
  6
CONTINUOUS
 10
49.9063606075
 20
124.6722638998
 40
1.5273298136
100
AcDbArc
 50
257.4509281591
 51
259.0456063989
  0
ARC
  5
248
100
AcDbEntity
  8
0
100
AcDbCircle
 62
7
  6
CONTINUOUS
 10
49.9131560515
 20
124.6465585871
 40
1.5077960979
100
AcDbArc
 50
77.108123056
 51
85.2953298952
  0
ARC
  5
249
100
AcDbEntity
  8
0
100
AcDbCircle
 62
7
  6
CONTINUOUS
 10
49.9136104334
 20
124.6507879106
 40
1.5035437597
100
AcDbArc
 50
85.2993678432
 51
87.1145123549
  0
ARC
  5
24A
100
AcDbEntity
  8
0
100
AcDbCircle
 62
7
  6
CONTINUOUS
 10
49.9013008589
 20
124.6480572105
 40
1.5026027536
100
AcDbArc
 50
259.0596239393
 51
270.0189245706
  0
ARC
  5
24B
100
AcDbEntity
  8
0
100
AcDbCircle
 62
7
  6
CONTINUOUS
 10
49.9137336398
 20
124.653273126
 40
1.501055493
100
AcDbArc
 50
87.1144338969
 51
90.0286092357
  0
CIRCLE
  5
24C
100
AcDbEntity
  8
0
100
AcDbCircle
 62
7
  6
CONTINUOUS
 10
49.9073889884
 20
124.6498905908
 40
1.4995650337
  0
ARC
  5
24D
100
AcDbEntity
  8
0
100
AcDbCircle
 62
7
  6
CONTINUOUS
 10
50.6049576913
 20
122.2333448511
 40
0.3
100
AcDbArc
 50
288.9981876473
 51
22.5
  0
ARC
  5
24E
100
AcDbEntity
  8
0
100
AcDbCircle
 62
7
  6
CONTINUOUS
 10
47.4908432487
 20
125.3474592938
 40
0.3
100
AcDbArc
 50
67.5
 51
161.0018123527
  0
ARC
  5
24F
100
AcDbEntity
  8
0
100
AcDbCircle
 62
7
  6
CONTINUOUS
 10
49.0098202854
 20
126.8664363305
 40
0.3
100
AcDbArc
 50
108.9981876473
 51
187.5204420631
  0
ARC
  5
250
100
AcDbEntity
  8
0
100
AcDbCircle
 62
7
  6
CONTINUOUS
 10
52.123934728
 20
123.7523218879
 40
0.3
100
AcDbArc
 50
247.5
 51
341.0018123527
  0
ARC
  5
251
100
AcDbEntity
  8
0
100
AcDbCircle
 62
7
  6
CONTINUOUS
 10
48.2755381208
 20
125.5636241355
 40
0.2
100
AcDbArc
 50
247.4999999998
 51
315.000000001
  0
ARC
  5
252
100
AcDbEntity
  8
0
100
AcDbCircle
 62
7
  6
CONTINUOUS
 10
49.9706586071
 20
126.1831029128
 40
0.0644555398
100
AcDbArc
 50
206.5151574364
 51
213.3956671521
  0
ARC
  5
253
100
AcDbEntity
  8
0
100
AcDbCircle
 62
7
  6
CONTINUOUS
 10
49.8441195223
 20
123.1166783243
 40
0.0644553784
100
AcDbArc
 50
26.5151738873
 51
33.3961452187
  0
CIRCLE
  5
254
100
AcDbEntity
  8
0
100
AcDbCircle
 62
7
  6
CONTINUOUS
 10
59.9073889884
 20
134.6498905908
 40
1.5358390455
  0
CIRCLE
  5
255
100
AcDbEntity
  8
0
100
AcDbCircle
 62
7
  6
CONTINUOUS
 10
59.9073889884
 20
134.6498905908
 40
0.5359024189
  0
CIRCLE
  5
256
100
AcDbEntity
  8
0
100
AcDbCircle
 62
7
  6
CONTINUOUS
 10
59.9073889884
 20
134.6498905908
 40
0.25
  0
CIRCLE
  5
257
100
AcDbEntity
  8
0
100
AcDbCircle
 62
7
  6
CONTINUOUS
 10
55.9073889884
 20
155.6498905908
 40
2.5
  0
ARC
  5
258
100
AcDbEntity
  8
0
100
AcDbCircle
 62
7
  6
CONTINUOUS
 10
49.7761758671
 20
234.6043057391
 40
1.6390508451
100
AcDbArc
 50
28.1221350443
 51
29.5358965569
  0
ARC
  5
259
100
AcDbEntity
  8
0
100
AcDbCircle
 62
7
  6
CONTINUOUS
 10
47.4908432487
 20
233.9523218879
 40
0.3
100
AcDbArc
 50
198.9981876473
 51
292.5
  0
ARC
  5
25A
100
AcDbEntity
  8
0
100
AcDbCircle
 62
7
  6
CONTINUOUS
 10
49.0098202854
 20
232.4333448511
 40
0.3
100
AcDbArc
 50
173.3510917277
 51
251.0018123527
  0
ARC
  5
25B
100
AcDbEntity
  8
0
100
AcDbCircle
 62
7
  6
CONTINUOUS
 10
48.2755381208
 20
233.7361570461
 40
0.2
100
AcDbArc
 50
44.9999999991
 51
112.5000000001
  0
ARC
  5
25C
100
AcDbEntity
  8
0
100
AcDbCircle
 62
7
  6
CONTINUOUS
 10
48.7073889884
 20
235.8498905908
 40
7.0
100
AcDbArc
 50
280.6725180356
 51
347.3462019967
  0
ARC
  5
25D
100
AcDbEntity
  8
0
100
AcDbCircle
 62
7
  6
CONTINUOUS
 10
49.9073889884
 20
234.6498905908
 40
5.766336506
100
AcDbArc
 50
305.0741555355
 51
321.6195768033
  0
CIRCLE
  5
25E
100
AcDbEntity
  8
0
100
AcDbCircle
 62
7
  6
CONTINUOUS
 10
50.4073889884
 20
234.1498905908
 40
5.1
  0
ARC
  5
25F
100
AcDbEntity
  8
0
100
AcDbCircle
 62
7
  6
CONTINUOUS
 10
49.9073889884
 20
234.6498905908
 40
2.5000000008
100
AcDbArc
 50
120.819597744
 51
204.3062304631
  0
ARC
  5
260
100
AcDbEntity
  8
0
100
AcDbCircle
 62
7
  6
CONTINUOUS
 10
49.9073889884
 20
234.6498905908
 40
2.5000000008
100
AcDbArc
 50
240.5826086823
 51
299.7777531118
  0
ARC
  5
261
100
AcDbEntity
  8
0
100
AcDbCircle
 62
7
  6
CONTINUOUS
 10
49.9073889884
 20
234.6498905908
 40
2.5000000008
100
AcDbArc
 50
66.9049309424
 51
119.7777538832
  0
ARC
  5
262
100
AcDbEntity
  8
0
100
AcDbCircle
 62
7
  6
CONTINUOUS
 10
49.9073889884
 20
234.6498905908
 40
2.5000000008
100
AcDbArc
 50
300.7482692318
 51
28.3913627927
  0
ARC
  5
263
100
AcDbEntity
  8
0
100
AcDbCircle
 62
7
  6
CONTINUOUS
 10
49.829787341
 20
234.633853143
 40
1.5778405602
100
AcDbArc
 50
29.5620835468
 51
35.991870345
  0
ARC
  5
264
100
AcDbEntity
  8
0
100
AcDbCircle
 62
7
  6
CONTINUOUS
 10
49.9063606076
 20
234.6722639004
 40
1.5273298142
100
AcDbArc
 50
257.4509281594
 51
259.0456063988
  0
ARC
  5
265
100
AcDbEntity
  8
0
100
AcDbCircle
 62
7
  6
CONTINUOUS
 10
49.9131560515
 20
234.6465585883
 40
1.5077960967
100
AcDbArc
 50
77.1081230864
 51
85.2953298103
  0
ARC
  5
266
100
AcDbEntity
  8
0
100
AcDbCircle
 62
7
  6
CONTINUOUS
 10
49.9136104335
 20
234.6507879112
 40
1.5035437591
100
AcDbArc
 50
85.2993677599
 51
87.114512358
  0
ARC
  5
267
100
AcDbEntity
  8
0
100
AcDbCircle
 62
7
  6
CONTINUOUS
 10
49.9013008589
 20
234.6480572105
 40
1.5026027536
100
AcDbArc
 50
259.0596239395
 51
270.0189245705
  0
ARC
  5
268
100
AcDbEntity
  8
0
100
AcDbCircle
 62
7
  6
CONTINUOUS
 10
49.9137336398
 20
234.6532731253
 40
1.5010554937
100
AcDbArc
 50
87.1144339
 51
90.0286092364
  0
CIRCLE
  5
269
100
AcDbEntity
  8
0
100
AcDbCircle
 62
7
  6
CONTINUOUS
 10
49.9073889884
 20
234.6498905908
 40
1.4995650337
  0
ARC
  5
26A
100
AcDbEntity
  8
0
100
AcDbCircle
 62
7
  6
CONTINUOUS
 10
49.8441195223
 20
233.1166783243
 40
0.0644553784
100
AcDbArc
 50
26.5151738874
 51
33.3961452178
  0
ARC
  5
26B
100
AcDbEntity
  8
0
100
AcDbCircle
 62
7
  6
CONTINUOUS
 10
49.8073889884
 20
234.7498905908
 40
2.75
100
AcDbArc
 50
71.0018123528
 51
198.9981876472
  0
ARC
  5
26C
100
AcDbEntity
  8
0
100
AcDbCircle
 62
7
  6
CONTINUOUS
 10
49.8073889884
 20
234.7498905908
 40
2.75
100
AcDbArc
 50
251.0018123528
 51
18.9981876472
  0
ARC
  5
26D
100
AcDbEntity
  8
0
100
AcDbCircle
 62
7
  6
CONTINUOUS
 10
50.6049576913
 20
237.0664363305
 40
0.3
100
AcDbArc
 50
337.4999999999
 51
71.0018123527
  0
ARC
  5
26E
100
AcDbEntity
  8
0
100
AcDbCircle
 62
7
  6
CONTINUOUS
 10
52.123934728
 20
235.5474592938
 40
0.3
100
AcDbArc
 50
18.9981876473
 51
112.5
  0
ARC
  5
26F
100
AcDbEntity
  8
0
100
AcDbCircle
 62
7
  6
CONTINUOUS
 10
49.9706586071
 20
236.1831029128
 40
0.0644555397
100
AcDbArc
 50
206.5151574362
 51
213.3956671522
  0
CIRCLE
  5
270
100
AcDbEntity
  8
0
100
AcDbCircle
 62
7
  6
CONTINUOUS
 10
59.9073889884
 20
224.6498905908
 40
1.5358372021
  0
CIRCLE
  5
271
100
AcDbEntity
  8
0
100
AcDbCircle
 62
7
  6
CONTINUOUS
 10
59.9073889884
 20
224.6498905908
 40
0.5359024649
  0
CIRCLE
  5
272
100
AcDbEntity
  8
0
100
AcDbCircle
 62
7
  6
CONTINUOUS
 10
59.9073889884
 20
224.6498905908
 40
0.25
  0
CIRCLE
  5
273
100
AcDbEntity
  8
0
100
AcDbCircle
 62
7
  6
CONTINUOUS
 10
199.9073889884
 20
134.6498905908
 40
1.5358372021
  0
CIRCLE
  5
274
100
AcDbEntity
  8
0
100
AcDbCircle
 62
7
  6
CONTINUOUS
 10
199.9073889884
 20
134.6498905908
 40
0.5359024649
  0
CIRCLE
  5
275
100
AcDbEntity
  8
0
100
AcDbCircle
 62
7
  6
CONTINUOUS
 10
199.9073889884
 20
134.6498905908
 40
0.25
  0
ARC
  5
276
100
AcDbEntity
  8
0
100
AcDbCircle
 62
7
  6
CONTINUOUS
 10
209.2098202854
 20
122.2333448511
 40
0.3
100
AcDbArc
 50
157.4999999999
 51
251.0018123527
  0
ARC
  5
277
100
AcDbEntity
  8
0
100
AcDbCircle
 62
7
  6
CONTINUOUS
 10
207.6908432487
 20
123.7523218879
 40
0.3
100
AcDbArc
 50
198.9981876473
 51
292.5
  0
ARC
  5
278
100
AcDbEntity
  8
0
100
AcDbCircle
 62
7
  6
CONTINUOUS
 10
209.8441195223
 20
123.1166783243
 40
0.0644553784
100
AcDbArc
 50
26.5151738858
 51
33.3961452189
  0
ARC
  5
279
100
AcDbEntity
  8
0
100
AcDbCircle
 62
7
  6
CONTINUOUS
 10
209.9073889884
 20
124.6498905908
 40
5.766336506
100
AcDbArc
 50
125.0741555355
 51
141.6195768033
  0
CIRCLE
  5
27A
100
AcDbEntity
  8
0
100
AcDbCircle
 62
7
  6
CONTINUOUS
 10
209.4073889884
 20
125.1498905908
 40
5.1
  0
ARC
  5
27B
100
AcDbEntity
  8
0
100
AcDbCircle
 62
7
  6
CONTINUOUS
 10
209.9073889884
 20
124.6498905908
 40
2.5000000008
100
AcDbArc
 50
120.8195977441
 51
208.9333276623
  0
ARC
  5
27C
100
AcDbEntity
  8
0
100
AcDbCircle
 62
7
  6
CONTINUOUS
 10
209.9073889884
 20
124.6498905908
 40
2.5000000008
100
AcDbArc
 50
245.8780093934
 51
299.7777531118
  0
ARC
  5
27D
100
AcDbEntity
  8
0
100
AcDbCircle
 62
7
  6
CONTINUOUS
 10
209.9073889884
 20
124.6498905908
 40
2.5000000008
100
AcDbArc
 50
60.7746746523
 51
119.7777538832
  0
ARC
  5
27E
100
AcDbEntity
  8
0
100
AcDbCircle
 62
7
  6
CONTINUOUS
 10
209.9073889884
 20
124.6498905908
 40
2.5000000008
100
AcDbArc
 50
300.748269232
 51
23.0796006247
  0
ARC
  5
27F
100
AcDbEntity
  8
0
100
AcDbCircle
 62
7
  6
CONTINUOUS
 10
209.7761759298
 20
124.604305768
 40
1.6390507764
100
AcDbArc
 50
28.1221358996
 51
29.5358963421
  0
ARC
  5
280
100
AcDbEntity
  8
0
100
AcDbCircle
 62
7
  6
CONTINUOUS
 10
209.9779340985
 20
124.6569773055
 40
1.5670162133
100
AcDbArc
 50
210.4733931664
 51
215.5461804491
  0
ARC
  5
281
100
AcDbEntity
  8
0
100
AcDbCircle
 62
7
  6
CONTINUOUS
 10
209.9063606076
 20
124.6722639
 40
1.5273298138
100
AcDbArc
 50
257.4509281593
 51
259.0456063989
  0
ARC
  5
282
100
AcDbEntity
  8
0
100
AcDbCircle
 62
7
  6
CONTINUOUS
 10
209.9131560512
 20
124.6465585831
 40
1.5077961019
100
AcDbArc
 50
77.1081229507
 51
85.2953301899
  0
ARC
  5
283
100
AcDbEntity
  8
0
100
AcDbCircle
 62
7
  6
CONTINUOUS
 10
209.9136104331
 20
124.650787909
 40
1.5035437613
100
AcDbArc
 50
85.2993681323
 51
87.1145123442
  0
ARC
  5
284
100
AcDbEntity
  8
0
100
AcDbCircle
 62
7
  6
CONTINUOUS
 10
209.9013008589
 20
124.6480572105
 40
1.5026027536
100
AcDbArc
 50
259.0596239394
 51
270.0189245706
  0
ARC
  5
285
100
AcDbEntity
  8
0
100
AcDbCircle
 62
7
  6
CONTINUOUS
 10
209.9137336398
 20
124.6532731288
 40
1.5010554902
100
AcDbArc
 50
87.1144338857
 51
90.0286092334
  0
CIRCLE
  5
286
100
AcDbEntity
  8
0
100
AcDbCircle
 62
7
  6
CONTINUOUS
 10
209.9073889884
 20
124.6498905908
 40
1.4995650337
  0
ARC
  5
287
100
AcDbEntity
  8
0
100
AcDbCircle
 62
7
  6
CONTINUOUS
 10
209.9706586071
 20
126.1831029128
 40
0.0644555398
100
AcDbArc
 50
206.5151574367
 51
213.3956671519
  0
ARC
  5
288
100
AcDbEntity
  8
0
100
AcDbCircle
 62
7
  6
CONTINUOUS
 10
211.1073889884
 20
123.4498905908
 40
7.0
100
AcDbArc
 50
100.6725180356
 51
167.3462019967
  0
ARC
  5
289
100
AcDbEntity
  8
0
100
AcDbCircle
 62
7
  6
CONTINUOUS
 10
210.0073889884
 20
124.5498905908
 40
2.75
100
AcDbArc
 50
251.0018123528
 51
18.9981876472
  0
ARC
  5
28A
100
AcDbEntity
  8
0
100
AcDbCircle
 62
7
  6
CONTINUOUS
 10
210.0073889884
 20
124.5498905908
 40
2.75
100
AcDbArc
 50
71.0018123528
 51
198.9981876472
  0
ARC
  5
28B
100
AcDbEntity
  8
0
100
AcDbCircle
 62
7
  6
CONTINUOUS
 10
212.323934728
 20
125.3474592938
 40
0.3
100
AcDbArc
 50
18.9981876473
 51
112.5
  0
ARC
  5
28C
100
AcDbEntity
  8
0
100
AcDbCircle
 62
7
  6
CONTINUOUS
 10
210.8049576913
 20
126.8664363305
 40
0.3
100
AcDbArc
 50
353.022867864
 51
71.0018123527
  0
ARC
  5
28D
100
AcDbEntity
  8
0
100
AcDbCircle
 62
7
  6
CONTINUOUS
 10
211.5392398559
 20
125.5636241355
 40
0.2
100
AcDbArc
 50
224.9999999991
 51
292.5000000001
  0
CIRCLE
  5
28E
100
AcDbEntity
  8
0
100
AcDbCircle
 62
7
  6
CONTINUOUS
 10
199.9073889884
 20
224.6498905908
 40
1.5358390455
  0
CIRCLE
  5
28F
100
AcDbEntity
  8
0
100
AcDbCircle
 62
7
  6
CONTINUOUS
 10
199.9073889884
 20
224.6498905908
 40
0.5359024189
  0
CIRCLE
  5
290
100
AcDbEntity
  8
0
100
AcDbCircle
 62
7
  6
CONTINUOUS
 10
199.9073889884
 20
224.6498905908
 40
0.25
  0
ARC
  5
291
100
AcDbEntity
  8
0
100
AcDbCircle
 62
7
  6
CONTINUOUS
 10
211.1073889884
 20
235.8498905908
 40
7.0
100
AcDbArc
 50
192.6537686964
 51
259.2336810197
  0
ARC
  5
292
100
AcDbEntity
  8
0
100
AcDbCircle
 62
7
  6
CONTINUOUS
 10
209.9073889884
 20
234.6498905908
 40
5.766336506
100
AcDbArc
 50
218.6078630824
 51
234.8053868706
  0
CIRCLE
  5
293
100
AcDbEntity
  8
0
100
AcDbCircle
 62
7
  6
CONTINUOUS
 10
209.4073889884
 20
234.1498905908
 40
5.1
  0
ARC
  5
294
100
AcDbEntity
  8
0
100
AcDbCircle
 62
7
  6
CONTINUOUS
 10
210.0073889884
 20
234.7498905908
 40
2.75
100
AcDbArc
 50
341.0018123528
 51
108.9981876472
  0
ARC
  5
295
100
AcDbEntity
  8
0
100
AcDbCircle
 62
7
  6
CONTINUOUS
 10
210.0073889884
 20
234.7498905908
 40
2.75
100
AcDbArc
 50
161.0018123528
 51
288.9981876472
  0
ARC
  5
296
100
AcDbEntity
  8
0
100
AcDbCircle
 62
7
  6
CONTINUOUS
 10
209.9073889884
 20
234.6498905908
 40
2.5000000008
100
AcDbArc
 50
334.253740459
 51
119.7777531118
  0
ARC
  5
297
100
AcDbEntity
  8
0
100
AcDbCircle
 62
7
  6
CONTINUOUS
 10
209.9073889884
 20
234.6498905908
 40
2.5000000008
100
AcDbArc
 50
149.3021353735
 51
299.7777538832
  0
ARC
  5
298
100
AcDbEntity
  8
0
100
AcDbCircle
 62
7
  6
CONTINUOUS
 10
210.0386020952
 20
234.6954754359
 40
1.6390508294
100
AcDbArc
 50
208.1221352354
 51
209.535896509
  0
ARC
  5
299
100
AcDbEntity
  8
0
100
AcDbCircle
 62
7
  6
CONTINUOUS
 10
209.9084173691
 20
234.6275172815
 40
1.527329814
100
AcDbArc
 50
77.4509281593
 51
79.0456063988
  0
ARC
  5
29A
100
AcDbEntity
  8
0
100
AcDbCircle
 62
7
  6
CONTINUOUS
 10
209.9016219252
 20
234.6532225945
 40
1.5077960979
100
AcDbArc
 50
257.108123056
 51
265.2953298952
  0
ARC
  5
29B
100
AcDbEntity
  8
0
100
AcDbCircle
 62
7
  6
CONTINUOUS
 10
209.9011675433
 20
234.6489932712
 40
1.5035437599
100
AcDbArc
 50
265.2993678434
 51
267.1145123549
  0
ARC
  5
29C
100
AcDbEntity
  8
0
100
AcDbCircle
 62
7
  6
CONTINUOUS
 10
209.9134771178
 20
234.6517239711
 40
1.5026027536
100
AcDbArc
 50
79.0596239394
 51
90.0189245705
  0
ARC
  5
29D
100
AcDbEntity
  8
0
100
AcDbCircle
 62
7
  6
CONTINUOUS
 10
209.9010443369
 20
234.6465080557
 40
1.5010554931
100
AcDbArc
 50
267.114433897
 51
270.0286092356
  0
CIRCLE
  5
29E
100
AcDbEntity
  8
0
100
AcDbCircle
 62
7
  6
CONTINUOUS
 10
209.9073889884
 20
234.6498905908
 40
1.4995650337
  0
ARC
  5
29F
100
AcDbEntity
  8
0
100
AcDbCircle
 62
7
  6
CONTINUOUS
 10
209.2098202854
 20
237.0664363305
 40
0.3
100
AcDbArc
 50
108.9981876473
 51
202.5
  0
ARC
  5
2A0
100
AcDbEntity
  8
0
100
AcDbCircle
 62
7
  6
CONTINUOUS
 10
212.323934728
 20
233.9523218879
 40
0.3
100
AcDbArc
 50
247.5
 51
341.0018123527
  0
ARC
  5
2A1
100
AcDbEntity
  8
0
100
AcDbCircle
 62
7
  6
CONTINUOUS
 10
210.8049576913
 20
232.4333448511
 40
0.3
100
AcDbArc
 50
288.9981876473
 51
7.5204420631
  0
ARC
  5
2A2
100
AcDbEntity
  8
0
100
AcDbCircle
 62
7
  6
CONTINUOUS
 10
207.6908432487
 20
235.5474592938
 40
0.3
100
AcDbArc
 50
67.5
 51
161.0018123527
  0
ARC
  5
2A3
100
AcDbEntity
  8
0
100
AcDbCircle
 62
7
  6
CONTINUOUS
 10
211.5392398559
 20
233.7361570461
 40
0.2
100
AcDbArc
 50
67.4999999998
 51
135.000000001
  0
ARC
  5
2A4
100
AcDbEntity
  8
0
100
AcDbCircle
 62
7
  6
CONTINUOUS
 10
209.8441193696
 20
233.1166782688
 40
0.0644555398
100
AcDbArc
 50
26.5151574373
 51
33.3956671514
  0
ARC
  5
2A5
100
AcDbEntity
  8
0
100
AcDbCircle
 62
7
  6
CONTINUOUS
 10
209.9706584544
 20
236.1831028573
 40
0.0644553784
100
AcDbArc
 50
206.5151738852
 51
213.3961452194
  0
SPLINE
  5
2A6
100
AcDbEntity
  8
0
100
AcDbSpline
 62
7
  6
CONTINUOUS
 70
0
 71
3
 72
15
 73
11
 74
0
 42
0.0000001
 43
0.0000001
 44
0.0000000001
 40
0.0
 40
0.0
 40
0.0
 40
0.0
 40
0.1478071299
 40
0.2909314446
 40
0.4264705894
 40
0.5534799669
 40
0.6727115174
 40
0.7857586798
 40
0.8943476691
 40
1.0
 40
1.0
 40
1.0
 40
1.0
 10
48.5189134084
 20
125.1947824684
 30
0.0
 10
48.4799636977
 20
125.2752345462
 30
0.0
 10
48.403437126
 20
125.4337064342
 30
0.0
 10
48.3110902609
 20
125.675133216
 30
0.0
 10
48.2578492922
 20
125.9158593072
 30
0.0
 10
48.2519515279
 20
126.1483398313
 30
0.0
 10
48.2944042832
 20
126.3633688871
 30
0.0
 10
48.3812609542
 20
126.5525209476
 30
0.0
 10
48.5058208053
 20
126.7087591829
 30
0.0
 10
48.61033545
 20
126.7880520238
 30
0.0
 10
48.6657909885
 20
126.8197833095
 30
0.0
  0
SPLINE
  5
2A7
100
AcDbEntity
  8
0
100
AcDbSpline
 62
7
  6
CONTINUOUS
 70
0
 71
3
 72
15
 73
11
 74
0
 42
0.0000001
 43
0.0000001
 44
0.0000000001
 40
0.0
 40
0.0
 40
0.0
 40
0.0
 40
0.1478072939
 40
0.2909317809
 40
0.4264711078
 40
0.5534806713
 40
0.6727124037
 40
0.7857597458
 40
0.8943489864
 40
1.0
 40
1.0
 40
1.0
 40
1.0
 10
51.2958645684
 20
124.1049987132
 30
0.0
 10
51.3348142174
 20
124.0245467627
 30
0.0
 10
51.4113406719
 20
123.8660751186
 30
0.0
 10
51.5036874618
 20
123.6246487196
 30
0.0
 10
51.5569285158
 20
123.3839229988
 30
0.0
 10
51.5628265427
 20
123.1514427751
 30
0.0
 10
51.5203741785
 20
122.9364139258
 30
0.0
 10
51.4335180201
 20
122.7472618011
 30
0.0
 10
51.3089590437
 20
122.5910243392
 30
0.0
 10
51.2044458784
 20
122.5117312199
 30
0.0
 10
51.1489912428
 20
122.4800003066
 30
0.0
  0
SPLINE
  5
2A8
100
AcDbEntity
  8
0
100
AcDbSpline
 62
7
  6
CONTINUOUS
 70
0
 71
3
 72
18
 73
14
 74
0
 42
0.0000001
 43
0.0000001
 44
0.0000000001
 40
0.0
 40
0.0
 40
0.0
 40
0.0
 40
0.1126072651
 40
0.2175019141
 40
0.2677955359
 40
0.3174871004
 40
0.3679163939
 40
0.420836772
 40
0.5398692912
 40
0.6077457436
 40
0.6804664442
 40
0.836381148
 40
1.0
 40
1.0
 40
1.0
 40
1.0
 10
49.6838553936
 20
122.1599040977
 30
0.0
 10
49.7343297828
 20
122.1553728596
 30
0.0
 10
49.833131784
 20
122.1564246878
 30
0.0
 10
49.9511490921
 20
122.190078255
 30
0.0
 10
50.0300646256
 20
122.2388680347
 30
0.0
 10
50.0792648524
 20
122.2862027088
 30
0.0
 10
50.1166493439
 20
122.344857863
 30
0.0
 10
50.1487656295
 20
122.4406423287
 30
0.0
 10
50.1458840329
 20
122.5515996838
 30
0.0
 10
50.119071152
 20
122.6652704863
 30
0.0
 10
50.0752825367
 20
122.7915939435
 30
0.0
 10
50.0003746931
 20
122.9516955558
 30
0.0
 10
49.9346215062
 20
123.0795408735
 30
0.0
 10
49.9017952366
 20
123.1454534487
 30
0.0
  0
SPLINE
  5
2A9
100
AcDbEntity
  8
0
100
AcDbSpline
 62
7
  6
CONTINUOUS
 70
0
 71
3
 72
18
 73
14
 74
0
 42
0.0000001
 43
0.0000001
 44
0.0000000001
 40
0.0
 40
0.0
 40
0.0
 40
0.0
 40
0.1126060661
 40
0.2175008658
 40
0.2677945317
 40
0.3174861477
 40
0.3679155128
 40
0.4208359825
 40
0.5398687189
 40
0.6077452784
 40
0.6804660804
 40
0.8363809714
 40
1.0
 40
1.0
 40
1.0
 40
1.0
 10
50.130919511
 20
127.1398773597
 30
0.0
 10
50.0804457688
 20
127.1444084769
 30
0.0
 10
49.9816444817
 20
127.1433560374
 30
0.0
 10
49.8636279444
 20
127.1097025367
 30
0.0
 10
49.7847126253
 20
127.0609125829
 30
0.0
 10
49.7355125959
 20
127.013577821
 30
0.0
 10
49.6981283032
 20
126.9549226133
 30
0.0
 10
49.6660122758
 20
126.8591381262
 30
0.0
 10
49.6688940383
 20
126.7481808546
 30
0.0
 10
49.6957069913
 20
126.6345101461
 30
0.0
 10
49.7394956218
 20
126.5081868295
 30
0.0
 10
49.8144034003
 20
126.3480854022
 30
0.0
 10
49.88015651
 20
126.220240229
 30
0.0
 10
49.9129827401
 20
126.154327733
 30
0.0
  0
SPLINE
  5
2AA
100
AcDbEntity
  8
0
100
AcDbSpline
 62
7
  6
CONTINUOUS
 70
0
 71
3
 72
17
 73
13
 74
0
 42
0.0000001
 43
0.0000001
 44
0.0000000001
 40
0.0
 40
0.0
 40
0.0
 40
0.0
 40
0.1000739657
 40
0.2001729099
 40
0.3020658211
 40
0.3526266274
 40
0.4024333862
 40
0.4541715239
 40
0.5115123319
 40
0.6487723566
 40
0.8130219935
 40
1.0
 40
1.0
 40
1.0
 40
1.0
 10
50.2495633307
 20
126.1163474207
 30
0.0
 10
50.2892765654
 20
126.1072532013
 30
0.0
 10
50.3680212737
 20
126.0858112281
 30
0.0
 10
50.4836290439
 20
126.0435928874
 30
0.0
 10
50.5779123519
 20
126.0024157943
 30
0.0
 10
50.6517769098
 20
125.9660006074
 30
0.0
 10
50.706327887
 20
125.9366494248
 30
0.0
 10
50.7614137081
 20
125.9026495105
 30
0.0
 10
50.8429498963
 20
125.8441454078
 30
0.0
 10
50.9529377127
 20
125.7473390654
 30
0.0
 10
51.0849696287
 20
125.5979581912
 30
0.0
 10
51.1646970384
 20
125.4785324469
 30
0.0
 10
51.2022271642
 20
125.4123065874
 30
0.0
  0
SPLINE
  5
2AB
100
AcDbEntity
  8
0
100
AcDbSpline
 62
7
  6
CONTINUOUS
 70
0
 71
3
 72
17
 73
13
 74
0
 42
0.0000001
 43
0.0000001
 44
0.0000000001
 40
0.0
 40
0.0
 40
0.0
 40
0.0
 40
0.187078123
 40
0.3495850462
 40
0.420899119
 40
0.4852731971
 40
0.5417551172
 40
0.5932065649
 40
0.6951252499
 40
0.7975483245
 40
0.898887528
 40
1.0
 40
1.0
 40
1.0
 40
1.0
 10
48.6273780512
 20
123.8622835432
 30
0.0
 10
48.6654160593
 20
123.7977186609
 30
0.0
 10
48.7451198391
 20
123.6818697295
 30
0.0
 10
48.8594892039
 20
123.5573205522
 30
0.0
 10
48.9482606252
 20
123.4773232452
 30
0.0
 10
49.0082178582
 20
123.4289772187
 30
0.0
 10
49.0646492033
 20
123.3891399266
 30
0.0
 10
49.1368189801
 20
123.3458840169
 30
0.0
 10
49.2294057197
 20
123.3017448913
 30
0.0
 10
49.3411698488
 20
123.2516569298
 30
0.0
 10
49.4564670421
 20
123.2109210665
 30
0.0
 10
49.5349743743
 20
123.1902209462
 30
0.0
 10
49.5745089562
 20
123.1814215738
 30
0.0
  0
SPLINE
  5
2AC
100
AcDbEntity
  8
0
100
AcDbSpline
 62
7
  6
CONTINUOUS
 70
0
 71
3
 72
15
 73
11
 74
0
 42
0.0000001
 43
0.0000001
 44
0.0000000001
 40
0.0
 40
0.0
 40
0.0
 40
0.0
 40
0.1478071299
 40
0.2909314446
 40
0.4264705894
 40
0.5534799669
 40
0.6727115174
 40
0.7857586798
 40
0.8943476691
 40
1.0
 40
1.0
 40
1.0
 40
1.0
 10
48.5189134084
 20
235.1947824684
 30
0.0
 10
48.4799636977
 20
235.2752345462
 30
0.0
 10
48.403437126
 20
235.4337064342
 30
0.0
 10
48.3110902609
 20
235.675133216
 30
0.0
 10
48.2578492922
 20
235.9158593072
 30
0.0
 10
48.2519515279
 20
236.1483398313
 30
0.0
 10
48.2944042832
 20
236.3633688871
 30
0.0
 10
48.3812609542
 20
236.5525209476
 30
0.0
 10
48.5058208053
 20
236.7087591829
 30
0.0
 10
48.61033545
 20
236.7880520238
 30
0.0
 10
48.6657909885
 20
236.8197833095
 30
0.0
  0
SPLINE
  5
2AD
100
AcDbEntity
  8
0
100
AcDbSpline
 62
7
  6
CONTINUOUS
 70
0
 71
3
 72
15
 73
11
 74
0
 42
0.0000001
 43
0.0000001
 44
0.0000000001
 40
0.0
 40
0.0
 40
0.0
 40
0.0
 40
0.1478072939
 40
0.2909317809
 40
0.4264711078
 40
0.5534806713
 40
0.6727124037
 40
0.7857597458
 40
0.8943489864
 40
1.0
 40
1.0
 40
1.0
 40
1.0
 10
51.2958645684
 20
234.1049987132
 30
0.0
 10
51.3348142174
 20
234.0245467627
 30
0.0
 10
51.4113406719
 20
233.8660751186
 30
0.0
 10
51.5036874618
 20
233.6246487196
 30
0.0
 10
51.5569285158
 20
233.3839229988
 30
0.0
 10
51.5628265427
 20
233.1514427751
 30
0.0
 10
51.5203741785
 20
232.9364139258
 30
0.0
 10
51.4335180201
 20
232.7472618011
 30
0.0
 10
51.3089590437
 20
232.5910243392
 30
0.0
 10
51.2044458784
 20
232.5117312199
 30
0.0
 10
51.1489912428
 20
232.4800003066
 30
0.0
  0
SPLINE
  5
2AE
100
AcDbEntity
  8
0
100
AcDbSpline
 62
7
  6
CONTINUOUS
 70
0
 71
3
 72
18
 73
14
 74
0
 42
0.0000001
 43
0.0000001
 44
0.0000000001
 40
0.0
 40
0.0
 40
0.0
 40
0.0
 40
0.1126072651
 40
0.2175019141
 40
0.2677955359
 40
0.3174871004
 40
0.3679163939
 40
0.420836772
 40
0.5398692912
 40
0.6077457436
 40
0.6804664442
 40
0.836381148
 40
1.0
 40
1.0
 40
1.0
 40
1.0
 10
49.6838553936
 20
232.1599040977
 30
0.0
 10
49.7343297828
 20
232.1553728596
 30
0.0
 10
49.833131784
 20
232.1564246878
 30
0.0
 10
49.9511490921
 20
232.190078255
 30
0.0
 10
50.0300646256
 20
232.2388680347
 30
0.0
 10
50.0792648524
 20
232.2862027088
 30
0.0
 10
50.1166493439
 20
232.344857863
 30
0.0
 10
50.1487656295
 20
232.4406423287
 30
0.0
 10
50.1458840329
 20
232.5515996838
 30
0.0
 10
50.119071152
 20
232.6652704863
 30
0.0
 10
50.0752825367
 20
232.7915939435
 30
0.0
 10
50.0003746931
 20
232.9516955558
 30
0.0
 10
49.9346215062
 20
233.0795408735
 30
0.0
 10
49.9017952366
 20
233.1454534487
 30
0.0
  0
SPLINE
  5
2AF
100
AcDbEntity
  8
0
100
AcDbSpline
 62
7
  6
CONTINUOUS
 70
0
 71
3
 72
18
 73
14
 74
0
 42
0.0000001
 43
0.0000001
 44
0.0000000001
 40
0.0
 40
0.0
 40
0.0
 40
0.0
 40
0.1126060661
 40
0.2175008658
 40
0.2677945317
 40
0.3174861477
 40
0.3679155128
 40
0.4208359825
 40
0.5398687189
 40
0.6077452784
 40
0.6804660804
 40
0.8363809714
 40
1.0
 40
1.0
 40
1.0
 40
1.0
 10
50.130919511
 20
237.1398773597
 30
0.0
 10
50.0804457688
 20
237.1444084769
 30
0.0
 10
49.9816444817
 20
237.1433560374
 30
0.0
 10
49.8636279444
 20
237.1097025367
 30
0.0
 10
49.7847126253
 20
237.0609125829
 30
0.0
 10
49.7355125959
 20
237.013577821
 30
0.0
 10
49.6981283032
 20
236.9549226133
 30
0.0
 10
49.6660122758
 20
236.8591381262
 30
0.0
 10
49.6688940383
 20
236.7481808546
 30
0.0
 10
49.6957069913
 20
236.6345101461
 30
0.0
 10
49.7394956218
 20
236.5081868295
 30
0.0
 10
49.8144034003
 20
236.3480854022
 30
0.0
 10
49.88015651
 20
236.220240229
 30
0.0
 10
49.9129827401
 20
236.154327733
 30
0.0
  0
SPLINE
  5
2B0
100
AcDbEntity
  8
0
100
AcDbSpline
 62
7
  6
CONTINUOUS
 70
0
 71
3
 72
15
 73
11
 74
0
 42
0.0000001
 43
0.0000001
 44
0.0000000001
 40
0.0
 40
0.0
 40
0.0
 40
0.0
 40
0.1058550564
 40
0.2115386518
 40
0.3189372628
 40
0.4260072314
 40
0.5337537975
 40
0.6622553084
 40
0.818593694
 40
1.0
 40
1.0
 40
1.0
 40
1.0
 10
50.2495633297
 20
236.1163474209
 30
0.0
 10
50.2854858713
 20
236.1081212597
 30
0.0
 10
50.3567047151
 20
236.0890382847
 30
0.0
 10
50.4615244833
 20
236.0521513629
 30
0.0
 10
50.5642760418
 20
236.0088327858
 30
0.0
 10
50.6653882932
 20
235.9601383425
 30
0.0
 10
50.7689207922
 20
235.8999574859
 30
0.0
 10
50.877356725
 20
235.8161571224
 30
0.0
 10
50.9945443975
 20
235.7034258813
 30
0.0
 10
51.0693158232
 20
235.6122102056
 30
0.0
 10
51.1064187483
 20
235.5611034239
 30
0.0
  0
SPLINE
  5
2B1
100
AcDbEntity
  8
0
100
AcDbSpline
 62
7
  6
CONTINUOUS
 70
0
 71
3
 72
10
 73
6
 74
0
 42
0.0000001
 43
0.0000001
 44
0.0000000001
 40
0.0
 40
0.0
 40
0.0
 40
0.0
 40
0.2919815498
 40
0.6802979808
 40
1.0
 40
1.0
 40
1.0
 40
1.0
 10
48.6273780513
 20
233.8622835431
 30
0.0
 10
48.6557775393
 20
233.8140788738
 30
0.0
 10
48.7278434133
 20
233.7051126489
 30
0.0
 10
48.8538328628
 20
233.5598248265
 30
0.0
 10
48.9559358173
 20
233.4698385443
 30
0.0
 10
49.0046342848
 20
233.4326733023
 30
0.0
  0
SPLINE
  5
2B2
100
AcDbEntity
  8
0
100
AcDbSpline
 62
7
  6
CONTINUOUS
 70
0
 71
3
 72
14
 73
10
 74
0
 42
0.0000001
 43
0.0000001
 44
0.0000000001
 40
0.0
 40
0.0
 40
0.0
 40
0.0
 40
0.1367632005
 40
0.2603068151
 40
0.3839667101
 40
0.5083256862
 40
0.6321512584
 40
0.7550181819
 40
1.0
 40
1.0
 40
1.0
 40
1.0
 10
49.0046342848
 20
233.4326733023
 30
0.0
 10
49.0273491581
 20
233.4153379772
 30
0.0
 10
49.0718417784
 20
233.3839044243
 30
0.0
 10
49.141581716
 20
233.3440621304
 30
0.0
 10
49.211508429
 20
233.3102897509
 30
0.0
 10
49.2821688674
 20
233.2779997574
 30
0.0
 10
49.3535886946
 20
233.2477728582
 30
0.0
 10
49.4502789094
 20
233.2129639446
 30
0.0
 10
49.5245471922
 20
233.1925417664
 30
0.0
 10
49.5745089562
 20
233.1814215738
 30
0.0
  0
SPLINE
  5
2B3
100
AcDbEntity
  8
0
100
AcDbSpline
 62
7
  6
CONTINUOUS
 70
0
 71
3
 72
15
 73
11
 74
0
 42
0.0000001
 43
0.0000001
 44
0.0000000001
 40
0.0
 40
0.0
 40
0.0
 40
0.0
 40
0.1478071299
 40
0.2909314446
 40
0.4264705894
 40
0.5534799669
 40
0.6727115174
 40
0.7857586798
 40
0.8943476691
 40
1.0
 40
1.0
 40
1.0
 40
1.0
 10
208.5189134084
 20
125.1947824684
 30
0.0
 10
208.4799636977
 20
125.2752345462
 30
0.0
 10
208.403437126
 20
125.4337064342
 30
0.0
 10
208.3110902609
 20
125.675133216
 30
0.0
 10
208.2578492922
 20
125.9158593072
 30
0.0
 10
208.2519515279
 20
126.1483398313
 30
0.0
 10
208.2944042832
 20
126.3633688871
 30
0.0
 10
208.3812609542
 20
126.5525209476
 30
0.0
 10
208.5058208053
 20
126.7087591829
 30
0.0
 10
208.61033545
 20
126.7880520238
 30
0.0
 10
208.6657909885
 20
126.8197833095
 30
0.0
  0
SPLINE
  5
2B4
100
AcDbEntity
  8
0
100
AcDbSpline
 62
7
  6
CONTINUOUS
 70
0
 71
3
 72
15
 73
11
 74
0
 42
0.0000001
 43
0.0000001
 44
0.0000000001
 40
0.0
 40
0.0
 40
0.0
 40
0.0
 40
0.1478072939
 40
0.2909317809
 40
0.4264711078
 40
0.5534806713
 40
0.6727124037
 40
0.7857597458
 40
0.8943489864
 40
1.0
 40
1.0
 40
1.0
 40
1.0
 10
211.2958645684
 20
124.1049987132
 30
0.0
 10
211.3348142174
 20
124.0245467627
 30
0.0
 10
211.4113406719
 20
123.8660751186
 30
0.0
 10
211.5036874618
 20
123.6246487196
 30
0.0
 10
211.5569285158
 20
123.3839229988
 30
0.0
 10
211.5628265427
 20
123.1514427751
 30
0.0
 10
211.5203741785
 20
122.9364139258
 30
0.0
 10
211.4335180201
 20
122.7472618011
 30
0.0
 10
211.3089590437
 20
122.5910243392
 30
0.0
 10
211.2044458784
 20
122.5117312199
 30
0.0
 10
211.1489912428
 20
122.4800003066
 30
0.0
  0
SPLINE
  5
2B5
100
AcDbEntity
  8
0
100
AcDbSpline
 62
7
  6
CONTINUOUS
 70
0
 71
3
 72
18
 73
14
 74
0
 42
0.0000001
 43
0.0000001
 44
0.0000000001
 40
0.0
 40
0.0
 40
0.0
 40
0.0
 40
0.1126072651
 40
0.2175019141
 40
0.2677955359
 40
0.3174871004
 40
0.3679163939
 40
0.420836772
 40
0.5398692912
 40
0.6077457436
 40
0.6804664442
 40
0.836381148
 40
1.0
 40
1.0
 40
1.0
 40
1.0
 10
209.6838553936
 20
122.1599040977
 30
0.0
 10
209.7343297828
 20
122.1553728596
 30
0.0
 10
209.833131784
 20
122.1564246878
 30
0.0
 10
209.9511490921
 20
122.190078255
 30
0.0
 10
210.0300646256
 20
122.2388680347
 30
0.0
 10
210.0792648524
 20
122.2862027088
 30
0.0
 10
210.1166493439
 20
122.344857863
 30
0.0
 10
210.1487656295
 20
122.4406423287
 30
0.0
 10
210.1458840329
 20
122.5515996838
 30
0.0
 10
210.119071152
 20
122.6652704863
 30
0.0
 10
210.0752825367
 20
122.7915939435
 30
0.0
 10
210.0003746931
 20
122.9516955558
 30
0.0
 10
209.9346215062
 20
123.0795408735
 30
0.0
 10
209.9017952366
 20
123.1454534487
 30
0.0
  0
SPLINE
  5
2B6
100
AcDbEntity
  8
0
100
AcDbSpline
 62
7
  6
CONTINUOUS
 70
0
 71
3
 72
18
 73
14
 74
0
 42
0.0000001
 43
0.0000001
 44
0.0000000001
 40
0.0
 40
0.0
 40
0.0
 40
0.0
 40
0.1126060661
 40
0.2175008658
 40
0.2677945317
 40
0.3174861477
 40
0.3679155128
 40
0.4208359825
 40
0.5398687189
 40
0.6077452784
 40
0.6804660804
 40
0.8363809714
 40
1.0
 40
1.0
 40
1.0
 40
1.0
 10
210.130919511
 20
127.1398773597
 30
0.0
 10
210.0804457688
 20
127.1444084769
 30
0.0
 10
209.9816444817
 20
127.1433560374
 30
0.0
 10
209.8636279444
 20
127.1097025367
 30
0.0
 10
209.7847126253
 20
127.0609125829
 30
0.0
 10
209.7355125959
 20
127.013577821
 30
0.0
 10
209.6981283032
 20
126.9549226133
 30
0.0
 10
209.6660122758
 20
126.8591381262
 30
0.0
 10
209.6688940383
 20
126.7481808546
 30
0.0
 10
209.6957069913
 20
126.6345101461
 30
0.0
 10
209.7394956218
 20
126.5081868295
 30
0.0
 10
209.8144034003
 20
126.3480854022
 30
0.0
 10
209.88015651
 20
126.220240229
 30
0.0
 10
209.9129827401
 20
126.154327733
 30
0.0
  0
SPLINE
  5
2B7
100
AcDbEntity
  8
0
100
AcDbSpline
 62
7
  6
CONTINUOUS
 70
0
 71
3
 72
10
 73
6
 74
0
 42
0.0000001
 43
0.0000001
 44
0.0000000001
 40
0.0
 40
0.0
 40
0.0
 40
0.0
 40
0.2457313308
 40
0.4931112132
 40
1.0
 40
1.0
 40
1.0
 40
1.0
 10
210.249563334
 20
126.11634742
 30
0.0
 10
210.2979798445
 20
126.1052601748
 30
0.0
 10
210.3941431694
 20
126.0780445343
 30
0.0
 10
210.5820964598
 20
126.0039922576
 30
0.0
 10
210.7195801532
 20
125.9340852402
 30
0.0
 10
210.8019721209
 20
125.8731826377
 30
0.0
  0
SPLINE
  5
2B8
100
AcDbEntity
  8
0
100
AcDbSpline
 62
7
  6
CONTINUOUS
 70
0
 71
3
 72
9
 73
5
 74
0
 42
0.0000001
 43
0.0000001
 44
0.0000000001
 40
0.0
 40
0.0
 40
0.0
 40
0.0
 40
0.4390181575
 40
1.0
 40
1.0
 40
1.0
 40
1.0
 10
210.8019721209
 20
125.8731826377
 30
0.0
 10
210.8741794435
 20
125.8198083346
 30
0.0
 10
211.0249877119
 20
125.6795479163
 30
0.0
 10
211.145657496
 20
125.5121297254
 30
0.0
 10
211.2022271688
 20
125.4123065795
 30
0.0
  0
SPLINE
  5
2B9
100
AcDbEntity
  8
0
100
AcDbSpline
 62
7
  6
CONTINUOUS
 70
0
 71
3
 72
17
 73
13
 74
0
 42
0.0000001
 43
0.0000001
 44
0.0000000001
 40
0.0
 40
0.0
 40
0.0
 40
0.0
 40
0.1821790779
 40
0.3381542714
 40
0.467064638
 40
0.5217977755
 40
0.5746779962
 40
0.6280260826
 40
0.6816520982
 40
0.7885201741
 40
0.894322442
 40
1.0
 40
1.0
 40
1.0
 40
1.0
 10
208.7029357334
 20
123.7459784132
 30
0.0
 10
208.7405154685
 20
123.6934875074
 30
0.0
 10
208.8164518012
 20
123.6002483788
 30
0.0
 10
208.9360950421
 20
123.4855107089
 30
0.0
 10
209.030957969
 20
123.410963351
 30
0.0
 10
209.10196427
 20
123.3663130631
 30
0.0
 10
209.1521329135
 20
123.3391143825
 30
0.0
 10
209.2030861707
 20
123.3143439964
 30
0.0
 10
209.2718946403
 20
123.2826131966
 30
0.0
 10
209.3584987004
 20
123.2449848721
 30
0.0
 10
209.4653756434
 20
123.208505967
 30
0.0
 10
209.5379558415
 20
123.1895573489
 30
0.0
 10
209.5745089562
 20
123.1814215738
 30
0.0
  0
SPLINE
  5
2BA
100
AcDbEntity
  8
0
100
AcDbSpline
 62
7
  6
CONTINUOUS
 70
0
 71
3
 72
15
 73
11
 74
0
 42
0.0000001
 43
0.0000001
 44
0.0000000001
 40
0.0
 40
0.0
 40
0.0
 40
0.0
 40
0.1478071299
 40
0.2909314446
 40
0.4264705894
 40
0.5534799669
 40
0.6727115174
 40
0.7857586798
 40
0.8943476691
 40
1.0
 40
1.0
 40
1.0
 40
1.0
 10
211.2958645683
 20
234.1049987132
 30
0.0
 10
211.334814279
 20
234.0245466355
 30
0.0
 10
211.4113408507
 20
233.8660747475
 30
0.0
 10
211.5036877158
 20
233.6246479656
 30
0.0
 10
211.5569286845
 20
233.3839218744
 30
0.0
 10
211.5628264488
 20
233.1514413503
 30
0.0
 10
211.5203736935
 20
232.9364122945
 30
0.0
 10
211.4335170225
 20
232.747260234
 30
0.0
 10
211.3089571714
 20
232.5910219987
 30
0.0
 10
211.2044425267
 20
232.5117291578
 30
0.0
 10
211.1489869882
 20
232.4799978721
 30
0.0
  0
SPLINE
  5
2BB
100
AcDbEntity
  8
0
100
AcDbSpline
 62
7
  6
CONTINUOUS
 70
0
 71
3
 72
15
 73
11
 74
0
 42
0.0000001
 43
0.0000001
 44
0.0000000001
 40
0.0
 40
0.0
 40
0.0
 40
0.0
 40
0.1478072939
 40
0.2909317809
 40
0.4264711078
 40
0.5534806713
 40
0.6727124037
 40
0.7857597458
 40
0.8943489864
 40
1.0
 40
1.0
 40
1.0
 40
1.0
 10
208.5189134083
 20
235.1947824685
 30
0.0
 10
208.4799637593
 20
235.2752344189
 30
0.0
 10
208.4034373048
 20
235.433706063
 30
0.0
 10
208.3110905149
 20
235.6751324621
 30
0.0
 10
208.2578494609
 20
235.9158581828
 30
0.0
 10
208.251951434
 20
236.1483384065
 30
0.0
 10
208.2944037982
 20
236.3633672558
 30
0.0
 10
208.3812599566
 20
236.5525193805
 30
0.0
 10
208.505818933
 20
236.7087568424
 30
0.0
 10
208.6103320984
 20
236.7880499617
 30
0.0
 10
208.6657867339
 20
236.819780875
 30
0.0
  0
SPLINE
  5
2BC
100
AcDbEntity
  8
0
100
AcDbSpline
 62
7
  6
CONTINUOUS
 70
0
 71
3
 72
18
 73
14
 74
0
 42
0.0000001
 43
0.0000001
 44
0.0000000001
 40
0.0
 40
0.0
 40
0.0
 40
0.0
 40
0.1126072651
 40
0.2175019141
 40
0.2677955359
 40
0.3174871004
 40
0.3679163939
 40
0.420836772
 40
0.5398692912
 40
0.6077457436
 40
0.6804664442
 40
0.836381148
 40
1.0
 40
1.0
 40
1.0
 40
1.0
 10
210.1309225831
 20
237.1398770839
 30
0.0
 10
210.0804481939
 20
237.144408322
 30
0.0
 10
209.9816461927
 20
237.1433564938
 30
0.0
 10
209.8636288846
 20
237.1097029267
 30
0.0
 10
209.7847133511
 20
237.0609131469
 30
0.0
 10
209.7355131243
 20
237.0135784728
 30
0.0
 10
209.6981286328
 20
236.9549233186
 30
0.0
 10
209.6660123472
 20
236.8591388529
 30
0.0
 10
209.6688939438
 20
236.7481814979
 30
0.0
 10
209.6957068247
 20
236.6345106953
 30
0.0
 10
209.73949544
 20
236.5081872381
 30
0.0
 10
209.8144032836
 20
236.3480856259
 30
0.0
 10
209.8801564705
 20
236.2202403081
 30
0.0
 10
209.9129827401
 20
236.154327733
 30
0.0
  0
SPLINE
  5
2BD
100
AcDbEntity
  8
0
100
AcDbSpline
 62
7
  6
CONTINUOUS
 70
0
 71
3
 72
18
 73
14
 74
0
 42
0.0000001
 43
0.0000001
 44
0.0000000001
 40
0.0
 40
0.0
 40
0.0
 40
0.0
 40
0.1126060661
 40
0.2175008658
 40
0.2677945317
 40
0.3174861477
 40
0.3679155128
 40
0.4208359825
 40
0.5398687189
 40
0.6077452784
 40
0.6804660804
 40
0.8363809714
 40
1.0
 40
1.0
 40
1.0
 40
1.0
 10
209.6838584657
 20
232.1599038219
 30
0.0
 10
209.7343322079
 20
232.1553727047
 30
0.0
 10
209.833133495
 20
232.1564251442
 30
0.0
 10
209.9511500323
 20
232.1900786449
 30
0.0
 10
210.0300653514
 20
232.2388685987
 30
0.0
 10
210.0792653808
 20
232.2862033606
 30
0.0
 10
210.1166496735
 20
232.3448585683
 30
0.0
 10
210.1487657009
 20
232.4406430554
 30
0.0
 10
210.1458839384
 20
232.551600327
 30
0.0
 10
210.1190709854
 20
232.6652710355
 30
0.0
 10
210.0752823549
 20
232.7915943521
 30
0.0
 10
210.0003745764
 20
232.9516957794
 30
0.0
 10
209.9346214667
 20
233.0795409527
 30
0.0
 10
209.9017952366
 20
233.1454534487
 30
0.0
  0
SPLINE
  5
2BE
100
AcDbEntity
  8
0
100
AcDbSpline
 62
7
  6
CONTINUOUS
 70
0
 71
3
 72
17
 73
13
 74
0
 42
0.0000001
 43
0.0000001
 44
0.0000000001
 40
0.0
 40
0.0
 40
0.0
 40
0.0
 40
0.1000739657
 40
0.2001729099
 40
0.3020658211
 40
0.3526266274
 40
0.4024333862
 40
0.4541715239
 40
0.5115123319
 40
0.6487723566
 40
0.8130219935
 40
1.0
 40
1.0
 40
1.0
 40
1.0
 10
209.565214646
 20
233.1834337609
 30
0.0
 10
209.5255014113
 20
233.1925279803
 30
0.0
 10
209.446756703
 20
233.2139699535
 30
0.0
 10
209.3311489328
 20
233.2561882942
 30
0.0
 10
209.2368656248
 20
233.2973653873
 30
0.0
 10
209.1630010669
 20
233.3337805742
 30
0.0
 10
209.1084500897
 20
233.3631317568
 30
0.0
 10
209.0533642686
 20
233.3971316712
 30
0.0
 10
208.9718280804
 20
233.4556357738
 30
0.0
 10
208.861840264
 20
233.5524421163
 30
0.0
 10
208.729808348
 20
233.7018229904
 30
0.0
 10
208.6500809383
 20
233.8212487348
 30
0.0
 10
208.6125508125
 20
233.8874745942
 30
0.0
  0
SPLINE
  5
2BF
100
AcDbEntity
  8
0
100
AcDbSpline
 62
7
  6
CONTINUOUS
 70
0
 71
3
 72
17
 73
13
 74
0
 42
0.0000001
 43
0.0000001
 44
0.0000000001
 40
0.0
 40
0.0
 40
0.0
 40
0.0
 40
0.187078123
 40
0.3495850462
 40
0.420899119
 40
0.4852731971
 40
0.5417551172
 40
0.5932065649
 40
0.6951252499
 40
0.7975483245
 40
0.898887528
 40
1.0
 40
1.0
 40
1.0
 40
1.0
 10
211.1873999255
 20
235.4374976384
 30
0.0
 10
211.1493619174
 20
235.5020625207
 30
0.0
 10
211.0696581376
 20
235.6179114521
 30
0.0
 10
210.9552887728
 20
235.7424606294
 30
0.0
 10
210.8665173515
 20
235.8224579364
 30
0.0
 10
210.8065601185
 20
235.8708039629
 30
0.0
 10
210.7501287734
 20
235.910641255
 30
0.0
 10
210.6779589966
 20
235.9538971647
 30
0.0
 10
210.585372257
 20
235.9980362903
 30
0.0
 10
210.4736081279
 20
236.0481242518
 30
0.0
 10
210.3583109346
 20
236.0888601151
 30
0.0
 10
210.2798036024
 20
236.1095602354
 30
0.0
 10
210.2402690205
 20
236.1183596078
 30
0.0
  0
SPLINE
  5
2C0
100
AcDbEntity
  8
0
100
AcDbSpline
 62
7
  6
CONTINUOUS
 70
0
 71
3
 72
10
 73
6
 74
0
 42
0.0000001
 43
0.0000001
 44
0.0000000001
 40
0.0
 40
0.0
 40
0.0
 40
0.0
 40
0.3160851107
 40
0.5993013302
 40
1.0
 40
1.0
 40
1.0
 40
1.0
 10
227.9073889884
 20
106.6498905908
 30
0.0
 10
227.989215571
 20
106.5213576953
 30
0.0
 10
228.1466850135
 20
106.2756774327
 30
0.0
 10
228.4218471896
 20
105.8957531051
 30
0.0
 10
228.7142320481
 20
105.6498905908
 30
0.0
 10
228.9073889884
 20
105.6498905908
 30
0.0
  0
SPLINE
  5
2C1
100
AcDbEntity
  8
0
100
AcDbSpline
 62
7
  6
CONTINUOUS
 70
0
 71
3
 72
10
 73
6
 74
0
 42
0.0000001
 43
0.0000001
 44
0.0000000001
 40
0.0
 40
0.0
 40
0.0
 40
0.0
 40
0.4006986765
 40
0.6839148942
 40
1.0
 40
1.0
 40
1.0
 40
1.0
 10
30.9073889884
 20
105.6498905908
 30
0.0
 10
31.1005459318
 20
105.6498905908
 30
0.0
 10
31.3929307911
 20
105.8957531098
 30
0.0
 10
31.6680929663
 20
106.2756774376
 30
0.0
 10
31.825562407
 20
106.5213576974
 30
0.0
 10
31.9073889884
 20
106.6498905908
 30
0.0
  0
SPLINE
  5
2C2
100
AcDbEntity
  8
0
100
AcDbSpline
 62
7
  6
CONTINUOUS
 70
0
 71
3
 72
10
 73
6
 74
0
 42
0.0000001
 43
0.0000001
 44
0.0000000001
 40
0.0
 40
0.0
 40
0.0
 40
0.0
 40
0.3160851107
 40
0.5993013302
 40
1.0
 40
1.0
 40
1.0
 40
1.0
 10
31.9073889884
 20
252.6498905908
 30
0.0
 10
31.8255624057
 20
252.7784234863
 30
0.0
 10
31.6680929633
 20
253.0241037489
 30
0.0
 10
31.3929307871
 20
253.4040280765
 30
0.0
 10
31.1005459286
 20
253.6498905908
 30
0.0
 10
30.9073889884
 20
253.6498905908
 30
0.0
  0
SPLINE
  5
2C3
100
AcDbEntity
  8
0
100
AcDbSpline
 62
7
  6
CONTINUOUS
 70
0
 71
3
 72
10
 73
6
 74
0
 42
0.0000001
 43
0.0000001
 44
0.0000000001
 40
0.0
 40
0.0
 40
0.0
 40
0.0
 40
0.4006986765
 40
0.6839148942
 40
1.0
 40
1.0
 40
1.0
 40
1.0
 10
228.9073889884
 20
253.6498905908
 30
0.0
 10
228.7142320449
 20
253.6498905908
 30
0.0
 10
228.4218471856
 20
253.4040280718
 30
0.0
 10
228.1466850104
 20
253.024103744
 30
0.0
 10
227.9892155697
 20
252.7784234842
 30
0.0
 10
227.9073889884
 20
252.6498905908
 30
0.0
  0
SPLINE
  5
2C4
100
AcDbEntity
  8
0
100
AcDbSpline
 62
7
  6
CONTINUOUS
 70
0
 71
3
 72
10
 73
6
 74
0
 42
0.0000001
 43
0.0000001
 44
0.0000000001
 40
0.0
 40
0.0
 40
0.0
 40
0.0
 40
0.3160851107
 40
0.5993013302
 40
1.0
 40
1.0
 40
1.0
 40
1.0
 10
31.9073889884
 20
106.6498905908
 30
0.0
 10
31.7788560929
 20
106.5680640082
 30
0.0
 10
31.5331758302
 20
106.4105945657
 30
0.0
 10
31.1532515027
 20
106.1354323895
 30
0.0
 10
30.9073889884
 20
105.843047531
 30
0.0
 10
30.9073889884
 20
105.6498905908
 30
0.0
  0
SPLINE
  5
2C5
100
AcDbEntity
  8
0
100
AcDbSpline
 62
7
  6
CONTINUOUS
 70
0
 71
3
 72
10
 73
6
 74
0
 42
0.0000001
 43
0.0000001
 44
0.0000000001
 40
0.0
 40
0.0
 40
0.0
 40
0.0
 40
0.4006986765
 40
0.6839148942
 40
1.0
 40
1.0
 40
1.0
 40
1.0
 10
30.9073889884
 20
253.6498905908
 30
0.0
 10
30.9073889884
 20
253.4567336474
 30
0.0
 10
31.1532515074
 20
253.1643487881
 30
0.0
 10
31.5331758351
 20
252.8891866128
 30
0.0
 10
31.7788560949
 20
252.7317171722
 30
0.0
 10
31.9073889884
 20
252.6498905908
 30
0.0
  0
SPLINE
  5
2C6
100
AcDbEntity
  8
0
100
AcDbSpline
 62
7
  6
CONTINUOUS
 70
0
 71
3
 72
10
 73
6
 74
0
 42
0.0000001
 43
0.0000001
 44
0.0000000001
 40
0.0
 40
0.0
 40
0.0
 40
0.0
 40
0.3160851107
 40
0.5993013302
 40
1.0
 40
1.0
 40
1.0
 40
1.0
 10
227.9073889884
 20
252.6498905908
 30
0.0
 10
228.0359218838
 20
252.7317171735
 30
0.0
 10
228.2816021465
 20
252.8891866159
 30
0.0
 10
228.661526474
 20
253.1643487921
 30
0.0
 10
228.9073889884
 20
253.4567336506
 30
0.0
 10
228.9073889884
 20
253.6498905908
 30
0.0
  0
SPLINE
  5
2C7
100
AcDbEntity
  8
0
100
AcDbSpline
 62
7
  6
CONTINUOUS
 70
0
 71
3
 72
10
 73
6
 74
0
 42
0.0000001
 43
0.0000001
 44
0.0000000001
 40
0.0
 40
0.0
 40
0.0
 40
0.0
 40
0.4006986765
 40
0.6839148942
 40
1.0
 40
1.0
 40
1.0
 40
1.0
 10
228.9073889884
 20
105.6498905908
 30
0.0
 10
228.9073889884
 20
105.8430475342
 30
0.0
 10
228.6615264693
 20
106.1354323936
 30
0.0
 10
228.2816021416
 20
106.4105945688
 30
0.0
 10
228.0359218818
 20
106.5680640095
 30
0.0
 10
227.9073889884
 20
106.6498905908
 30
0.0
  0
SPLINE
  5
2C8
100
AcDbEntity
  8
0
100
AcDbSpline
 62
7
  6
CONTINUOUS
 70
0
 71
3
 72
9
 73
5
 74
0
 42
0.0000001
 43
0.0000001
 44
0.0000000001
 40
0.0
 40
0.0
 40
0.0
 40
0.0
 40
0.2641809754
 40
1.0
 40
1.0
 40
1.0
 40
1.0
 10
31.9073889884
 20
252.6498905908
 30
0.0
 10
31.8031839104
 20
252.6830600973
 30
0.0
 10
31.4088732179
 20
252.8088269608
 30
0.0
 10
31.0152478934
 20
252.9383530373
 30
0.0
 10
30.7318151753
 20
253.0498915465
 30
0.0
  0
SPLINE
  5
2C9
100
AcDbEntity
  8
0
100
AcDbSpline
 62
7
  6
CONTINUOUS
 70
0
 71
3
 72
10
 73
6
 74
0
 42
0.0000001
 43
0.0000001
 44
0.0000000001
 40
0.0
 40
0.0
 40
0.0
 40
0.0
 40
0.3589947278
 40
0.6462600819
 40
1.0
 40
1.0
 40
1.0
 40
1.0
 10
30.7318151753
 20
253.0498915465
 30
0.0
 10
30.6150667752
 20
253.0958352279
 30
0.0
 10
30.4039234381
 20
253.1863136364
 30
0.0
 10
30.1078953919
 20
253.3440651869
 30
0.0
 10
29.9073889884
 20
253.5262638817
 30
0.0
 10
29.9073889884
 20
253.6498905908
 30
0.0
  0
SPLINE
  5
2CA
100
AcDbEntity
  8
0
100
AcDbSpline
 62
7
  6
CONTINUOUS
 70
0
 71
3
 72
10
 73
6
 74
0
 42
0.0000001
 43
0.0000001
 44
0.0000000001
 40
0.0
 40
0.0
 40
0.0
 40
0.0
 40
0.3537398202
 40
0.641005224
 40
1.0
 40
1.0
 40
1.0
 40
1.0
 10
29.9073889884
 20
105.6498905908
 30
0.0
 10
29.9073889884
 20
105.7735175351
 30
0.0
 10
30.1078960483
 20
105.9557164693
 30
0.0
 10
30.4039247799
 20
106.1134681981
 30
0.0
 10
30.6150686536
 20
106.2039467374
 30
0.0
 10
30.731817339
 20
106.2498904865
 30
0.0
  0
SPLINE
  5
2CB
100
AcDbEntity
  8
0
100
AcDbSpline
 62
7
  6
CONTINUOUS
 70
0
 71
3
 72
9
 73
5
 74
0
 42
0.0000001
 43
0.0000001
 44
0.0000000001
 40
0.0
 40
0.0
 40
0.0
 40
0.0
 40
0.2299534375
 40
1.0
 40
1.0
 40
1.0
 40
1.0
 10
30.731817339
 20
106.2498904865
 30
0.0
 10
30.8203998881
 20
106.284750103
 30
0.0
 10
31.2087008242
 20
106.4285200706
 30
0.0
 10
31.603626899
 20
106.5532001147
 30
0.0
 10
31.9073889884
 20
106.6498905908
 30
0.0
  0
SPLINE
  5
2CC
100
AcDbEntity
  8
0
100
AcDbSpline
 62
7
  6
CONTINUOUS
 70
0
 71
3
 72
9
 73
5
 74
0
 42
0.0000001
 43
0.0000001
 44
0.0000000001
 40
0.0
 40
0.0
 40
0.0
 40
0.0
 40
0.2641809754
 40
1.0
 40
1.0
 40
1.0
 40
1.0
 10
31.9073889884
 20
106.6498905908
 30
0.0
 10
31.8742194818
 20
106.5456855129
 30
0.0
 10
31.7484526183
 20
106.1513748203
 30
0.0
 10
31.6189265419
 20
105.7577494958
 30
0.0
 10
31.5073880326
 20
105.4743167777
 30
0.0
  0
SPLINE
  5
2CD
100
AcDbEntity
  8
0
100
AcDbSpline
 62
7
  6
CONTINUOUS
 70
0
 71
3
 72
10
 73
6
 74
0
 42
0.0000001
 43
0.0000001
 44
0.0000000001
 40
0.0
 40
0.0
 40
0.0
 40
0.0
 40
0.3589947278
 40
0.6462600819
 40
1.0
 40
1.0
 40
1.0
 40
1.0
 10
31.5073880326
 20
105.4743167777
 30
0.0
 10
31.4614443512
 20
105.3575683776
 30
0.0
 10
31.3709659428
 20
105.1464250405
 30
0.0
 10
31.2132143923
 20
104.8503969943
 30
0.0
 10
31.0310156974
 20
104.6498905908
 30
0.0
 10
30.9073889884
 20
104.6498905908
 30
0.0
  0
SPLINE
  5
2CE
100
AcDbEntity
  8
0
100
AcDbSpline
 62
7
  6
CONTINUOUS
 70
0
 71
3
 72
9
 73
5
 74
0
 42
0.0000001
 43
0.0000001
 44
0.0000000001
 40
0.0
 40
0.0
 40
0.0
 40
0.0
 40
0.2641809754
 40
1.0
 40
1.0
 40
1.0
 40
1.0
 10
227.9073889884
 20
252.6498905908
 30
0.0
 10
227.9405584949
 20
252.7540956688
 30
0.0
 10
228.0663253584
 20
253.1484063613
 30
0.0
 10
228.1958514348
 20
253.5420316858
 30
0.0
 10
228.3073899441
 20
253.8254644039
 30
0.0
  0
SPLINE
  5
2CF
100
AcDbEntity
  8
0
100
AcDbSpline
 62
7
  6
CONTINUOUS
 70
0
 71
3
 72
10
 73
6
 74
0
 42
0.0000001
 43
0.0000001
 44
0.0000000001
 40
0.0
 40
0.0
 40
0.0
 40
0.0
 40
0.3589947278
 40
0.6462600819
 40
1.0
 40
1.0
 40
1.0
 40
1.0
 10
228.3073899441
 20
253.8254644039
 30
0.0
 10
228.3533336255
 20
253.942212804
 30
0.0
 10
228.4438120339
 20
254.1533561411
 30
0.0
 10
228.6015635844
 20
254.4493841873
 30
0.0
 10
228.7837622793
 20
254.6498905908
 30
0.0
 10
228.9073889884
 20
254.6498905908
 30
0.0
  0
SPLINE
  5
2D0
100
AcDbEntity
  8
0
100
AcDbSpline
 62
7
  6
CONTINUOUS
 70
0
 71
3
 72
10
 73
6
 74
0
 42
0.0000001
 43
0.0000001
 44
0.0000000001
 40
0.0
 40
0.0
 40
0.0
 40
0.0
 40
0.3537398202
 40
0.641005224
 40
1.0
 40
1.0
 40
1.0
 40
1.0
 10
30.9073889884
 20
254.6498905908
 30
0.0
 10
31.0310159326
 20
254.6498905908
 30
0.0
 10
31.2132148668
 20
254.4493835309
 30
0.0
 10
31.3709665957
 20
254.1533547993
 30
0.0
 10
31.461445135
 20
253.9422109255
 30
0.0
 10
31.507388884
 20
253.8254622401
 30
0.0
  0
SPLINE
  5
2D1
100
AcDbEntity
  8
0
100
AcDbSpline
 62
7
  6
CONTINUOUS
 70
0
 71
3
 72
9
 73
5
 74
0
 42
0.0000001
 43
0.0000001
 44
0.0000000001
 40
0.0
 40
0.0
 40
0.0
 40
0.0
 40
0.2299534375
 40
1.0
 40
1.0
 40
1.0
 40
1.0
 10
31.507388884
 20
253.8254622401
 30
0.0
 10
31.5422485006
 20
253.7368796911
 30
0.0
 10
31.6860184681
 20
253.3485787549
 30
0.0
 10
31.8106985123
 20
252.9536526801
 30
0.0
 10
31.9073889884
 20
252.6498905908
 30
0.0
  0
SPLINE
  5
2D2
100
AcDbEntity
  8
0
100
AcDbSpline
 62
7
  6
CONTINUOUS
 70
0
 71
3
 72
10
 73
6
 74
0
 42
0.0000001
 43
0.0000001
 44
0.0000000001
 40
0.0
 40
0.0
 40
0.0
 40
0.0
 40
0.3537398202
 40
0.641005224
 40
1.0
 40
1.0
 40
1.0
 40
1.0
 10
228.9073889884
 20
104.6498905908
 30
0.0
 10
228.7837620441
 20
104.6498905908
 30
0.0
 10
228.6015631099
 20
104.8503976508
 30
0.0
 10
228.443811381
 20
105.1464263823
 30
0.0
 10
228.3533328417
 20
105.3575702561
 30
0.0
 10
228.3073890927
 20
105.4743189415
 30
0.0
  0
SPLINE
  5
2D3
100
AcDbEntity
  8
0
100
AcDbSpline
 62
7
  6
CONTINUOUS
 70
0
 71
3
 72
9
 73
5
 74
0
 42
0.0000001
 43
0.0000001
 44
0.0000000001
 40
0.0
 40
0.0
 40
0.0
 40
0.0
 40
0.2299534375
 40
1.0
 40
1.0
 40
1.0
 40
1.0
 10
228.3073890927
 20
105.4743189415
 30
0.0
 10
228.2725294762
 20
105.5629014905
 30
0.0
 10
228.1287595086
 20
105.9512024267
 30
0.0
 10
228.0040794644
 20
106.3461285015
 30
0.0
 10
227.9073889884
 20
106.6498905908
 30
0.0
  0
SPLINE
  5
2D4
100
AcDbEntity
  8
0
100
AcDbSpline
 62
7
  6
CONTINUOUS
 70
0
 71
3
 72
9
 73
5
 74
0
 42
0.0000001
 43
0.0000001
 44
0.0000000001
 40
0.0
 40
0.0
 40
0.0
 40
0.0
 40
0.2641809754
 40
1.0
 40
1.0
 40
1.0
 40
1.0
 10
227.9073889884
 20
106.6498905908
 30
0.0
 10
228.0115940663
 20
106.6167210843
 30
0.0
 10
228.4059047588
 20
106.4909542208
 30
0.0
 10
228.7995300833
 20
106.3614281443
 30
0.0
 10
229.0829628014
 20
106.2498896351
 30
0.0
  0
SPLINE
  5
2D5
100
AcDbEntity
  8
0
100
AcDbSpline
 62
7
  6
CONTINUOUS
 70
0
 71
3
 72
10
 73
6
 74
0
 42
0.0000001
 43
0.0000001
 44
0.0000000001
 40
0.0
 40
0.0
 40
0.0
 40
0.0
 40
0.3589947278
 40
0.6462600819
 40
1.0
 40
1.0
 40
1.0
 40
1.0
 10
229.0829628014
 20
106.2498896351
 30
0.0
 10
229.1997112015
 20
106.2039459537
 30
0.0
 10
229.4108545387
 20
106.1134675453
 30
0.0
 10
229.7068825848
 20
105.9557159947
 30
0.0
 10
229.9073889884
 20
105.7735172999
 30
0.0
 10
229.9073889884
 20
105.6498905908
 30
0.0
  0
SPLINE
  5
2D6
100
AcDbEntity
  8
0
100
AcDbSpline
 62
7
  6
CONTINUOUS
 70
0
 71
3
 72
10
 73
6
 74
0
 42
0.0000001
 43
0.0000001
 44
0.0000000001
 40
0.0
 40
0.0
 40
0.0
 40
0.0
 40
0.3537398202
 40
0.641005224
 40
1.0
 40
1.0
 40
1.0
 40
1.0
 10
229.9073889884
 20
253.6498905908
 30
0.0
 10
229.9073889884
 20
253.5262636465
 30
0.0
 10
229.7068819284
 20
253.3440647123
 30
0.0
 10
229.4108531968
 20
253.1863129835
 30
0.0
 10
229.1997093231
 20
253.0958344442
 30
0.0
 10
229.0829606377
 20
253.0498906951
 30
0.0
  0
SPLINE
  5
2D7
100
AcDbEntity
  8
0
100
AcDbSpline
 62
7
  6
CONTINUOUS
 70
0
 71
3
 72
9
 73
5
 74
0
 42
0.0000001
 43
0.0000001
 44
0.0000000001
 40
0.0
 40
0.0
 40
0.0
 40
0.0
 40
0.2299534375
 40
1.0
 40
1.0
 40
1.0
 40
1.0
 10
229.0829606377
 20
253.0498906951
 30
0.0
 10
228.9943780886
 20
253.0150310786
 30
0.0
 10
228.6060771525
 20
252.871261111
 30
0.0
 10
228.2111510777
 20
252.7465810669
 30
0.0
 10
227.9073889884
 20
252.6498905908
 30
0.0
  0
ENDSEC
  0
SECTION
  2
OBJECTS
  0
DICTIONARY
  5
C
100
AcDbDictionary
280
0
281
1
  3
ACAD_GROUP
350
D
  3
ACAD_MLINESTYLE
350
17
  3
ACAD_LAYOUT
350
1A
  3
ACAD_PLOTSETTINGS
350
19
  3
ACAD_PLOTSTYLENAME
350
E
  0
DICTIONARY
  5
D
102
{ACAD_REACTORS
330
C
102
}
100
AcDbDictionary
280
0
281
1
  0
ACDBDICTIONARYWDFLT
  5
E
102
{ACAD_REACTORS
330
C
102
}
100
AcDbDictionary
281
1
  3
Normal
350
F
100
AcDbDictionaryWithDefault
340
F
  0
DICTIONARY
  5
17
102
{ACAD_REACTORS
330
C
102
}
100
AcDbDictionary
280
0
281
1
  3
Standard
350
18
  0
DICTIONARY
  5
19
102
{ACAD_REACTORS
330
C
102
}
100
AcDbDictionary
281
1
  0
DICTIONARY
  5
1A
102
{ACAD_REACTORS
330
C
102
}
100
AcDbDictionary
281
1
  3
Model
350
2D8
  3
Layout1
350
2D9
  0
ACDBPLACEHOLDER
  5
F
102
{ACAD_REACTORS
330
E
102
}
  0
MLINESTYLE
  5
18
102
{ACAD_REACTORS
330
17
102
}
100
AcDbMlineStyle
  2
STANDARD
 70
0
  3

 62
256
 51
90.0
 52
90.0
 71
2
 49
0.5
 62
256
  6
BYLAYER
 49
-0.5
 62
256
  6
BYLAYER
  0
LAYOUT
  5
2D8
102
{ACAD_REACTORS
330
1A
102
}
100
AcDbPlotSettings
  1

  2
none_device
  4

  6

 40
0.0
 41
0.0
 42
0.0
 43
0.0
 44
210.0
 45
297.0
 46
0.0
 47
0.0
 48
0.0
 49
0.0
140
0.0
141
0.0
142
1.0
143
1.0
 70
1024
 72
1
 73
0
 74
0
  7

 75
0
147
1.0
148
0.0
149
0.0
100
AcDbLayout
  1
Model
 70
0
 71
0
 10
0.0
 20
0.0
 11
210.0
 21
297.0
 12
0.0
 22
0.0
 32
0.0
 14
0.0
 24
0.0
 34
0.0
 15
0.0
 25
0.0
 35
0.0
146
0.0
 13
0.0
 23
0.0
 33
0.0
 16
1.0
 26
0.0
 36
0.0
 17
0.0
 27
1.0
 37
0.0
 76
0
330
210
345
0
346
0
  0
LAYOUT
  5
2D9
102
{ACAD_REACTORS
330
1A
102
}
100
AcDbPlotSettings
  1

  2
none_device
  4

  6

 40
0.0
 41
0.0
 42
0.0
 43
0.0
 44
210.0
 45
297.0
 46
0.0
 47
0.0
 48
0.0
 49
0.0
140
0.0
141
0.0
142
1.0
143
1.0
 70
0
 72
1
 73
0
 74
0
  7

 75
0
147
1.0
148
0.0
149
0.0
100
AcDbLayout
  1
Layout1
 70
0
 71
1
 10
0.0
 20
0.0
 11
210.0
 21
297.0
 12
0.0
 22
0.0
 32
0.0
 14
0.0
 24
0.0
 34
0.0
 15
0.0
 25
0.0
 35
0.0
146
0.0
 13
0.0
 23
0.0
 33
0.0
 16
1.0
 26
0.0
 36
0.0
 17
0.0
 27
1.0
 37
0.0
 76
0
330
211
345
0
346
0
  0
ENDSEC
  0
EOF
