999
DXF file: C:\Users\sesa63760\Dev\_Creo\CAD\MCADID0003884_3D-CAD\drw0001_5.dxf
999
Pro/ENGINEER 2019471 by Parametric Technology Corporation
  0
SECTION
  2
HEADER
  9
$ACADVER
  1
AC1024
  9
$DWGCODEPAGE
  3
ANSI_1252
  9
$EXTMAX
 10
52.9851675799
 20
74.9361655773
 30
0.0
  9
$EXTMIN
 10
0.0
 20
0.0
 30
0.0
  9
$LIMMIN
 10
0.0
 20
0.0
  9
$LIMMAX
 10
52.9851675799
 20
74.9361655773
  9
$VIEWCTR
 10
26.49258379
 20
37.4680827887
  9
$VIEWSIZE
 40
74.9361655773
  9
$CLAYER
  8
0
  9
$LTSCALE
 40
4.8847278302
  9
$CELTYPE
  6
BYLAYER
  9
$DIMSCALE
 40
1.0
  9
$DIMASZ
 40
0.6307758045
  9
$DIMEXO
 40
1.0
  9
$DIMDLI
 40
3.3749028645
  9
$DIMEXE
 40
1.0
  9
$DIMCEN
 40
0.7993190995
  9
$DIMLFAC
 40
1.0
  9
$DIMBLK
  1
_FILLED
  9
$DIMALT
 70
0
  9
$DIMALTF
 40
0.0393700787
  9
$DIMTXT
 40
0.8830861263
  9
$DIMTOL
 70
1
  9
$DIMLIM
 70
0
  9
$DIMTFAC
 40
1.0
  9
$DIMTP
 40
0.01
  9
$DIMTM
 40
0.01
  9
$DIMGAP
 40
0.625
  9
$DIMDSEP
 70
46
  9
$AUNITS
 70
0
  9
$PDMODE
 70
3
  9
$PDSIZE
 40
0.3125
  9
$HANDSEED
  5
298
  9
$TILEMODE
 70
1
  9
$MEASUREMENT
 70
1
  9
$INSUNITS
 70
4
  0
ENDSEC
  0
SECTION
  2
CLASSES
  0
CLASS
  1
ACDBDICTIONARYWDFLT
  2
AcDbDictionaryWithDefault
  3
AutoCAD 2000
 90
0
 91
1
280
0
281
0
  0
CLASS
  1
ACDBPLACEHOLDER
  2
AcDbPlaceHolder
  3
AutoCAD 2000
 90
0
 91
1
280
0
281
0
  0
CLASS
  1
LAYOUT
  2
AcDbLayout
  3
AutoCAD 2000
 90
0
 91
0
280
0
281
0
  0
ENDSEC
  0
SECTION
  2
TABLES
  0
TABLE
  2
VPORT
  5
8
100
AcDbSymbolTable
 70
2
  0
VPORT
  5
1F4
100
AcDbSymbolTableRecord
100
AcDbViewportTableRecord
  2
*ACTIVE
 70
0
 10
0.0
 20
0.0
 11
1.0
 21
1.0
 12
26.49258379
 22
37.4680827887
 13
0.0
 23
0.0
 14
1.0
 24
1.0
 15
0.0
 25
0.0
 16
0.0
 26
0.0
 36
1.0
 17
0.0
 27
0.0
 37
0.0
 40
74.9361655773
 41
0.7070707071
 42
50.0
 43
0.0
 44
0.0
 50
0.0
 51
0.0
 71
0
 72
100
 73
1
 74
1
 75
0
 76
0
 77
0
 78
0
  0
ENDTAB
  0
TABLE
  2
LTYPE
  5
5
100
AcDbSymbolTable
 70
6
  0
LTYPE
  5
14
100
AcDbSymbolTableRecord
100
AcDbLinetypeTableRecord
  2
BYBLOCK
 70
0
  3

 72
65
 73
0
 40
0.0
  0
LTYPE
  5
15
100
AcDbSymbolTableRecord
100
AcDbLinetypeTableRecord
  2
BYLAYER
 70
0
  3

 72
65
 73
0
 40
0.0
  0
LTYPE
  5
16
100
AcDbSymbolTableRecord
100
AcDbLinetypeTableRecord
  2
CONTINUOUS
 70
64
  3
Solid line
 72
65
 73
0
 40
0.0
  0
LTYPE
  5
1F5
100
AcDbSymbolTableRecord
100
AcDbLinetypeTableRecord
  2
CENTER
 70
64
  3
____ _ ____ _ ____ _ ____ _ ____ _ ____ _ ____
 72
65
 73
4
 40
0.6
 49
0.375
 74
0
 49
-0.075
 74
0
 49
0.075
 74
0
 49
-0.075
 74
0
  0
LTYPE
  5
1F6
100
AcDbSymbolTableRecord
100
AcDbLinetypeTableRecord
  2
HIDDEN
 70
64
  3
- - - - - - - - - - - - - - - - - - - -
 72
65
 73
2
 40
0.2
 49
0.1
 74
0
 49
-0.1
 74
0
  0
LTYPE
  5
1F7
100
AcDbSymbolTableRecord
100
AcDbLinetypeTableRecord
  2
PHANTOM
 70
64
  3
_____ _ _ _____ _ _ _____ _ _ _____
 72
65
 73
6
 40
0.8
 49
0.45
 74
0
 49
-0.05
 74
0
 49
0.1
 74
0
 49
-0.05
 74
0
 49
0.1
 74
0
 49
-0.05
 74
0
  0
LTYPE
  5
1F8
100
AcDbSymbolTableRecord
100
AcDbLinetypeTableRecord
  2
DOT
 70
64
  3
. . . . . . . . . . . . . . . . . . . .
 72
65
 73
2
 40
0.2
 49
0.1
 74
0
 49
-0.1
 74
0
  0
LTYPE
  5
1F9
100
AcDbSymbolTableRecord
100
AcDbLinetypeTableRecord
  2
DASHED
 70
64
  3
- - - - - - - - - - - - - - - - - - - -
 72
65
 73
2
 40
0.2
 49
0.1
 74
0
 49
-0.1
 74
0
  0
ENDTAB
  0
TABLE
  2
LAYER
  5
2
100
AcDbSymbolTable
 70
36
  0
LAYER
  5
10
100
AcDbSymbolTableRecord
100
AcDbLayerTableRecord
  2
0
 70
0
 62
7
  6
CONTINUOUS
370
-3
390
F
  0
LAYER
  5
1FA
100
AcDbSymbolTableRecord
100
AcDbLayerTableRecord
  2
DEFAULT_1
 70
0
 62
7
  6
CENTER
370
-3
390
F
  0
LAYER
  5
1FB
100
AcDbSymbolTableRecord
100
AcDbLayerTableRecord
  2
DEFAULT_2
 70
0
 62
7
  6
HIDDEN
370
-3
390
F
  0
LAYER
  5
1FC
100
AcDbSymbolTableRecord
100
AcDbLayerTableRecord
  2
DEFAULT_3
 70
0
 62
7
  6
PHANTOM
370
-3
390
F
  0
LAYER
  5
1FD
100
AcDbSymbolTableRecord
100
AcDbLayerTableRecord
  2
00_COMPONENTS
 70
0
 62
7
  6
CONTINUOUS
370
-3
390
F
  0
LAYER
  5
1FE
100
AcDbSymbolTableRecord
100
AcDbLayerTableRecord
  2
01_1_DEFAULT_DATUMS
 70
0
 62
7
  6
CONTINUOUS
370
-3
390
F
  0
LAYER
  5
1FF
100
AcDbSymbolTableRecord
100
AcDbLayerTableRecord
  2
01_PLANES
 70
0
 62
7
  6
CONTINUOUS
370
-3
390
F
  0
LAYER
  5
200
100
AcDbSymbolTableRecord
100
AcDbLayerTableRecord
  2
02_COORD_SYS
 70
0
 62
7
  6
CONTINUOUS
370
-3
390
F
  0
LAYER
  5
201
100
AcDbSymbolTableRecord
100
AcDbLayerTableRecord
  2
03_AXES
 70
0
 62
7
  6
CONTINUOUS
370
-3
390
F
  0
LAYER
  5
202
100
AcDbSymbolTableRecord
100
AcDbLayerTableRecord
  2
04_POINTS
 70
0
 62
7
  6
CONTINUOUS
370
-3
390
F
  0
LAYER
  5
203
100
AcDbSymbolTableRecord
100
AcDbLayerTableRecord
  2
05_CURVES
 70
0
 62
7
  6
CONTINUOUS
370
-3
390
F
  0
LAYER
  5
204
100
AcDbSymbolTableRecord
100
AcDbLayerTableRecord
  2
06_SURFS
 70
0
 62
7
  6
CONTINUOUS
370
-3
390
F
  0
LAYER
  5
205
100
AcDbSymbolTableRecord
100
AcDbLayerTableRecord
  2
07_COSMETICS
 70
0
 62
7
  6
CONTINUOUS
370
-3
390
F
  0
LAYER
  5
206
100
AcDbSymbolTableRecord
100
AcDbLayerTableRecord
  2
10_NOTES
 70
0
 62
7
  6
CONTINUOUS
370
-3
390
F
  0
LAYER
  5
207
100
AcDbSymbolTableRecord
100
AcDbLayerTableRecord
  2
11_NOTES_PUB
 70
0
 62
7
  6
CONTINUOUS
370
-3
390
F
  0
LAYER
  5
208
100
AcDbSymbolTableRecord
100
AcDbLayerTableRecord
  2
13_REF_GTOL
 70
0
 62
7
  6
CONTINUOUS
370
-3
390
F
  0
LAYER
  5
209
100
AcDbSymbolTableRecord
100
AcDbLayerTableRecord
  2
16_MISC
 70
0
 62
7
  6
CONTINUOUS
370
-3
390
F
  0
LAYER
  5
20A
100
AcDbSymbolTableRecord
100
AcDbLayerTableRecord
  2
17_NO_PRINT
 70
0
 62
7
  6
CONTINUOUS
370
-3
390
F
  0
LAYER
  5
20B
100
AcDbSymbolTableRecord
100
AcDbLayerTableRecord
  2
18_DATUM_CAMS_JOINTS
 70
0
 62
7
  6
CONTINUOUS
370
-3
390
F
  0
LAYER
  5
20C
100
AcDbSymbolTableRecord
100
AcDbLayerTableRecord
  2
19_DATUM_FUNCTIONAL
 70
0
 62
7
  6
CONTINUOUS
370
-3
390
F
  0
LAYER
  5
20D
100
AcDbSymbolTableRecord
100
AcDbLayerTableRecord
  2
20_DATUM_KINEMATIC_SCHEME
 70
0
 62
7
  6
CONTINUOUS
370
-3
390
F
  0
ENDTAB
  0
TABLE
  2
STYLE
  5
3
100
AcDbSymbolTable
 70
1
  0
STYLE
  5
11
100
AcDbSymbolTableRecord
100
AcDbTextStyleTableRecord
  2
STANDARD
 70
0
 40
0.0
 41
1.0
 50
0.0
 71
0
 42
0.2
  3
ARIAL.TTF
  4

  0
STYLE
  5
20E
100
AcDbSymbolTableRecord
100
AcDbTextStyleTableRecord
  2
TEXTSTYLE_1
 70
0
 40
0.0
 41
0.8
 50
0.0
 71
0
 42
0.2
  3
gdt
  4

  0
ENDTAB
  0
TABLE
  2
VIEW
  5
6
100
AcDbSymbolTable
 70
0
  0
ENDTAB
  0
TABLE
  2
UCS
  5
7
100
AcDbSymbolTable
 70
0
  0
ENDTAB
  0
TABLE
  2
APPID
  5
9
100
AcDbSymbolTable
 70
1
  0
APPID
  5
20F
100
AcDbSymbolTableRecord
100
AcDbRegAppTableRecord
  2
ACAD
 70
0
  0
ENDTAB
  0
TABLE
  2
BLOCK_RECORD
  5
1
100
AcDbSymbolTable
 70
0
  0
BLOCK_RECORD
  5
210
100
AcDbSymbolTableRecord
100
AcDbBlockTableRecord
  2
*Model_Space
  0
BLOCK_RECORD
  5
211
100
AcDbSymbolTableRecord
100
AcDbBlockTableRecord
  2
*Paper_Space
  0
BLOCK_RECORD
  5
212
100
AcDbSymbolTableRecord
100
AcDbBlockTableRecord
  2
_FILLED
  0
ENDTAB
  0
TABLE
  2
DIMSTYLE
  5
A
100
AcDbSymbolTable
 70
1
100
AcDbDimStyleTable
 71
0
  0
DIMSTYLE
105
213
100
AcDbSymbolTableRecord
100
AcDbDimStyleTableRecord
  2
STANDARD
 70
0
  3

  4

 40
1.0
 41
0.6307758045
 42
1.0
 43
0.38
 44
1.0
 45
0.0
 46
0.0
 47
0.01
 48
0.01
140
0.8830861263
141
0.09
142
0.0
143
25.4
144
1.0
145
0.0
146
1.0
147
0.625
 71
1
 72
0
 73
0
 74
0
 75
0
 76
0
 77
1
 78
8
 79
2
170
0
171
1
172
0
173
0
174
0
175
0
176
0
177
0
178
0
270
2
179
2
271
2
272
2
273
2
274
2
275
0
280
0
281
0
282
0
283
1
284
8
285
0
286
0
287
3
288
0
340
11
278
46
341
212
342
212
343
212
344
212
  0
ENDTAB
  0
ENDSEC
  0
SECTION
  2
BLOCKS
  0
BLOCK
  5
20
100
AcDbEntity
  8
0
100
AcDbBlockBegin
  2
*Model_Space
 70
0
 10
0.0
 20
0.0
 30
0.0
  3
*Model_Space
  1

  0
ENDBLK
  5
21
100
AcDbEntity
  8
0
100
AcDbBlockEnd
  0
BLOCK
  5
1C
100
AcDbEntity
  8
0
100
AcDbBlockBegin
  2
*Paper_Space
 70
0
 10
0.0
 20
0.0
 30
0.0
  3
*Paper_Space
  1

  0
ENDBLK
  5
1D
100
AcDbEntity
  8
0
100
AcDbBlockEnd
  0
BLOCK
  5
214
100
AcDbEntity
  8
0
100
AcDbBlockBegin
  2
_FILLED
 70
64
 10
0.0
 20
0.0
  3
_FILLED
  1

  0
SOLID
  5
215
100
AcDbEntity
  8
0
  6
BYBLOCK
 62
0
100
AcDbTrace
 10
0.0
 20
0.0
 11
-1.0
 21
0.25
 12
-1.0
 22
-0.25
 13
-1.0
 23
-0.25
  0
ENDBLK
  5
216
100
AcDbEntity
  8
0
  6
BYBLOCK
 62
0
100
AcDbBlockEnd
  0
ENDSEC
  0
SECTION
  2
ENTITIES
  0
LINE
  5
217
100
AcDbEntity
  8
0
100
AcDbLine
 62
7
  6
BYLAYER
 10
6.1763528532
 20
35.7597808866
 11
6.1763528532
 21
39.3598000587
  0
LINE
  5
218
100
AcDbEntity
  8
0
100
AcDbLine
 62
7
  6
BYLAYER
 10
6.3763528532
 20
35.6598039216
 11
6.3763528532
 21
39.4598039216
  0
LINE
  5
219
100
AcDbEntity
  8
0
100
AcDbLine
 62
7
  6
BYLAYER
 10
6.5763528532
 20
35.259931312
 11
6.5763528532
 21
39.8597906768
  0
LINE
  5
21A
100
AcDbEntity
  8
0
100
AcDbLine
 62
7
  6
BYLAYER
 10
6.7763528532
 20
35.0598039216
 11
6.7763528532
 21
40.0598039216
  0
LINE
  5
21B
100
AcDbEntity
  8
0
100
AcDbLine
 62
7
  6
BYLAYER
 10
6.2031477724
 20
39.4598039216
 11
6.1763528532
 21
39.3598039216
  0
LINE
  5
21C
100
AcDbEntity
  8
0
100
AcDbLine
 62
7
  6
BYLAYER
 10
6.2031477724
 20
35.6598039216
 11
6.1763528532
 21
35.7598039216
  0
LINE
  5
21D
100
AcDbEntity
  8
0
100
AcDbLine
 62
7
  6
BYLAYER
 10
9.1763528532
 20
33.559805271
 11
9.1763528532
 21
41.5598025721
  0
LINE
  5
21E
100
AcDbEntity
  8
0
100
AcDbLine
 62
7
  6
BYLAYER
 10
9.1763528532
 20
41.5598039216
 11
9.4253652676
 21
41.9911060751
  0
LINE
  5
21F
100
AcDbEntity
  8
0
100
AcDbLine
 62
7
  6
BYLAYER
 10
9.1763528532
 20
33.5598039216
 11
9.4253652676
 21
33.128501768
  0
LINE
  5
220
100
AcDbEntity
  8
0
100
AcDbLine
 62
7
  6
BYLAYER
 10
6.5763528532
 20
39.8598039216
 11
6.7763528532
 21
40.0598039216
  0
LINE
  5
221
100
AcDbEntity
  8
0
100
AcDbLine
 62
7
  6
BYLAYER
 10
6.5763528532
 20
35.2598039216
 11
6.7763528532
 21
35.0598039216
  0
LINE
  5
222
100
AcDbEntity
  8
0
100
AcDbLine
 62
7
  6
BYLAYER
 10
13.1763528532
 20
41.5598025721
 11
13.1763528532
 21
33.559805271
  0
LINE
  5
223
100
AcDbEntity
  8
0
100
AcDbLine
 62
7
  6
BYLAYER
 10
15.1763528532
 20
33.559805271
 11
15.1763528532
 21
41.5598025721
  0
LINE
  5
224
100
AcDbEntity
  8
0
100
AcDbLine
 62
7
  6
BYLAYER
 10
15.1763528532
 20
41.5598039216
 11
15.4253652676
 21
41.9911060751
  0
LINE
  5
225
100
AcDbEntity
  8
0
100
AcDbLine
 62
7
  6
BYLAYER
 10
15.1763528532
 20
33.5598039216
 11
15.4253652676
 21
33.128501768
  0
LINE
  5
226
100
AcDbEntity
  8
0
100
AcDbLine
 62
7
  6
BYLAYER
 10
13.1763528532
 20
33.5598039216
 11
12.9273404387
 21
33.128501768
  0
LINE
  5
227
100
AcDbEntity
  8
0
100
AcDbLine
 62
7
  6
BYLAYER
 10
13.1763528532
 20
41.5598039216
 11
12.9273404387
 21
41.9911060751
  0
LINE
  5
228
100
AcDbEntity
  8
0
100
AcDbLine
 62
7
  6
BYLAYER
 10
19.1763528532
 20
41.5598025721
 11
19.1763528532
 21
33.559805271
  0
LINE
  5
229
100
AcDbEntity
  8
0
100
AcDbLine
 62
7
  6
BYLAYER
 10
48.2763528532
 20
34.3390289965
 11
46.9763528532
 21
34.1098039216
  0
LINE
  5
22A
100
AcDbEntity
  8
0
100
AcDbLine
 62
7
  6
BYLAYER
 10
19.1763528532
 20
33.5598039216
 11
18.9273404387
 21
33.128501768
  0
LINE
  5
22B
100
AcDbEntity
  8
0
100
AcDbLine
 62
7
  6
BYLAYER
 10
12.9013331386
 20
33.091001768
 11
9.4513725677
 21
33.091001768
  0
LINE
  5
22C
100
AcDbEntity
  8
0
100
AcDbLine
 62
7
  6
BYLAYER
 10
15.4513723074
 20
33.091001768
 11
18.9013333989
 21
33.091001768
  0
LINE
  5
22D
100
AcDbEntity
  8
0
100
AcDbLine
 62
7
  6
BYLAYER
 10
12.9510662734
 20
33.191001768
 11
9.4016394329
 21
33.191001768
  0
LINE
  5
22E
100
AcDbEntity
  8
0
100
AcDbLine
 62
7
  6
BYLAYER
 10
15.4016398236
 20
33.1910017681
 11
18.9510658828
 21
33.1910017681
  0
LINE
  5
22F
100
AcDbEntity
  8
0
100
AcDbLine
 62
7
  6
BYLAYER
 10
19.1763528532
 20
41.5598039216
 11
18.9273404387
 21
41.9911060751
  0
LINE
  5
230
100
AcDbEntity
  8
0
100
AcDbLine
 62
7
  6
BYLAYER
 10
42.8763528532
 20
33.5598039216
 11
44.9263528531
 21
33.5598039216
  0
LINE
  5
231
100
AcDbEntity
  8
0
100
AcDbLine
 62
7
  6
BYLAYER
 10
46.7763528532
 20
34.1098039216
 11
46.9763528532
 21
34.1098039216
  0
LINE
  5
232
100
AcDbEntity
  8
0
100
AcDbLine
 62
7
  6
BYLAYER
 10
31.8433401513
 20
34.3098039216
 11
42.1263528532
 21
34.3098039216
  0
LINE
  5
233
100
AcDbEntity
  8
0
100
AcDbLine
 62
7
  6
BYLAYER
 10
45.6763528532
 20
34.3098039216
 11
46.7763528532
 21
34.3098039216
  0
LINE
  5
234
100
AcDbEntity
  8
0
100
AcDbLine
 62
7
  6
BYLAYER
 10
12.9510658716
 20
35.0004028448
 11
9.4016398347
 21
35.0004028448
  0
LINE
  5
235
100
AcDbEntity
  8
0
100
AcDbLine
 62
7
  6
BYLAYER
 10
15.4016394509
 20
35.0004028448
 11
18.9510662554
 21
35.0004028448
  0
LINE
  5
236
100
AcDbEntity
  8
0
100
AcDbLine
 62
7
  6
BYLAYER
 10
6.7763528532
 20
35.0598039216
 11
9.1763528532
 21
35.0598039216
  0
LINE
  5
237
100
AcDbEntity
  8
0
100
AcDbLine
 62
7
  6
BYLAYER
 10
13.1763528532
 20
35.0598039216
 11
15.1763528532
 21
35.0598039216
  0
LINE
  5
238
100
AcDbEntity
  8
0
100
AcDbLine
 62
7
  6
BYLAYER
 10
19.1763528532
 20
35.0598039216
 11
29.8763528532
 21
35.0598039216
  0
LINE
  5
239
100
AcDbEntity
  8
0
100
AcDbLine
 62
7
  6
BYLAYER
 10
30.0763528532
 20
35.4998039216
 11
30.2763528532
 21
35.4998039216
  0
LINE
  5
23A
100
AcDbEntity
  8
0
100
AcDbLine
 62
7
  6
BYLAYER
 10
12.9013328182
 20
35.5504028448
 11
9.4513728881
 21
35.5504028448
  0
LINE
  5
23B
100
AcDbEntity
  8
0
100
AcDbLine
 62
7
  6
BYLAYER
 10
15.451373062
 20
35.5504028448
 11
18.9013326443
 21
35.5504028448
  0
LINE
  5
23C
100
AcDbEntity
  8
0
100
AcDbLine
 62
7
  6
BYLAYER
 10
6.203146136
 20
35.6598039216
 11
6.5763528532
 21
35.6598039216
  0
LINE
  5
23D
100
AcDbEntity
  8
0
100
AcDbLine
 62
7
  6
BYLAYER
 10
30.2763528532
 20
40.0598039216
 11
31.3433401513
 21
40.6758293253
  0
LINE
  5
23E
100
AcDbEntity
  8
0
100
AcDbLine
 62
7
  6
BYLAYER
 10
30.2763528532
 20
35.0598039216
 11
31.3433401513
 21
34.4437785178
  0
LINE
  5
23F
100
AcDbEntity
  8
0
100
AcDbLine
 62
7
  6
BYLAYER
 10
29.8763528532
 20
40.0598039216
 11
29.8763528532
 21
35.0598039216
  0
LINE
  5
240
100
AcDbEntity
  8
0
100
AcDbLine
 62
7
  6
BYLAYER
 10
30.0763528532
 20
39.8596858966
 11
30.0763528532
 21
35.2599219465
  0
LINE
  5
241
100
AcDbEntity
  8
0
100
AcDbLine
 62
7
  6
BYLAYER
 10
30.2763528532
 20
35.0598504832
 11
30.2763528532
 21
40.0597934941
  0
LINE
  5
242
100
AcDbEntity
  8
0
100
AcDbLine
 62
7
  6
BYLAYER
 10
6.203146136
 20
39.4598039216
 11
6.5763528532
 21
39.4598039216
  0
LINE
  5
243
100
AcDbEntity
  8
0
100
AcDbLine
 62
7
  6
BYLAYER
 10
12.9013326443
 20
39.5692049983
 11
9.451373062
 21
39.5692049983
  0
LINE
  5
244
100
AcDbEntity
  8
0
100
AcDbLine
 62
7
  6
BYLAYER
 10
15.4513728881
 20
39.5692049983
 11
18.9013328182
 21
39.5692049983
  0
LINE
  5
245
100
AcDbEntity
  8
0
100
AcDbLine
 62
7
  6
BYLAYER
 10
30.0763528532
 20
39.6198039216
 11
30.2763528532
 21
39.6198039216
  0
LINE
  5
246
100
AcDbEntity
  8
0
100
AcDbLine
 62
7
  6
BYLAYER
 10
6.7763528532
 20
40.0598039216
 11
9.1763528532
 21
40.0598039216
  0
LINE
  5
247
100
AcDbEntity
  8
0
100
AcDbLine
 62
7
  6
BYLAYER
 10
13.1763528532
 20
40.0598039216
 11
15.1763528532
 21
40.0598039216
  0
LINE
  5
248
100
AcDbEntity
  8
0
100
AcDbLine
 62
7
  6
BYLAYER
 10
19.1763528532
 20
40.0598039216
 11
29.8763528532
 21
40.0598039216
  0
LINE
  5
249
100
AcDbEntity
  8
0
100
AcDbLine
 62
7
  6
BYLAYER
 10
12.9510662734
 20
40.1192049983
 11
9.4016394329
 21
40.1192049983
  0
LINE
  5
24A
100
AcDbEntity
  8
0
100
AcDbLine
 62
7
  6
BYLAYER
 10
15.4016398236
 20
40.1192049983
 11
18.9510658828
 21
40.1192049983
  0
LINE
  5
24B
100
AcDbEntity
  8
0
100
AcDbLine
 62
7
  6
BYLAYER
 10
31.3433401513
 20
40.6758293253
 11
31.3433401513
 21
34.4437785178
  0
LINE
  5
24C
100
AcDbEntity
  8
0
100
AcDbLine
 62
7
  6
BYLAYER
 10
30.0763528532
 20
35.2598039216
 11
29.8763528532
 21
35.0598039216
  0
LINE
  5
24D
100
AcDbEntity
  8
0
100
AcDbLine
 62
7
  6
BYLAYER
 10
31.8433401513
 20
40.8098039216
 11
42.1263528532
 21
40.8098039216
  0
LINE
  5
24E
100
AcDbEntity
  8
0
100
AcDbLine
 62
7
  6
BYLAYER
 10
45.6763528532
 20
40.8098039216
 11
46.7763528532
 21
40.8098039216
  0
LINE
  5
24F
100
AcDbEntity
  8
0
100
AcDbLine
 62
7
  6
BYLAYER
 10
46.7763528532
 20
41.0098039216
 11
46.9763528532
 21
41.0098039216
  0
LINE
  5
250
100
AcDbEntity
  8
0
100
AcDbLine
 62
7
  6
BYLAYER
 10
42.8763528532
 20
41.5598039216
 11
44.9263528531
 21
41.5598039216
  0
LINE
  5
251
100
AcDbEntity
  8
0
100
AcDbLine
 62
7
  6
BYLAYER
 10
12.9510658716
 20
41.9286060751
 11
9.4016398347
 21
41.9286060751
  0
LINE
  5
252
100
AcDbEntity
  8
0
100
AcDbLine
 62
7
  6
BYLAYER
 10
15.4016394509
 20
41.9286060751
 11
18.9510662554
 21
41.9286060751
  0
LINE
  5
253
100
AcDbEntity
  8
0
100
AcDbLine
 62
7
  6
BYLAYER
 10
12.9013334064
 20
42.0286060751
 11
9.4513722999
 21
42.0286060751
  0
LINE
  5
254
100
AcDbEntity
  8
0
100
AcDbLine
 62
7
  6
BYLAYER
 10
15.4513725629
 20
42.0286060751
 11
18.9013331434
 21
42.0286060751
  0
LINE
  5
255
100
AcDbEntity
  8
0
100
AcDbLine
 62
7
  6
BYLAYER
 10
30.0763528532
 20
39.8598039216
 11
29.8763528532
 21
40.0598039216
  0
LINE
  5
256
100
AcDbEntity
  8
0
100
AcDbLine
 62
7
  6
BYLAYER
 10
31.8433401513
 20
34.3098039216
 11
31.8433401513
 21
40.8098039216
  0
LINE
  5
257
100
AcDbEntity
  8
0
100
AcDbLine
 62
7
  6
BYLAYER
 10
48.2763528532
 20
40.7805788466
 11
46.9763528532
 21
41.0098039216
  0
LINE
  5
258
100
AcDbEntity
  8
0
100
AcDbLine
 62
7
  6
BYLAYER
 10
42.1263528532
 20
40.8098039216
 11
42.8763528532
 21
41.5598039216
  0
LINE
  5
259
100
AcDbEntity
  8
0
100
AcDbLine
 62
7
  6
BYLAYER
 10
42.1263528532
 20
34.3098039216
 11
42.8763528532
 21
33.5598039216
  0
LINE
  5
25A
100
AcDbEntity
  8
0
100
AcDbLine
 62
7
  6
BYLAYER
 10
42.1263528532
 20
40.8098039216
 11
42.1263528532
 21
34.3098039216
  0
LINE
  5
25B
100
AcDbEntity
  8
0
100
AcDbLine
 62
7
  6
BYLAYER
 10
42.8763528532
 20
33.5598039216
 11
42.8763528532
 21
41.5598039216
  0
LINE
  5
25C
100
AcDbEntity
  8
0
100
AcDbLine
 62
7
  6
BYLAYER
 10
45.6763528532
 20
34.3098039216
 11
44.9263528532
 21
33.5598039216
  0
LINE
  5
25D
100
AcDbEntity
  8
0
100
AcDbLine
 62
7
  6
BYLAYER
 10
45.6763528532
 20
40.8098039216
 11
44.9263528532
 21
41.5598039216
  0
LINE
  5
25E
100
AcDbEntity
  8
0
100
AcDbLine
 62
7
  6
BYLAYER
 10
44.9263528532
 20
41.5598039216
 11
44.9263528532
 21
33.5598039216
  0
LINE
  5
25F
100
AcDbEntity
  8
0
100
AcDbLine
 62
7
  6
BYLAYER
 10
45.6763528532
 20
34.3098039216
 11
45.6763528532
 21
40.8098039216
  0
LINE
  5
260
100
AcDbEntity
  8
0
100
AcDbLine
 62
7
  6
BYLAYER
 10
46.7763528532
 20
34.109799606
 11
46.7763528532
 21
41.0097945442
  0
LINE
  5
261
100
AcDbEntity
  8
0
100
AcDbLine
 62
7
  6
BYLAYER
 10
46.9763528532
 20
41.0098039216
 11
46.9763528532
 21
34.1098039216
  0
LINE
  5
262
100
AcDbEntity
  8
0
100
AcDbLine
 62
7
  6
BYLAYER
 10
48.2763528532
 20
40.7805826862
 11
48.2763528532
 21
34.3390251569
  0
ARC
  5
263
100
AcDbEntity
  8
0
100
AcDbCircle
 62
7
  6
BYLAYER
 10
14.0829590398
 20
40.2822644811
 40
4.8708426221
100
AcDbArc
 50
351.5820333936
 51
358.0815688515
  0
ARC
  5
264
100
AcDbEntity
  8
0
100
AcDbCircle
 62
7
  6
BYLAYER
 10
20.2697466564
 20
40.2822644799
 40
4.8708426118
100
AcDbArc
 50
181.9184311381
 51
188.4179666096
  0
ARC
  5
265
100
AcDbEntity
  8
0
100
AcDbCircle
 62
7
  6
BYLAYER
 10
14.0829661958
 20
34.8373441818
 40
4.870835423
100
AcDbArc
 50
1.9184243357
 51
8.4179693898
  0
ARC
  5
266
100
AcDbEntity
  8
0
100
AcDbCircle
 62
7
  6
BYLAYER
 10
20.2697394979
 20
34.8373441833
 40
4.8708354102
100
AcDbArc
 50
171.5820306059
 51
178.081575677
  0
ARC
  5
267
100
AcDbEntity
  8
0
100
AcDbCircle
 62
7
  6
BYLAYER
 10
8.0842087721
 20
40.2820394187
 40
4.8695807814
100
AcDbArc
 50
351.5825003331
 51
358.083723209
  0
ARC
  5
268
100
AcDbEntity
  8
0
100
AcDbCircle
 62
7
  6
BYLAYER
 10
14.2684969335
 20
40.2820394187
 40
4.8695807806
100
AcDbArc
 50
181.9162767905
 51
188.4174996674
  0
ARC
  5
269
100
AcDbEntity
  8
0
100
AcDbCircle
 62
7
  6
BYLAYER
 10
14.2684951006
 20
34.8375687495
 40
4.8695789199
100
AcDbArc
 50
171.5825009593
 51
178.083726304
  0
ARC
  5
26A
100
AcDbEntity
  8
0
100
AcDbCircle
 62
7
  6
BYLAYER
 10
8.0842106065
 20
34.8375687496
 40
4.8695789191
100
AcDbArc
 50
1.9162736955
 51
8.4174990412
  0
ARC
  5
26B
100
AcDbEntity
  8
0
100
AcDbCircle
 62
7
  6
BYLAYER
 10
31.8433401513
 20
35.3098039216
 40
1.0
100
AcDbArc
 50
240.0
 51
270.0
  0
ARC
  5
26C
100
AcDbEntity
  8
0
100
AcDbCircle
 62
7
  6
BYLAYER
 10
31.8433401513
 20
39.8098039216
 40
1.0
100
AcDbArc
 50
90.0
 51
120.0
  0
CIRCLE
  5
26D
100
AcDbEntity
  8
0
100
AcDbCircle
 62
7
  6
BYLAYER
 10
23.8763528532
 20
37.5598039216
 40
0.5
  0
SPLINE
  5
26E
100
AcDbEntity
  8
0
100
AcDbSpline
 62
7
  6
BYLAYER
 70
0
 71
3
 72
9
 73
5
 74
0
 42
0.0000001
 43
0.0000001
 44
0.0000000001
 40
0.0
 40
0.0
 40
0.0
 40
0.0
 40
0.2402933485
 40
1.0
 40
1.0
 40
1.0
 40
1.0
 10
18.9273636504
 20
41.9911063477
 30
0.0
 10
18.9255378329
 20
41.9942767663
 30
0.0
 10
18.9176344094
 20
42.0072948072
 30
0.0
 10
18.9086059054
 20
42.0196114467
 30
0.0
 10
18.9013334064
 20
42.0286060751
 30
0.0
  0
SPLINE
  5
26F
100
AcDbEntity
  8
0
100
AcDbSpline
 62
7
  6
BYLAYER
 70
0
 71
3
 72
9
 73
5
 74
0
 42
0.0000001
 43
0.0000001
 44
0.0000000001
 40
0.0
 40
0.0
 40
0.0
 40
0.0
 40
0.2402933526
 40
1.0
 40
1.0
 40
1.0
 40
1.0
 10
15.425342059
 20
33.1285014954
 30
0.0
 10
15.427167877
 20
33.1253310769
 30
0.0
 10
15.4350713026
 20
33.1123130362
 30
0.0
 10
15.4440998081
 20
33.0999963969
 30
0.0
 10
15.4513723074
 20
33.091001768
 30
0.0
  0
SPLINE
  5
270
100
AcDbEntity
  8
0
100
AcDbSpline
 62
7
  6
BYLAYER
 70
0
 71
3
 72
9
 73
5
 74
0
 42
0.0000001
 43
0.0000001
 44
0.0000000001
 40
0.0
 40
0.0
 40
0.0
 40
0.0
 40
0.2600778921
 40
1.0
 40
1.0
 40
1.0
 40
1.0
 10
18.9013333989
 20
33.091001768
 30
0.0
 10
18.9038229347
 20
33.0940808265
 30
0.0
 10
18.9131988363
 20
33.1060746289
 30
0.0
 10
18.9217418018
 20
33.1187395131
 30
0.0
 10
18.9273636473
 20
33.1285014954
 30
0.0
  0
SPLINE
  5
271
100
AcDbEntity
  8
0
100
AcDbSpline
 62
7
  6
BYLAYER
 70
0
 71
3
 72
9
 73
5
 74
0
 42
0.0000001
 43
0.0000001
 44
0.0000000001
 40
0.0
 40
0.0
 40
0.0
 40
0.0
 40
0.2600779006
 40
1.0
 40
1.0
 40
1.0
 40
1.0
 10
15.4513722999
 20
42.0286060751
 30
0.0
 10
15.4488827642
 20
42.0255270167
 30
0.0
 10
15.4395068634
 20
42.0135332147
 30
0.0
 10
15.4309638998
 20
42.0008683302
 30
0.0
 10
15.4253420559
 20
41.9911063477
 30
0.0
  0
SPLINE
  5
272
100
AcDbEntity
  8
0
100
AcDbSpline
 62
7
  6
BYLAYER
 70
0
 71
3
 72
11
 73
7
 74
0
 42
0.0000001
 43
0.0000001
 44
0.0000000001
 40
0.0
 40
0.0
 40
0.0
 40
0.0
 40
0.2499976911
 40
0.4999975235
 40
0.7499977135
 40
1.0
 40
1.0
 40
1.0
 40
1.0
 10
19.1763528532
 20
37.5598039216
 30
0.0
 10
19.1763528532
 20
37.3903594211
 30
0.0
 10
19.1638412295
 20
37.0513426482
 30
0.0
 10
19.1088436755
 20
36.5456058836
 30
0.0
 10
19.0210852731
 20
36.0445838111
 30
0.0
 10
18.9438436143
 20
35.7144312317
 30
0.0
 10
18.9013326443
 20
35.5504028448
 30
0.0
  0
SPLINE
  5
273
100
AcDbEntity
  8
0
100
AcDbSpline
 62
7
  6
BYLAYER
 70
0
 71
3
 72
11
 73
7
 74
0
 42
0.0000001
 43
0.0000001
 44
0.0000000001
 40
0.0
 40
0.0
 40
0.0
 40
0.0
 40
0.2583408225
 40
0.5100860291
 40
0.7565408314
 40
1.0
 40
1.0
 40
1.0
 40
1.0
 10
15.4016398236
 20
33.1910017681
 30
0.0
 10
15.3668651595
 20
33.2640726472
 30
0.0
 10
15.3037908391
 20
33.4111314119
 30
0.0
 10
15.2316804874
 20
33.6373308581
 30
0.0
 10
15.1866354717
 20
33.8657979143
 30
0.0
 10
15.1763531913
 20
34.0194403403
 30
0.0
 10
15.1763539253
 20
34.0957023673
 30
0.0
  0
SPLINE
  5
274
100
AcDbEntity
  8
0
100
AcDbSpline
 62
7
  6
BYLAYER
 70
0
 71
3
 72
9
 73
5
 74
0
 42
0.0000001
 43
0.0000001
 44
0.0000000001
 40
0.0
 40
0.0
 40
0.0
 40
0.0
 40
0.2631174355
 40
1.0
 40
1.0
 40
1.0
 40
1.0
 10
15.4253420559
 20
41.9911063477
 30
0.0
 10
15.4224085522
 20
41.9860125009
 30
0.0
 10
15.4119839896
 20
41.9662604663
 30
0.0
 10
15.4045559088
 20
41.9448079475
 30
0.0
 10
15.4016394509
 20
41.9286060751
 30
0.0
  0
SPLINE
  5
275
100
AcDbEntity
  8
0
100
AcDbSpline
 62
7
  6
BYLAYER
 70
0
 71
3
 72
11
 73
7
 74
0
 42
0.0000001
 43
0.0000001
 44
0.0000000001
 40
0.0
 40
0.0
 40
0.0
 40
0.0
 40
0.2500023206
 40
0.5000025385
 40
0.750002353
 40
1.0
 40
1.0
 40
1.0
 40
1.0
 10
15.451373062
 20
35.5504028448
 30
0.0
 10
15.4088620862
 20
35.714431254
 30
0.0
 10
15.3316203991
 20
36.0445838704
 30
0.0
 10
15.2438620331
 20
36.5456059799
 30
0.0
 10
15.1888644797
 20
37.0513427202
 30
0.0
 10
15.1763528532
 20
37.3903594511
 30
0.0
 10
15.1763528532
 20
37.5598039216
 30
0.0
  0
SPLINE
  5
276
100
AcDbEntity
  8
0
100
AcDbSpline
 62
7
  6
BYLAYER
 70
0
 71
3
 72
11
 73
7
 74
0
 42
0.0000001
 43
0.0000001
 44
0.0000000001
 40
0.0
 40
0.0
 40
0.0
 40
0.0
 40
0.2434591903
 40
0.4899140041
 40
0.7416591992
 40
1.0
 40
1.0
 40
1.0
 40
1.0
 10
15.1763539253
 20
34.0957023673
 30
0.0
 10
15.1763531969
 20
34.1719643918
 30
0.0
 10
15.186635463
 20
34.3256068101
 30
0.0
 10
15.2316804986
 20
34.5540738424
 30
0.0
 10
15.3037908729
 20
34.7802732426
 30
0.0
 10
15.3668651775
 20
34.927331981
 30
0.0
 10
15.4016398347
 20
35.0004028448
 30
0.0
  0
SPLINE
  5
277
100
AcDbEntity
  8
0
100
AcDbSpline
 62
7
  6
BYLAYER
 70
0
 71
3
 72
11
 73
7
 74
0
 42
0.0000001
 43
0.0000001
 44
0.0000000001
 40
0.0
 40
0.0
 40
0.0
 40
0.0
 40
0.2583408225
 40
0.5100860291
 40
0.7565408314
 40
1.0
 40
1.0
 40
1.0
 40
1.0
 10
15.4016398236
 20
40.1192049983
 30
0.0
 10
15.3668651595
 20
40.1922758775
 30
0.0
 10
15.3037908391
 20
40.3393346422
 30
0.0
 10
15.2316804874
 20
40.5655340883
 30
0.0
 10
15.1866354717
 20
40.7940011446
 30
0.0
 10
15.1763531913
 20
40.9476435706
 30
0.0
 10
15.1763539253
 20
41.0239055976
 30
0.0
  0
SPLINE
  5
278
100
AcDbEntity
  8
0
100
AcDbSpline
 62
7
  6
BYLAYER
 70
0
 71
3
 72
11
 73
7
 74
0
 42
0.0000001
 43
0.0000001
 44
0.0000000001
 40
0.0
 40
0.0
 40
0.0
 40
0.0
 40
0.2499976911
 40
0.4999975235
 40
0.7499977135
 40
1.0
 40
1.0
 40
1.0
 40
1.0
 10
15.1763528532
 20
37.5598039216
 30
0.0
 10
15.1763528532
 20
37.729248422
 30
0.0
 10
15.1888644768
 20
38.068265195
 30
0.0
 10
15.2438620308
 20
38.5740019596
 30
0.0
 10
15.3316204332
 20
39.075024032
 30
0.0
 10
15.4088620919
 20
39.4051766115
 30
0.0
 10
15.451373062
 20
39.5692049983
 30
0.0
  0
SPLINE
  5
279
100
AcDbEntity
  8
0
100
AcDbSpline
 62
7
  6
BYLAYER
 70
0
 71
3
 72
11
 73
7
 74
0
 42
0.0000001
 43
0.0000001
 44
0.0000000001
 40
0.0
 40
0.0
 40
0.0
 40
0.0
 40
0.2434591924
 40
0.4899140058
 40
0.7416591986
 40
1.0
 40
1.0
 40
1.0
 40
1.0
 10
19.1763517811
 20
41.0239055976
 30
0.0
 10
19.1763525147
 20
40.9476435631
 30
0.0
 10
19.1660702362
 20
40.794001126
 30
0.0
 10
19.1210252183
 20
40.5655340626
 30
0.0
 10
19.0489148551
 20
40.3393346281
 30
0.0
 10
18.985840544
 20
40.1922758715
 30
0.0
 10
18.9510658828
 20
40.1192049983
 30
0.0
  0
SPLINE
  5
27A
100
AcDbEntity
  8
0
100
AcDbSpline
 62
7
  6
BYLAYER
 70
0
 71
3
 72
11
 73
7
 74
0
 42
0.0000001
 43
0.0000001
 44
0.0000000001
 40
0.0
 40
0.0
 40
0.0
 40
0.0
 40
0.2500023206
 40
0.5000025385
 40
0.750002353
 40
1.0
 40
1.0
 40
1.0
 40
1.0
 10
18.9013326443
 20
39.5692049983
 30
0.0
 10
18.9438436201
 20
39.4051765891
 30
0.0
 10
19.0210853072
 20
39.0750239727
 30
0.0
 10
19.1088436732
 20
38.5740018632
 30
0.0
 10
19.1638412266
 20
38.068265123
 30
0.0
 10
19.1763528532
 20
37.7292483921
 30
0.0
 10
19.1763528532
 20
37.5598039216
 30
0.0
  0
SPLINE
  5
27B
100
AcDbEntity
  8
0
100
AcDbSpline
 62
7
  6
BYLAYER
 70
0
 71
3
 72
9
 73
5
 74
0
 42
0.0000001
 43
0.0000001
 44
0.0000000001
 40
0.0
 40
0.0
 40
0.0
 40
0.0
 40
0.2631174292
 40
1.0
 40
1.0
 40
1.0
 40
1.0
 10
18.9273636473
 20
33.1285014954
 30
0.0
 10
18.9302971519
 20
33.1335953423
 30
0.0
 10
18.9407217169
 20
33.1533473778
 30
0.0
 10
18.9481498156
 20
33.1747998937
 30
0.0
 10
18.9510662734
 20
33.191001768
 30
0.0
  0
SPLINE
  5
27C
100
AcDbEntity
  8
0
100
AcDbSpline
 62
7
  6
BYLAYER
 70
0
 71
3
 72
11
 73
7
 74
0
 42
0.0000001
 43
0.0000001
 44
0.0000000001
 40
0.0
 40
0.0
 40
0.0
 40
0.0
 40
0.2434591903
 40
0.4899140041
 40
0.7416591992
 40
1.0
 40
1.0
 40
1.0
 40
1.0
 10
15.1763539253
 20
41.0239055976
 30
0.0
 10
15.1763531969
 20
41.1001676221
 30
0.0
 10
15.186635463
 20
41.2538100404
 30
0.0
 10
15.2316804986
 20
41.4822770727
 30
0.0
 10
15.3037908729
 20
41.7084764729
 30
0.0
 10
15.3668651775
 20
41.8555352112
 30
0.0
 10
15.4016398347
 20
41.9286060751
 30
0.0
  0
SPLINE
  5
27D
100
AcDbEntity
  8
0
100
AcDbSpline
 62
7
  6
BYLAYER
 70
0
 71
3
 72
9
 73
5
 74
0
 42
0.0000001
 43
0.0000001
 44
0.0000000001
 40
0.0
 40
0.0
 40
0.0
 40
0.0
 40
0.23948452
 40
1.0
 40
1.0
 40
1.0
 40
1.0
 10
15.4016394329
 20
33.191001768
 30
0.0
 10
15.4025874831
 20
33.1857350401
 30
0.0
 10
15.4076700349
 20
33.1639472545
 30
0.0
 10
15.4168611641
 20
33.1432280379
 30
0.0
 10
15.425342059
 20
33.1285014954
 30
0.0
  0
SPLINE
  5
27E
100
AcDbEntity
  8
0
100
AcDbSpline
 62
7
  6
BYLAYER
 70
0
 71
3
 72
11
 73
7
 74
0
 42
0.0000001
 43
0.0000001
 44
0.0000000001
 40
0.0
 40
0.0
 40
0.0
 40
0.0
 40
0.2434591924
 40
0.4899140058
 40
0.7416591986
 40
1.0
 40
1.0
 40
1.0
 40
1.0
 10
19.1763517811
 20
34.0957023673
 30
0.0
 10
19.1763525147
 20
34.0194403328
 30
0.0
 10
19.1660702362
 20
33.8657978957
 30
0.0
 10
19.1210252183
 20
33.6373308324
 30
0.0
 10
19.0489148551
 20
33.4111313978
 30
0.0
 10
18.985840544
 20
33.2640726412
 30
0.0
 10
18.9510658828
 20
33.1910017681
 30
0.0
  0
SPLINE
  5
27F
100
AcDbEntity
  8
0
100
AcDbSpline
 62
7
  6
BYLAYER
 70
0
 71
3
 72
9
 73
5
 74
0
 42
0.0000001
 43
0.0000001
 44
0.0000000001
 40
0.0
 40
0.0
 40
0.0
 40
0.0
 40
0.2394845331
 40
1.0
 40
1.0
 40
1.0
 40
1.0
 10
18.9510662554
 20
41.9286060751
 30
0.0
 10
18.9501182051
 20
41.9338728027
 30
0.0
 10
18.9450356625
 20
41.9556605874
 30
0.0
 10
18.9358445424
 20
41.9763798061
 30
0.0
 10
18.9273636504
 20
41.9911063477
 30
0.0
  0
SPLINE
  5
280
100
AcDbEntity
  8
0
100
AcDbSpline
 62
7
  6
BYLAYER
 70
0
 71
3
 72
11
 73
7
 74
0
 42
0.0000001
 43
0.0000001
 44
0.0000000001
 40
0.0
 40
0.0
 40
0.0
 40
0.0
 40
0.2583408219
 40
0.5100860308
 40
0.7565408335
 40
1.0
 40
1.0
 40
1.0
 40
1.0
 10
18.9510658716
 20
35.0004028448
 30
0.0
 10
18.9858405317
 20
34.927331975
 30
0.0
 10
19.0489148455
 20
34.7802732286
 30
0.0
 10
19.1210252083
 20
34.5540738167
 30
0.0
 10
19.1660702416
 20
34.3256067915
 30
0.0
 10
19.1763525097
 20
34.1719643843
 30
0.0
 10
19.1763517811
 20
34.0957023673
 30
0.0
  0
SPLINE
  5
281
100
AcDbEntity
  8
0
100
AcDbSpline
 62
7
  6
BYLAYER
 70
0
 71
3
 72
11
 73
7
 74
0
 42
0.0000001
 43
0.0000001
 44
0.0000000001
 40
0.0
 40
0.0
 40
0.0
 40
0.0
 40
0.2583408219
 40
0.5100860308
 40
0.7565408335
 40
1.0
 40
1.0
 40
1.0
 40
1.0
 10
18.9510658716
 20
41.9286060751
 30
0.0
 10
18.9858405317
 20
41.8555352053
 30
0.0
 10
19.0489148455
 20
41.7084764588
 30
0.0
 10
19.1210252083
 20
41.482277047
 30
0.0
 10
19.1660702416
 20
41.2538100218
 30
0.0
 10
19.1763525097
 20
41.1001676146
 30
0.0
 10
19.1763517811
 20
41.0239055976
 30
0.0
  0
SPLINE
  5
282
100
AcDbEntity
  8
0
100
AcDbSpline
 62
7
  6
BYLAYER
 70
0
 71
3
 72
9
 73
5
 74
0
 42
0.0000001
 43
0.0000001
 44
0.0000000001
 40
0.0
 40
0.0
 40
0.0
 40
0.0
 40
0.2403891324
 40
1.0
 40
1.0
 40
1.0
 40
1.0
 10
9.4253594608
 20
41.9911061434
 30
0.0
 10
9.4271881874
 20
41.994275617
 30
0.0
 10
9.4350923495
 20
42.0072887422
 30
0.0
 10
9.4441023554
 20
42.019614606
 30
0.0
 10
9.4513722999
 20
42.0286060751
 30
0.0
  0
SPLINE
  5
283
100
AcDbEntity
  8
0
100
AcDbSpline
 62
7
  6
BYLAYER
 70
0
 71
3
 72
9
 73
5
 74
0
 42
0.0000001
 43
0.0000001
 44
0.0000000001
 40
0.0
 40
0.0
 40
0.0
 40
0.0
 40
0.2403891362
 40
1.0
 40
1.0
 40
1.0
 40
1.0
 10
12.9273462463
 20
33.1285016997
 30
0.0
 10
12.9255175189
 20
33.125332226
 30
0.0
 10
12.9176133533
 20
33.1123191012
 30
0.0
 10
12.9086033441
 20
33.0999932381
 30
0.0
 10
12.9013333989
 20
33.091001768
 30
0.0
  0
SPLINE
  5
284
100
AcDbEntity
  8
0
100
AcDbSpline
 62
7
  6
BYLAYER
 70
0
 71
3
 72
9
 73
5
 74
0
 42
0.0000001
 43
0.0000001
 44
0.0000000001
 40
0.0
 40
0.0
 40
0.0
 40
0.0
 40
0.2600682595
 40
1.0
 40
1.0
 40
1.0
 40
1.0
 10
12.9013334064
 20
42.0286060751
 30
0.0
 10
12.9038223172
 20
42.0255277896
 30
0.0
 10
12.9131917137
 20
42.0135325795
 30
0.0
 10
12.9217175512
 20
42.0008615645
 30
0.0
 10
12.9273462455
 20
41.9911061434
 30
0.0
  0
SPLINE
  5
285
100
AcDbEntity
  8
0
100
AcDbSpline
 62
7
  6
BYLAYER
 70
0
 71
3
 72
9
 73
5
 74
0
 42
0.0000001
 43
0.0000001
 44
0.0000000001
 40
0.0
 40
0.0
 40
0.0
 40
0.0
 40
0.2600682452
 40
1.0
 40
1.0
 40
1.0
 40
1.0
 10
9.4513723074
 20
33.091001768
 30
0.0
 10
9.4488833965
 20
33.0940800537
 30
0.0
 10
9.4395139984
 20
33.1060752644
 30
0.0
 10
9.4309881568
 20
33.1187462784
 30
0.0
 10
9.42535946
 20
33.1285016997
 30
0.0
  0
SPLINE
  5
286
100
AcDbEntity
  8
0
100
AcDbSpline
 62
7
  6
BYLAYER
 70
0
 71
3
 72
11
 73
7
 74
0
 42
0.0000001
 43
0.0000001
 44
0.0000000001
 40
0.0
 40
0.0
 40
0.0
 40
0.0
 40
0.2583408225
 40
0.5100860291
 40
0.7565408314
 40
1.0
 40
1.0
 40
1.0
 40
1.0
 10
9.4016398236
 20
40.1192049983
 30
0.0
 10
9.3668651595
 20
40.1922758775
 30
0.0
 10
9.3037908391
 20
40.3393346422
 30
0.0
 10
9.2316804874
 20
40.5655340883
 30
0.0
 10
9.1866354717
 20
40.7940011446
 30
0.0
 10
9.1763531913
 20
40.9476435706
 30
0.0
 10
9.1763539253
 20
41.0239055976
 30
0.0
  0
SPLINE
  5
287
100
AcDbEntity
  8
0
100
AcDbSpline
 62
7
  6
BYLAYER
 70
0
 71
3
 72
9
 73
5
 74
0
 42
0.0000001
 43
0.0000001
 44
0.0000000001
 40
0.0
 40
0.0
 40
0.0
 40
0.0
 40
0.5159263472
 40
1.0
 40
1.0
 40
1.0
 40
1.0
 10
12.9273462455
 20
41.9911061434
 30
0.0
 10
12.9331132645
 20
41.9811109836
 30
0.0
 10
12.9429449091
 20
41.9609072637
 30
0.0
 10
12.9491481194
 20
41.9392619444
 30
0.0
 10
12.9510662554
 20
41.9286060751
 30
0.0
  0
SPLINE
  5
288
100
AcDbEntity
  8
0
100
AcDbSpline
 62
7
  6
BYLAYER
 70
0
 71
3
 72
11
 73
7
 74
0
 42
0.0000001
 43
0.0000001
 44
0.0000000001
 40
0.0
 40
0.0
 40
0.0
 40
0.0
 40
0.2583408219
 40
0.5100860308
 40
0.7565408335
 40
1.0
 40
1.0
 40
1.0
 40
1.0
 10
12.9510658716
 20
41.9286060751
 30
0.0
 10
12.9858405317
 20
41.8555352053
 30
0.0
 10
13.0489148455
 20
41.7084764588
 30
0.0
 10
13.1210252083
 20
41.482277047
 30
0.0
 10
13.1660702416
 20
41.2538100218
 30
0.0
 10
13.1763525096
 20
41.1001676146
 30
0.0
 10
13.176351781
 20
41.0239055976
 30
0.0
  0
SPLINE
  5
289
100
AcDbEntity
  8
0
100
AcDbSpline
 62
7
  6
BYLAYER
 70
0
 71
3
 72
9
 73
5
 74
0
 42
0.0000001
 43
0.0000001
 44
0.0000000001
 40
0.0
 40
0.0
 40
0.0
 40
0.0
 40
0.5159263539
 40
1.0
 40
1.0
 40
1.0
 40
1.0
 10
9.42535946
 20
33.1285016997
 30
0.0
 10
9.4195924387
 20
33.1384968595
 30
0.0
 10
9.4097607906
 20
33.1587005793
 30
0.0
 10
9.4035575688
 20
33.1803458979
 30
0.0
 10
9.4016394329
 20
33.191001768
 30
0.0
  0
SPLINE
  5
28A
100
AcDbEntity
  8
0
100
AcDbSpline
 62
7
  6
BYLAYER
 70
0
 71
3
 72
11
 73
7
 74
0
 42
0.0000001
 43
0.0000001
 44
0.0000000001
 40
0.0
 40
0.0
 40
0.0
 40
0.0
 40
0.2434591923
 40
0.4899140058
 40
0.7416591986
 40
1.0
 40
1.0
 40
1.0
 40
1.0
 10
13.176351781
 20
41.0239055976
 30
0.0
 10
13.1763525147
 20
40.9476435631
 30
0.0
 10
13.1660702362
 20
40.794001126
 30
0.0
 10
13.1210252183
 20
40.5655340626
 30
0.0
 10
13.0489148551
 20
40.3393346281
 30
0.0
 10
12.985840544
 20
40.1922758715
 30
0.0
 10
12.9510658827
 20
40.1192049983
 30
0.0
  0
SPLINE
  5
28B
100
AcDbEntity
  8
0
100
AcDbSpline
 62
7
  6
BYLAYER
 70
0
 71
3
 72
11
 73
7
 74
0
 42
0.0000001
 43
0.0000001
 44
0.0000000001
 40
0.0
 40
0.0
 40
0.0
 40
0.0
 40
0.2500023206
 40
0.5000025385
 40
0.750002353
 40
1.0
 40
1.0
 40
1.0
 40
1.0
 10
12.9013326443
 20
39.5692049983
 30
0.0
 10
12.9438436201
 20
39.4051765891
 30
0.0
 10
13.0210853072
 20
39.0750239727
 30
0.0
 10
13.1088436732
 20
38.5740018632
 30
0.0
 10
13.1638412266
 20
38.068265123
 30
0.0
 10
13.1763528532
 20
37.7292483921
 30
0.0
 10
13.1763528532
 20
37.5598039216
 30
0.0
  0
SPLINE
  5
28C
100
AcDbEntity
  8
0
100
AcDbSpline
 62
7
  6
BYLAYER
 70
0
 71
3
 72
11
 73
7
 74
0
 42
0.0000001
 43
0.0000001
 44
0.0000000001
 40
0.0
 40
0.0
 40
0.0
 40
0.0
 40
0.2499976911
 40
0.4999975235
 40
0.7499977135
 40
1.0
 40
1.0
 40
1.0
 40
1.0
 10
13.1763528532
 20
37.5598039216
 30
0.0
 10
13.1763528532
 20
37.3903594211
 30
0.0
 10
13.1638412295
 20
37.0513426482
 30
0.0
 10
13.1088436755
 20
36.5456058836
 30
0.0
 10
13.0210852731
 20
36.0445838111
 30
0.0
 10
12.9438436144
 20
35.7144312317
 30
0.0
 10
12.9013326443
 20
35.5504028448
 30
0.0
  0
SPLINE
  5
28D
100
AcDbEntity
  8
0
100
AcDbSpline
 62
7
  6
BYLAYER
 70
0
 71
3
 72
11
 73
7
 74
0
 42
0.0000001
 43
0.0000001
 44
0.0000000001
 40
0.0
 40
0.0
 40
0.0
 40
0.0
 40
0.2583408219
 40
0.5100860308
 40
0.7565408335
 40
1.0
 40
1.0
 40
1.0
 40
1.0
 10
12.9510658716
 20
35.0004028448
 30
0.0
 10
12.9858405317
 20
34.927331975
 30
0.0
 10
13.0489148455
 20
34.7802732286
 30
0.0
 10
13.1210252083
 20
34.5540738167
 30
0.0
 10
13.1660702416
 20
34.3256067915
 30
0.0
 10
13.1763525096
 20
34.1719643843
 30
0.0
 10
13.176351781
 20
34.0957023673
 30
0.0
  0
SPLINE
  5
28E
100
AcDbEntity
  8
0
100
AcDbSpline
 62
7
  6
BYLAYER
 70
0
 71
3
 72
11
 73
7
 74
0
 42
0.0000001
 43
0.0000001
 44
0.0000000001
 40
0.0
 40
0.0
 40
0.0
 40
0.0
 40
0.2500023206
 40
0.5000025385
 40
0.750002353
 40
1.0
 40
1.0
 40
1.0
 40
1.0
 10
9.451373062
 20
35.5504028448
 30
0.0
 10
9.4088620862
 20
35.714431254
 30
0.0
 10
9.3316203991
 20
36.0445838704
 30
0.0
 10
9.2438620331
 20
36.5456059799
 30
0.0
 10
9.1888644797
 20
37.0513427202
 30
0.0
 10
9.1763528532
 20
37.3903594511
 30
0.0
 10
9.1763528532
 20
37.5598039216
 30
0.0
  0
SPLINE
  5
28F
100
AcDbEntity
  8
0
100
AcDbSpline
 62
7
  6
BYLAYER
 70
0
 71
3
 72
11
 73
7
 74
0
 42
0.0000001
 43
0.0000001
 44
0.0000000001
 40
0.0
 40
0.0
 40
0.0
 40
0.0
 40
0.2434591903
 40
0.4899140041
 40
0.7416591992
 40
1.0
 40
1.0
 40
1.0
 40
1.0
 10
9.1763539253
 20
34.0957023673
 30
0.0
 10
9.1763531969
 20
34.1719643918
 30
0.0
 10
9.186635463
 20
34.3256068101
 30
0.0
 10
9.2316804986
 20
34.5540738424
 30
0.0
 10
9.3037908729
 20
34.7802732426
 30
0.0
 10
9.3668651775
 20
34.927331981
 30
0.0
 10
9.4016398347
 20
35.0004028448
 30
0.0
  0
SPLINE
  5
290
100
AcDbEntity
  8
0
100
AcDbSpline
 62
7
  6
BYLAYER
 70
0
 71
3
 72
9
 73
5
 74
0
 42
0.0000001
 43
0.0000001
 44
0.0000000001
 40
0.0
 40
0.0
 40
0.0
 40
0.0
 40
0.4840736461
 40
1.0
 40
1.0
 40
1.0
 40
1.0
 10
12.9510662734
 20
33.191001768
 30
0.0
 10
12.9491481375
 20
33.1803458979
 30
0.0
 10
12.9429449157
 20
33.1587005793
 30
0.0
 10
12.9331132676
 20
33.1384968595
 30
0.0
 10
12.9273462463
 20
33.1285016997
 30
0.0
  0
SPLINE
  5
291
100
AcDbEntity
  8
0
100
AcDbSpline
 62
7
  6
BYLAYER
 70
0
 71
3
 72
11
 73
7
 74
0
 42
0.0000001
 43
0.0000001
 44
0.0000000001
 40
0.0
 40
0.0
 40
0.0
 40
0.0
 40
0.2434591923
 40
0.4899140058
 40
0.7416591986
 40
1.0
 40
1.0
 40
1.0
 40
1.0
 10
13.176351781
 20
34.0957023673
 30
0.0
 10
13.1763525147
 20
34.0194403328
 30
0.0
 10
13.1660702362
 20
33.8657978957
 30
0.0
 10
13.1210252183
 20
33.6373308324
 30
0.0
 10
13.0489148551
 20
33.4111313978
 30
0.0
 10
12.985840544
 20
33.2640726412
 30
0.0
 10
12.9510658827
 20
33.1910017681
 30
0.0
  0
SPLINE
  5
292
100
AcDbEntity
  8
0
100
AcDbSpline
 62
7
  6
BYLAYER
 70
0
 71
3
 72
11
 73
7
 74
0
 42
0.0000001
 43
0.0000001
 44
0.0000000001
 40
0.0
 40
0.0
 40
0.0
 40
0.0
 40
0.2434591903
 40
0.4899140041
 40
0.7416591992
 40
1.0
 40
1.0
 40
1.0
 40
1.0
 10
9.1763539253
 20
41.0239055976
 30
0.0
 10
9.1763531969
 20
41.1001676221
 30
0.0
 10
9.186635463
 20
41.2538100404
 30
0.0
 10
9.2316804986
 20
41.4822770727
 30
0.0
 10
9.3037908729
 20
41.7084764729
 30
0.0
 10
9.3668651775
 20
41.8555352112
 30
0.0
 10
9.4016398347
 20
41.9286060751
 30
0.0
  0
SPLINE
  5
293
100
AcDbEntity
  8
0
100
AcDbSpline
 62
7
  6
BYLAYER
 70
0
 71
3
 72
11
 73
7
 74
0
 42
0.0000001
 43
0.0000001
 44
0.0000000001
 40
0.0
 40
0.0
 40
0.0
 40
0.0
 40
0.2583408225
 40
0.5100860291
 40
0.7565408314
 40
1.0
 40
1.0
 40
1.0
 40
1.0
 10
9.4016398236
 20
33.1910017681
 30
0.0
 10
9.3668651595
 20
33.2640726472
 30
0.0
 10
9.3037908391
 20
33.4111314119
 30
0.0
 10
9.2316804874
 20
33.6373308581
 30
0.0
 10
9.1866354717
 20
33.8657979143
 30
0.0
 10
9.1763531913
 20
34.0194403403
 30
0.0
 10
9.1763539253
 20
34.0957023673
 30
0.0
  0
SPLINE
  5
294
100
AcDbEntity
  8
0
100
AcDbSpline
 62
7
  6
BYLAYER
 70
0
 71
3
 72
9
 73
5
 74
0
 42
0.0000001
 43
0.0000001
 44
0.0000000001
 40
0.0
 40
0.0
 40
0.0
 40
0.0
 40
0.4840736528
 40
1.0
 40
1.0
 40
1.0
 40
1.0
 10
9.4016394509
 20
41.9286060751
 30
0.0
 10
9.4035575869
 20
41.9392619444
 30
0.0
 10
9.4097607972
 20
41.9609072637
 30
0.0
 10
9.4195924418
 20
41.9811109836
 30
0.0
 10
9.4253594608
 20
41.9911061434
 30
0.0
  0
SPLINE
  5
295
100
AcDbEntity
  8
0
100
AcDbSpline
 62
7
  6
BYLAYER
 70
0
 71
3
 72
11
 73
7
 74
0
 42
0.0000001
 43
0.0000001
 44
0.0000000001
 40
0.0
 40
0.0
 40
0.0
 40
0.0
 40
0.2499976911
 40
0.4999975235
 40
0.7499977135
 40
1.0
 40
1.0
 40
1.0
 40
1.0
 10
9.1763528532
 20
37.5598039216
 30
0.0
 10
9.1763528532
 20
37.729248422
 30
0.0
 10
9.1888644768
 20
38.068265195
 30
0.0
 10
9.2438620308
 20
38.5740019596
 30
0.0
 10
9.3316204332
 20
39.075024032
 30
0.0
 10
9.4088620919
 20
39.4051766115
 30
0.0
 10
9.451373062
 20
39.5692049983
 30
0.0
  0
ENDSEC
  0
SECTION
  2
OBJECTS
  0
DICTIONARY
  5
C
100
AcDbDictionary
280
0
281
1
  3
ACAD_GROUP
350
D
  3
ACAD_MLINESTYLE
350
17
  3
ACAD_LAYOUT
350
1A
  3
ACAD_PLOTSETTINGS
350
19
  3
ACAD_PLOTSTYLENAME
350
E
  0
DICTIONARY
  5
D
102
{ACAD_REACTORS
330
C
102
}
100
AcDbDictionary
280
0
281
1
  0
ACDBDICTIONARYWDFLT
  5
E
102
{ACAD_REACTORS
330
C
102
}
100
AcDbDictionary
281
1
  3
Normal
350
F
100
AcDbDictionaryWithDefault
340
F
  0
DICTIONARY
  5
17
102
{ACAD_REACTORS
330
C
102
}
100
AcDbDictionary
280
0
281
1
  3
Standard
350
18
  0
DICTIONARY
  5
19
102
{ACAD_REACTORS
330
C
102
}
100
AcDbDictionary
281
1
  0
DICTIONARY
  5
1A
102
{ACAD_REACTORS
330
C
102
}
100
AcDbDictionary
281
1
  3
Model
350
296
  3
Layout1
350
297
  0
ACDBPLACEHOLDER
  5
F
102
{ACAD_REACTORS
330
E
102
}
  0
MLINESTYLE
  5
18
102
{ACAD_REACTORS
330
17
102
}
100
AcDbMlineStyle
  2
STANDARD
 70
0
  3

 62
256
 51
90.0
 52
90.0
 71
2
 49
0.5
 62
256
  6
BYLAYER
 49
-0.5
 62
256
  6
BYLAYER
  0
LAYOUT
  5
296
102
{ACAD_REACTORS
330
1A
102
}
100
AcDbPlotSettings
  1

  2
none_device
  4

  6

 40
0.0
 41
0.0
 42
0.0
 43
0.0
 44
210.0
 45
297.0
 46
0.0
 47
0.0
 48
0.0
 49
0.0
140
0.0
141
0.0
142
1.0
143
1.0
 70
1024
 72
1
 73
0
 74
0
  7

 75
0
147
1.0
148
0.0
149
0.0
100
AcDbLayout
  1
Model
 70
0
 71
0
 10
0.0
 20
0.0
 11
210.0
 21
297.0
 12
0.0
 22
0.0
 32
0.0
 14
0.0
 24
0.0
 34
0.0
 15
0.0
 25
0.0
 35
0.0
146
0.0
 13
0.0
 23
0.0
 33
0.0
 16
1.0
 26
0.0
 36
0.0
 17
0.0
 27
1.0
 37
0.0
 76
0
330
210
345
0
346
0
  0
LAYOUT
  5
297
102
{ACAD_REACTORS
330
1A
102
}
100
AcDbPlotSettings
  1

  2
none_device
  4

  6

 40
0.0
 41
0.0
 42
0.0
 43
0.0
 44
210.0
 45
297.0
 46
0.0
 47
0.0
 48
0.0
 49
0.0
140
0.0
141
0.0
142
1.0
143
1.0
 70
0
 72
1
 73
0
 74
0
  7

 75
0
147
1.0
148
0.0
149
0.0
100
AcDbLayout
  1
Layout1
 70
0
 71
1
 10
0.0
 20
0.0
 11
210.0
 21
297.0
 12
0.0
 22
0.0
 32
0.0
 14
0.0
 24
0.0
 34
0.0
 15
0.0
 25
0.0
 35
0.0
146
0.0
 13
0.0
 23
0.0
 33
0.0
 16
1.0
 26
0.0
 36
0.0
 17
0.0
 27
1.0
 37
0.0
 76
0
330
211
345
0
346
0
  0
ENDSEC
  0
EOF
