999
DXF file: C:\Users\sesa63760\Dev\_Creo\CAD\MCADID0005230_3D-CAD\drw0001_4.dxf
999
Pro/ENGINEER 2019471 by Parametric Technology Corporation
  0
SECTION
  2
HEADER
  9
$ACADVER
  1
AC1024
  9
$DWGCODEPAGE
  3
ANSI_1252
  9
$EXTMAX
 10
70.139421543
 20
99.1971818966
 30
0.0
  9
$EXTMIN
 10
0.0
 20
0.0
 30
0.0
  9
$LIMMIN
 10
0.0
 20
0.0
  9
$LIMMAX
 10
70.139421543
 20
99.1971818966
  9
$VIEWCTR
 10
35.0697107715
 20
49.5985909483
  9
$VIEWSIZE
 40
99.1971818966
  9
$CLAYER
  8
0
  9
$LTSCALE
 40
6.4661866718
  9
$CELTYPE
  6
BYLAYER
  9
$DIMSCALE
 40
1.0
  9
$DIMASZ
 40
0.8349931136
  9
$DIMEXO
 40
1.0
  9
$DIMDLI
 40
4.467547155
  9
$DIMEXE
 40
1.0
  9
$DIMCEN
 40
1.0581032736
  9
$DIMLFAC
 40
1.0
  9
$DIMBLK
  1
_FILLED
  9
$DIMALT
 70
0
  9
$DIMALTF
 40
0.0393700787
  9
$DIMTXT
 40
1.1689903591
  9
$DIMTOL
 70
1
  9
$DIMLIM
 70
0
  9
$DIMTFAC
 40
1.0
  9
$DIMTP
 40
0.01
  9
$DIMTM
 40
0.01
  9
$DIMGAP
 40
0.625
  9
$DIMDSEP
 70
46
  9
$AUNITS
 70
0
  9
$PDMODE
 70
3
  9
$PDSIZE
 40
0.3125
  9
$HANDSEED
  5
26C
  9
$TILEMODE
 70
1
  9
$MEASUREMENT
 70
1
  9
$INSUNITS
 70
4
  0
ENDSEC
  0
SECTION
  2
CLASSES
  0
CLASS
  1
ACDBDICTIONARYWDFLT
  2
AcDbDictionaryWithDefault
  3
AutoCAD 2000
 90
0
 91
1
280
0
281
0
  0
CLASS
  1
ACDBPLACEHOLDER
  2
AcDbPlaceHolder
  3
AutoCAD 2000
 90
0
 91
1
280
0
281
0
  0
CLASS
  1
LAYOUT
  2
AcDbLayout
  3
AutoCAD 2000
 90
0
 91
0
280
0
281
0
  0
ENDSEC
  0
SECTION
  2
TABLES
  0
TABLE
  2
VPORT
  5
8
100
AcDbSymbolTable
 70
2
  0
VPORT
  5
1F4
100
AcDbSymbolTableRecord
100
AcDbViewportTableRecord
  2
*ACTIVE
 70
0
 10
0.0
 20
0.0
 11
1.0
 21
1.0
 12
35.0697107715
 22
49.5985909483
 13
0.0
 23
0.0
 14
1.0
 24
1.0
 15
0.0
 25
0.0
 16
0.0
 26
0.0
 36
1.0
 17
0.0
 27
0.0
 37
0.0
 40
99.1971818966
 41
0.7070707071
 42
50.0
 43
0.0
 44
0.0
 50
0.0
 51
0.0
 71
0
 72
100
 73
1
 74
1
 75
0
 76
0
 77
0
 78
0
  0
ENDTAB
  0
TABLE
  2
LTYPE
  5
5
100
AcDbSymbolTable
 70
6
  0
LTYPE
  5
14
100
AcDbSymbolTableRecord
100
AcDbLinetypeTableRecord
  2
BYBLOCK
 70
0
  3

 72
65
 73
0
 40
0.0
  0
LTYPE
  5
15
100
AcDbSymbolTableRecord
100
AcDbLinetypeTableRecord
  2
BYLAYER
 70
0
  3

 72
65
 73
0
 40
0.0
  0
LTYPE
  5
16
100
AcDbSymbolTableRecord
100
AcDbLinetypeTableRecord
  2
CONTINUOUS
 70
64
  3
Solid line
 72
65
 73
0
 40
0.0
  0
LTYPE
  5
1F5
100
AcDbSymbolTableRecord
100
AcDbLinetypeTableRecord
  2
CENTER
 70
64
  3
____ _ ____ _ ____ _ ____ _ ____ _ ____ _ ____
 72
65
 73
4
 40
0.6
 49
0.375
 74
0
 49
-0.075
 74
0
 49
0.075
 74
0
 49
-0.075
 74
0
  0
LTYPE
  5
1F6
100
AcDbSymbolTableRecord
100
AcDbLinetypeTableRecord
  2
HIDDEN
 70
64
  3
- - - - - - - - - - - - - - - - - - - -
 72
65
 73
2
 40
0.2
 49
0.1
 74
0
 49
-0.1
 74
0
  0
LTYPE
  5
1F7
100
AcDbSymbolTableRecord
100
AcDbLinetypeTableRecord
  2
PHANTOM
 70
64
  3
_____ _ _ _____ _ _ _____ _ _ _____
 72
65
 73
6
 40
0.8
 49
0.45
 74
0
 49
-0.05
 74
0
 49
0.1
 74
0
 49
-0.05
 74
0
 49
0.1
 74
0
 49
-0.05
 74
0
  0
LTYPE
  5
1F8
100
AcDbSymbolTableRecord
100
AcDbLinetypeTableRecord
  2
DOT
 70
64
  3
. . . . . . . . . . . . . . . . . . . .
 72
65
 73
2
 40
0.2
 49
0.1
 74
0
 49
-0.1
 74
0
  0
LTYPE
  5
1F9
100
AcDbSymbolTableRecord
100
AcDbLinetypeTableRecord
  2
DASHED
 70
64
  3
- - - - - - - - - - - - - - - - - - - -
 72
65
 73
2
 40
0.2
 49
0.1
 74
0
 49
-0.1
 74
0
  0
ENDTAB
  0
TABLE
  2
LAYER
  5
2
100
AcDbSymbolTable
 70
36
  0
LAYER
  5
10
100
AcDbSymbolTableRecord
100
AcDbLayerTableRecord
  2
0
 70
0
 62
7
  6
CONTINUOUS
370
-3
390
F
  0
LAYER
  5
1FA
100
AcDbSymbolTableRecord
100
AcDbLayerTableRecord
  2
DEFAULT_1
 70
0
 62
7
  6
CENTER
370
-3
390
F
  0
LAYER
  5
1FB
100
AcDbSymbolTableRecord
100
AcDbLayerTableRecord
  2
DEFAULT_2
 70
0
 62
7
  6
HIDDEN
370
-3
390
F
  0
LAYER
  5
1FC
100
AcDbSymbolTableRecord
100
AcDbLayerTableRecord
  2
DEFAULT_3
 70
0
 62
7
  6
PHANTOM
370
-3
390
F
  0
LAYER
  5
1FD
100
AcDbSymbolTableRecord
100
AcDbLayerTableRecord
  2
00_COMPONENTS
 70
0
 62
7
  6
CONTINUOUS
370
-3
390
F
  0
LAYER
  5
1FE
100
AcDbSymbolTableRecord
100
AcDbLayerTableRecord
  2
00_COMPONENTS_1
 70
0
 62
7
  6
CONTINUOUS
370
-3
390
F
  0
LAYER
  5
1FF
100
AcDbSymbolTableRecord
100
AcDbLayerTableRecord
  2
00_COMPONENTS_2
 70
0
 62
7
  6
CONTINUOUS
370
-3
390
F
  0
LAYER
  5
200
100
AcDbSymbolTableRecord
100
AcDbLayerTableRecord
  2
00_COMPONENTS_3
 70
0
 62
7
  6
CONTINUOUS
370
-3
390
F
  0
LAYER
  5
201
100
AcDbSymbolTableRecord
100
AcDbLayerTableRecord
  2
01_1_DEFAULT_DATUMS
 70
0
 62
7
  6
CONTINUOUS
370
-3
390
F
  0
LAYER
  5
202
100
AcDbSymbolTableRecord
100
AcDbLayerTableRecord
  2
01_PLANES
 70
0
 62
7
  6
CONTINUOUS
370
-3
390
F
  0
LAYER
  5
203
100
AcDbSymbolTableRecord
100
AcDbLayerTableRecord
  2
02_COORD_SYS
 70
0
 62
7
  6
CONTINUOUS
370
-3
390
F
  0
LAYER
  5
204
100
AcDbSymbolTableRecord
100
AcDbLayerTableRecord
  2
03_AXES
 70
0
 62
7
  6
CONTINUOUS
370
-3
390
F
  0
LAYER
  5
205
100
AcDbSymbolTableRecord
100
AcDbLayerTableRecord
  2
03_AXES_1
 70
0
 62
7
  6
CONTINUOUS
370
-3
390
F
  0
LAYER
  5
206
100
AcDbSymbolTableRecord
100
AcDbLayerTableRecord
  2
03_AXES_2
 70
0
 62
7
  6
CONTINUOUS
370
-3
390
F
  0
LAYER
  5
207
100
AcDbSymbolTableRecord
100
AcDbLayerTableRecord
  2
04_POINTS
 70
0
 62
7
  6
CONTINUOUS
370
-3
390
F
  0
LAYER
  5
208
100
AcDbSymbolTableRecord
100
AcDbLayerTableRecord
  2
05_CURVES
 70
0
 62
7
  6
CONTINUOUS
370
-3
390
F
  0
LAYER
  5
209
100
AcDbSymbolTableRecord
100
AcDbLayerTableRecord
  2
06_SURFS
 70
0
 62
7
  6
CONTINUOUS
370
-3
390
F
  0
LAYER
  5
20A
100
AcDbSymbolTableRecord
100
AcDbLayerTableRecord
  2
07_COSMETICS
 70
0
 62
7
  6
CONTINUOUS
370
-3
390
F
  0
LAYER
  5
20B
100
AcDbSymbolTableRecord
100
AcDbLayerTableRecord
  2
10_NOTES
 70
0
 62
7
  6
CONTINUOUS
370
-3
390
F
  0
LAYER
  5
20C
100
AcDbSymbolTableRecord
100
AcDbLayerTableRecord
  2
11_NOTES_PUB
 70
0
 62
7
  6
CONTINUOUS
370
-3
390
F
  0
LAYER
  5
20D
100
AcDbSymbolTableRecord
100
AcDbLayerTableRecord
  2
13_REF_GTOL
 70
0
 62
7
  6
CONTINUOUS
370
-3
390
F
  0
LAYER
  5
20E
100
AcDbSymbolTableRecord
100
AcDbLayerTableRecord
  2
16_MISC
 70
0
 62
7
  6
CONTINUOUS
370
-3
390
F
  0
LAYER
  5
20F
100
AcDbSymbolTableRecord
100
AcDbLayerTableRecord
  2
17_NO_PRINT
 70
0
 62
7
  6
CONTINUOUS
370
-3
390
F
  0
LAYER
  5
210
100
AcDbSymbolTableRecord
100
AcDbLayerTableRecord
  2
18_DATUM_CAMS_JOINTS
 70
0
 62
7
  6
CONTINUOUS
370
-3
390
F
  0
LAYER
  5
211
100
AcDbSymbolTableRecord
100
AcDbLayerTableRecord
  2
19_DATUM_FUNCTIONAL
 70
0
 62
7
  6
CONTINUOUS
370
-3
390
F
  0
LAYER
  5
212
100
AcDbSymbolTableRecord
100
AcDbLayerTableRecord
  2
20_DATUM_KINEMATIC_SCHEME
 70
0
 62
7
  6
CONTINUOUS
370
-3
390
F
  0
LAYER
  5
213
100
AcDbSymbolTableRecord
100
AcDbLayerTableRecord
  2
INTFCLR_30296
 70
0
 62
7
  6
CONTINUOUS
370
-3
390
F
  0
LAYER
  5
214
100
AcDbSymbolTableRecord
100
AcDbLayerTableRecord
  2
INTFCLR_35
 70
0
 62
7
  6
CONTINUOUS
370
-3
390
F
  0
LAYER
  5
215
100
AcDbSymbolTableRecord
100
AcDbLayerTableRecord
  2
INTFCLR_59147
 70
0
 62
7
  6
CONTINUOUS
370
-3
390
F
  0
LAYER
  5
216
100
AcDbSymbolTableRecord
100
AcDbLayerTableRecord
  2
INTF_BLANK
 70
0
 62
7
  6
CONTINUOUS
370
-3
390
F
  0
LAYER
  5
217
100
AcDbSymbolTableRecord
100
AcDbLayerTableRecord
  2
_BLACK_HOLE
 70
0
 62
7
  6
CONTINUOUS
370
-3
390
F
  0
ENDTAB
  0
TABLE
  2
STYLE
  5
3
100
AcDbSymbolTable
 70
1
  0
STYLE
  5
11
100
AcDbSymbolTableRecord
100
AcDbTextStyleTableRecord
  2
STANDARD
 70
0
 40
0.0
 41
1.0
 50
0.0
 71
0
 42
0.2
  3
ARIAL.TTF
  4

  0
STYLE
  5
218
100
AcDbSymbolTableRecord
100
AcDbTextStyleTableRecord
  2
TEXTSTYLE_1
 70
0
 40
0.0
 41
0.8
 50
0.0
 71
0
 42
0.2
  3
gdt
  4

  0
ENDTAB
  0
TABLE
  2
VIEW
  5
6
100
AcDbSymbolTable
 70
0
  0
ENDTAB
  0
TABLE
  2
UCS
  5
7
100
AcDbSymbolTable
 70
0
  0
ENDTAB
  0
TABLE
  2
APPID
  5
9
100
AcDbSymbolTable
 70
1
  0
APPID
  5
219
100
AcDbSymbolTableRecord
100
AcDbRegAppTableRecord
  2
ACAD
 70
0
  0
ENDTAB
  0
TABLE
  2
BLOCK_RECORD
  5
1
100
AcDbSymbolTable
 70
0
  0
BLOCK_RECORD
  5
21A
100
AcDbSymbolTableRecord
100
AcDbBlockTableRecord
  2
*Model_Space
  0
BLOCK_RECORD
  5
21B
100
AcDbSymbolTableRecord
100
AcDbBlockTableRecord
  2
*Paper_Space
  0
BLOCK_RECORD
  5
21C
100
AcDbSymbolTableRecord
100
AcDbBlockTableRecord
  2
_FILLED
  0
ENDTAB
  0
TABLE
  2
DIMSTYLE
  5
A
100
AcDbSymbolTable
 70
1
100
AcDbDimStyleTable
 71
0
  0
DIMSTYLE
105
21D
100
AcDbSymbolTableRecord
100
AcDbDimStyleTableRecord
  2
STANDARD
 70
0
  3

  4

 40
1.0
 41
0.8349931136
 42
1.0
 43
0.38
 44
1.0
 45
0.0
 46
0.0
 47
0.01
 48
0.01
140
1.1689903591
141
0.09
142
0.0
143
25.4
144
1.0
145
0.0
146
1.0
147
0.625
 71
1
 72
0
 73
0
 74
0
 75
0
 76
0
 77
1
 78
8
 79
2
170
0
171
1
172
0
173
0
174
0
175
0
176
0
177
0
178
0
270
2
179
2
271
2
272
2
273
2
274
2
275
0
280
0
281
0
282
0
283
1
284
8
285
0
286
0
287
3
288
0
340
11
278
46
341
21C
342
21C
343
21C
344
21C
  0
ENDTAB
  0
ENDSEC
  0
SECTION
  2
BLOCKS
  0
BLOCK
  5
20
100
AcDbEntity
  8
0
100
AcDbBlockBegin
  2
*Model_Space
 70
0
 10
0.0
 20
0.0
 30
0.0
  3
*Model_Space
  1

  0
ENDBLK
  5
21
100
AcDbEntity
  8
0
100
AcDbBlockEnd
  0
BLOCK
  5
1C
100
AcDbEntity
  8
0
100
AcDbBlockBegin
  2
*Paper_Space
 70
0
 10
0.0
 20
0.0
 30
0.0
  3
*Paper_Space
  1

  0
ENDBLK
  5
1D
100
AcDbEntity
  8
0
100
AcDbBlockEnd
  0
BLOCK
  5
21E
100
AcDbEntity
  8
0
100
AcDbBlockBegin
  2
_FILLED
 70
64
 10
0.0
 20
0.0
  3
_FILLED
  1

  0
SOLID
  5
21F
100
AcDbEntity
  8
0
  6
BYBLOCK
 62
0
100
AcDbTrace
 10
0.0
 20
0.0
 11
-1.0
 21
0.25
 12
-1.0
 22
-0.25
 13
-1.0
 23
-0.25
  0
ENDBLK
  5
220
100
AcDbEntity
  8
0
  6
BYBLOCK
 62
0
100
AcDbBlockEnd
  0
ENDSEC
  0
SECTION
  2
ENTITIES
  0
LINE
  5
221
100
AcDbEntity
  8
00_COMPONENTS
100
AcDbLine
 62
7
  6
BYLAYER
 10
7.8117336163
 20
56.1898850379
 11
7.8117336163
 21
48.2523894462
  0
LINE
  5
222
100
AcDbEntity
  8
00_COMPONENTS_2
100
AcDbLine
 62
7
  6
BYLAYER
 10
9.4119336163
 20
65.937137242
 11
9.4119336163
 21
23.0619584573
  0
LINE
  5
223
100
AcDbEntity
  8
00_COMPONENTS_2
100
AcDbLine
 62
7
  6
BYLAYER
 10
10.9867336163
 20
23.061937242
 11
9.4119336163
 21
23.061937242
  0
LINE
  5
224
100
AcDbEntity
  8
00_COMPONENTS_2
100
AcDbLine
 62
7
  6
BYLAYER
 10
60.9739336163
 20
23.061937242
 11
62.5487336163
 21
23.061937242
  0
LINE
  5
225
100
AcDbEntity
  8
00_COMPONENTS_2
100
AcDbLine
 62
7
  6
BYLAYER
 10
10.9867336163
 20
23.0619549438
 11
10.9867336163
 21
65.937137242
  0
LINE
  5
226
100
AcDbEntity
  8
00_COMPONENTS_1
100
AcDbLine
 62
7
  6
BYLAYER
 10
11.3503336163
 20
27.0175027466
 11
11.3503336163
 21
71.4814708447
  0
LINE
  5
227
100
AcDbEntity
  8
00_COMPONENTS_1
100
AcDbLine
 62
7
  6
BYLAYER
 10
12.9251336163
 20
27.0174812047
 11
12.9251336163
 21
50.000621348
  0
LINE
  5
228
100
AcDbEntity
  8
00_COMPONENTS_1
100
AcDbLine
 62
7
  6
BYLAYER
 10
14.3983336163
 20
72.2703512942
 11
14.3983336163
 21
50.8026498049
  0
LINE
  5
229
100
AcDbEntity
  8
00_COMPONENTS_1
100
AcDbLine
 62
7
  6
BYLAYER
 10
12.9251336163
 20
27.0174086446
 11
11.3503336163
 21
27.0174086446
  0
LINE
  5
22A
100
AcDbEntity
  8
00_COMPONENTS_1
100
AcDbLine
 62
7
  6
BYLAYER
 10
58.8991336163
 20
27.0174086446
 11
60.4739336163
 21
27.0174086446
  0
LINE
  5
22B
100
AcDbEntity
  8
00_COMPONENTS_2
100
AcDbLine
 62
7
  6
BYLAYER
 10
9.4119336163
 20
28.2847510897
 11
10.9867336163
 21
28.2847510897
  0
LINE
  5
22C
100
AcDbEntity
  8
00_COMPONENTS_2
100
AcDbLine
 62
7
  6
BYLAYER
 10
60.9739336163
 20
28.2847510897
 11
62.5487336163
 21
28.2847510897
  0
LINE
  5
22D
100
AcDbEntity
  8
00_COMPONENTS_1
100
AcDbLine
 62
7
  6
BYLAYER
 10
11.3503336163
 20
36.9293498057
 11
12.9251336163
 21
36.9293498057
  0
LINE
  5
22E
100
AcDbEntity
  8
00_COMPONENTS_1
100
AcDbLine
 62
7
  6
BYLAYER
 10
58.8991336163
 20
36.9293498057
 11
60.4739336163
 21
36.9293498057
  0
LINE
  5
22F
100
AcDbEntity
  8
00_COMPONENTS_2
100
AcDbLine
 62
7
  6
BYLAYER
 10
33.8213336163
 20
37.7775867563
 11
38.2663336163
 21
37.7775867563
  0
LINE
  5
230
100
AcDbEntity
  8
00_COMPONENTS_2
100
AcDbLine
 62
7
  6
BYLAYER
 10
58.8991336163
 20
37.997137242
 11
54.5205938087
 21
37.997137242
  0
LINE
  5
231
100
AcDbEntity
  8
00_COMPONENTS_2
100
AcDbLine
 62
7
  6
BYLAYER
 10
17.440073424
 20
37.997137242
 11
12.9251336163
 21
37.997137242
  0
LINE
  5
232
100
AcDbEntity
  8
00_COMPONENTS_2
100
AcDbLine
 62
7
  6
BYLAYER
 10
10.9867336163
 20
37.997137242
 11
11.3503336163
 21
37.997137242
  0
LINE
  5
233
100
AcDbEntity
  8
00_COMPONENTS_2
100
AcDbLine
 62
7
  6
BYLAYER
 10
60.4739336163
 20
37.997137242
 11
60.9739336163
 21
37.997137242
  0
LINE
  5
234
100
AcDbEntity
  8
00_COMPONENTS_2
100
AcDbLine
 62
7
  6
BYLAYER
 10
62.5487336163
 20
38.6742078581
 11
60.9739336163
 21
38.6742078581
  0
LINE
  5
235
100
AcDbEntity
  8
00_COMPONENTS_2
100
AcDbLine
 62
7
  6
BYLAYER
 10
9.4119336163
 20
38.6742078581
 11
10.9867336163
 21
38.6742078581
  0
LINE
  5
236
100
AcDbEntity
  8
00_COMPONENTS_1
100
AcDbLine
 62
7
  6
BYLAYER
 10
60.4739336163
 20
44.1792992801
 11
58.8991336163
 21
44.1792992801
  0
LINE
  5
237
100
AcDbEntity
  8
00_COMPONENTS_1
100
AcDbLine
 62
7
  6
BYLAYER
 10
12.9251336163
 20
44.1792992801
 11
11.3503336163
 21
44.1792992801
  0
LINE
  5
238
100
AcDbEntity
  8
00_COMPONENTS_2
100
AcDbLine
 62
7
  6
BYLAYER
 10
31.5353336163
 20
37.6039448095
 11
31.5353336163
 21
34.8565867563
  0
LINE
  5
239
100
AcDbEntity
  8
00_COMPONENTS_2
100
AcDbLine
 62
7
  6
BYLAYER
 10
11.2215865671
 20
44.5954763542
 11
11.3503336163
 21
44.5960417068
  0
LINE
  5
23A
100
AcDbEntity
  8
00_COMPONENTS_2
100
AcDbLine
 62
7
  6
BYLAYER
 10
60.9526178812
 20
44.601137242
 11
60.4739336163
 21
44.601137242
  0
LINE
  5
23B
100
AcDbEntity
  8
00_COMPONENTS_2
100
AcDbLine
 62
7
  6
BYLAYER
 10
11.2215741382
 20
44.601137242
 11
11.0080493514
 21
44.601137242
  0
LINE
  5
23C
100
AcDbEntity
  8
00_COMPONENTS_2
100
AcDbLine
 62
7
  6
BYLAYER
 10
33.8213336163
 20
34.8565867563
 11
33.8213336163
 21
37.7775867563
  0
LINE
  5
23D
100
AcDbEntity
  8
00_COMPONENTS_1
100
AcDbLine
 62
7
420
3604575
  6
BYLAYER
 10
35.9121336163
 20
61.5365005496
 11
35.9121336163
 21
61.1289123173
  0
LINE
  5
23E
100
AcDbEntity
  8
00_COMPONENTS_1
100
AcDbLine
 62
7
  6
BYLAYER
 10
11.3503336163
 20
48.0678642468
 11
12.9251336163
 21
48.0678642468
  0
LINE
  5
23F
100
AcDbEntity
  8
00_COMPONENTS_1
100
AcDbLine
 62
7
  6
BYLAYER
 10
58.8991336163
 20
48.0678642468
 11
60.4739336163
 21
48.0678642468
  0
LINE
  5
240
100
AcDbEntity
  8
00_COMPONENTS
100
AcDbLine
 62
7
  6
BYLAYER
 10
64.1489336163
 20
48.252387242
 11
62.5487336163
 21
48.252387242
  0
LINE
  5
241
100
AcDbEntity
  8
00_COMPONENTS
100
AcDbLine
 62
7
  6
BYLAYER
 10
7.8117336163
 20
48.252387242
 11
9.4119336163
 21
48.252387242
  0
LINE
  5
242
100
AcDbEntity
  8
00_COMPONENTS_2
100
AcDbLine
 62
7
  6
BYLAYER
 10
38.2663336163
 20
37.7775867563
 11
38.2663336163
 21
34.8565867563
  0
LINE
  5
243
100
AcDbEntity
  8
00_COMPONENTS
100
AcDbLine
 62
7
  6
BYLAYER
 10
60.9739336163
 20
49.871637242
 11
60.4739336163
 21
49.871637242
  0
LINE
  5
244
100
AcDbEntity
  8
00_COMPONENTS
100
AcDbLine
 62
7
  6
BYLAYER
 10
10.9867336163
 20
49.871637242
 11
11.3503336163
 21
49.871637242
  0
LINE
  5
245
100
AcDbEntity
  8
00_COMPONENTS_1
100
AcDbLine
 62
7
  6
BYLAYER
 10
14.4491336163
 20
50.3950615727
 11
57.3751336163
 21
50.3950615727
  0
LINE
  5
246
100
AcDbEntity
  8
00_COMPONENTS_1
100
AcDbLine
 62
7
  6
BYLAYER
 10
14.3983336163
 20
50.8026498049
 11
57.4259336163
 21
50.8026498049
  0
LINE
  5
247
100
AcDbEntity
  8
00_COMPONENTS_2
100
AcDbLine
 62
7
  6
BYLAYER
 10
40.5523336163
 20
34.8565867563
 11
40.5523336163
 21
37.6431690842
  0
LINE
  5
248
100
AcDbEntity
  8
00_COMPONENTS
100
AcDbLine
 62
7
  6
BYLAYER
 10
60.9739336163
 20
54.570637242
 11
60.4739336163
 21
54.570637242
  0
LINE
  5
249
100
AcDbEntity
  8
00_COMPONENTS
100
AcDbLine
 62
7
  6
BYLAYER
 10
10.9867336163
 20
54.570637242
 11
11.3503336163
 21
54.570637242
  0
LINE
  5
24A
100
AcDbEntity
  8
00_COMPONENTS_2
100
AcDbLine
 62
7
  6
BYLAYER
 10
10.9867336163
 20
54.710337242
 11
11.3503336163
 21
54.710337242
  0
LINE
  5
24B
100
AcDbEntity
  8
00_COMPONENTS_2
100
AcDbLine
 62
7
  6
BYLAYER
 10
60.4739336163
 20
54.710337242
 11
60.9739336163
 21
54.710337242
  0
LINE
  5
24C
100
AcDbEntity
  8
00_COMPONENTS
100
AcDbLine
 62
7
  6
BYLAYER
 10
64.1489336163
 20
56.189887242
 11
62.5487336163
 21
56.189887242
  0
LINE
  5
24D
100
AcDbEntity
  8
00_COMPONENTS
100
AcDbLine
 62
7
  6
BYLAYER
 10
7.8117336163
 20
56.189887242
 11
9.4119336163
 21
56.189887242
  0
LINE
  5
24E
100
AcDbEntity
  8
00_COMPONENTS_2
100
AcDbLine
 62
7
  6
BYLAYER
 10
62.5487336163
 20
65.937137242
 11
60.4739336163
 21
65.937137242
  0
LINE
  5
24F
100
AcDbEntity
  8
00_COMPONENTS_2
100
AcDbLine
 62
7
  6
BYLAYER
 10
9.4119336163
 20
65.937137242
 11
11.3503336163
 21
65.937137242
  0
LINE
  5
250
100
AcDbEntity
  8
00_COMPONENTS_1
100
AcDbLine
 62
7
  6
BYLAYER
 10
57.4259336163
 20
50.8026498049
 11
57.4259336163
 21
72.2703512942
  0
LINE
  5
251
100
AcDbEntity
  8
00_COMPONENTS_1
100
AcDbLine
 62
7
  6
BYLAYER
 10
58.8991336163
 20
27.0175027466
 11
58.8991336163
 21
50.000621348
  0
LINE
  5
252
100
AcDbEntity
  8
00_COMPONENTS_1
100
AcDbLine
 62
7
  6
BYLAYER
 10
14.3983336163
 20
72.2703512942
 11
57.4259336163
 21
72.2703512942
  0
LINE
  5
253
100
AcDbEntity
  8
00_COMPONENTS_1
100
AcDbLine
 62
7
  6
BYLAYER
 10
60.4739336163
 20
27.0174812047
 11
60.4739336163
 21
71.4814708447
  0
LINE
  5
254
100
AcDbEntity
  8
00_COMPONENTS_2
100
AcDbLine
 62
7
  6
BYLAYER
 10
60.9739336163
 20
65.937137242
 11
60.9739336163
 21
23.061937242
  0
LINE
  5
255
100
AcDbEntity
  8
00_COMPONENTS_2
100
AcDbLine
 62
7
  6
BYLAYER
 10
62.5487336163
 20
23.061937242
 11
62.5487336163
 21
65.937137242
  0
LINE
  5
256
100
AcDbEntity
  8
00_COMPONENTS
100
AcDbLine
 62
7
  6
BYLAYER
 10
64.1489336163
 20
48.2523894462
 11
64.1489336163
 21
56.1898850379
  0
ARC
  5
257
100
AcDbEntity
  8
00_COMPONENTS_2
100
AcDbCircle
 62
7
  6
BYLAYER
 10
35.9803336163
 20
52.221137242
 40
23.368
100
AcDbArc
 50
58.398547478
 51
121.6022144775
  0
ARC
  5
258
100
AcDbEntity
  8
00_COMPONENTS_2
100
AcDbCircle
 62
7
  6
BYLAYER
 10
35.9803336163
 20
52.221137242
 40
23.368
100
AcDbArc
 50
217.4952497646
 51
322.5047502354
  0
ARC
  5
259
100
AcDbEntity
  8
00_COMPONENTS_2
100
AcDbCircle
 62
7
  6
BYLAYER
 10
35.9803336163
 20
52.221137242
 40
15.2781
100
AcDbArc
 50
186.9791894304
 51
253.0857999922
  0
ARC
  5
25A
100
AcDbEntity
  8
00_COMPONENTS_2
100
AcDbCircle
 62
7
  6
BYLAYER
 10
35.9803336163
 20
52.221137242
 40
15.2781
100
AcDbArc
 50
287.4126742723
 51
353.0228862193
  0
ARC
  5
25B
100
AcDbEntity
  8
00_COMPONENTS_1
100
AcDbCircle
 62
7
  6
BYLAYER
 10
36.0420711497
 20
61.1271447166
 40
2.0227798652
100
AcDbArc
 50
5.9481035335
 51
11.2619070167
  0
ARC
  5
25C
100
AcDbEntity
  8
00_COMPONENTS_1
100
AcDbCircle
 62
7
  6
BYLAYER
 10
35.7821666682
 20
61.1271526514
 40
2.0227500166
100
AcDbArc
 50
168.7322844786
 51
174.0529909868
  0
ARC
  5
25D
100
AcDbEntity
  8
00_COMPONENTS_2
100
AcDbCircle
 62
7
  6
BYLAYER
 10
32.6783336163
 20
34.8565867563
 40
1.143
100
AcDbArc
 50
180.0
 51
360.0
  0
ARC
  5
25E
100
AcDbEntity
  8
00_COMPONENTS_2
100
AcDbCircle
 62
7
  6
BYLAYER
 10
39.4093336163
 20
34.8565867563
 40
1.143
100
AcDbArc
 50
180.0
 51
360.0
  0
SPLINE
  5
25F
100
AcDbEntity
  8
00_COMPONENTS_2
100
AcDbSpline
 62
7
  6
BYLAYER
 70
0
 71
3
 72
9
 73
5
 74
0
 42
0.0000001
 43
0.0000001
 44
0.0000000001
 40
0.0
 40
0.0
 40
0.0
 40
0.0
 40
0.5000151362
 40
1.0
 40
1.0
 40
1.0
 40
1.0
 10
11.0080493514
 20
44.601137242
 30
0.0
 10
11.0024260028
 20
44.601137242
 30
0.0
 10
10.989488261
 20
44.5983821011
 30
0.0
 10
10.9867336163
 20
44.5854445152
 30
0.0
 10
10.9867336163
 20
44.579821507
 30
0.0
  0
SPLINE
  5
260
100
AcDbEntity
  8
00_COMPONENTS_2
100
AcDbSpline
 62
7
  6
BYLAYER
 70
0
 71
3
 72
9
 73
5
 74
0
 42
0.0000001
 43
0.0000001
 44
0.0000000001
 40
0.0
 40
0.0
 40
0.0
 40
0.0
 40
0.4999846852
 40
1.0
 40
1.0
 40
1.0
 40
1.0
 10
60.9739336163
 20
44.579821507
 30
0.0
 10
60.9739336163
 20
44.5854445142
 30
0.0
 10
60.9711789837
 20
44.5983821073
 30
0.0
 10
60.9582412329
 20
44.601137242
 30
0.0
 10
60.9526178812
 20
44.601137242
 30
0.0
  0
SPLINE
  5
261
100
AcDbEntity
  8
00_COMPONENTS_1
100
AcDbSpline
 62
7
  6
BYLAYER
 70
0
 71
3
 72
23
 73
19
 74
0
 42
0.0000001
 43
0.0000001
 44
0.0000000001
 40
0.0
 40
0.0
 40
0.0
 40
0.0
 40
0.0614238018
 40
0.1230393929
 40
0.184931728
 40
0.2472251276
 40
0.3099369412
 40
0.3730392262
 40
0.4364373301
 40
0.4999939242
 40
0.5635502535
 40
0.6269480392
 40
0.6900510513
 40
0.752765312
 40
0.8150619561
 40
0.8769571725
 40
0.9385755825
 40
1.0
 40
1.0
 40
1.0
 40
1.0
 10
33.7594836163
 20
61.5365005496
 30
0.0
 10
33.7594836163
 20
61.4006043401
 30
0.0
 10
33.7873689751
 20
61.1275915902
 30
0.0
 10
33.910889177
 20
60.7347325515
 30
0.0
 10
34.1115379319
 20
60.372763684
 30
0.0
 10
34.3811949894
 20
60.0557529144
 30
0.0
 10
34.7095763157
 20
59.79579492
 30
0.0
 10
35.0839486746
 20
59.6027590734
 30
0.0
 10
35.4899671752
 20
59.4839565487
 30
0.0
 10
35.9120914499
 20
59.4438500523
 30
0.0
 10
36.3342164487
 20
59.483942481
 30
0.0
 10
36.7402388946
 20
59.6027314022
 30
0.0
 10
37.114626351
 20
59.7957517887
 30
0.0
 10
37.4430275936
 20
60.0557085358
 30
0.0
 10
37.7127039343
 20
60.3727281021
 30
0.0
 10
37.9133691998
 20
60.7347108245
 30
0.0
 10
38.036896495
 20
61.1275826746
 30
0.0
 10
38.0647836163
 20
61.400602978
 30
0.0
 10
38.0647836163
 20
61.5365005496
 30
0.0
  0
SPLINE
  5
262
100
AcDbEntity
  8
00_COMPONENTS_1
100
AcDbSpline
 62
7
  6
BYLAYER
 70
0
 71
3
 72
19
 73
15
 74
0
 42
0.0000001
 43
0.0000001
 44
0.0000000001
 40
0.0
 40
0.0
 40
0.0
 40
0.0
 40
0.0239726005
 40
0.0509012207
 40
0.082782409
 40
0.1207178625
 40
0.1651654214
 40
0.2162433357
 40
0.2737951614
 40
0.33749413
 40
0.4814951813
 40
0.6436808952
 40
0.8186655558
 40
1.0
 40
1.0
 40
1.0
 40
1.0
 10
58.8991336163
 20
50.000621348
 30
0.0
 10
58.8991336163
 20
50.0137233921
 30
0.0
 10
58.8934123278
 20
50.041717957
 30
0.0
 10
58.8696872251
 20
50.0809470687
 30
0.0
 10
58.8319996994
 20
50.1185426416
 30
0.0
 10
58.7807761047
 20
50.1546241244
 30
0.0
 10
58.7164094264
 20
50.1892099473
 30
0.0
 10
58.6393458975
 20
50.2220015762
 30
0.0
 10
58.5502571415
 20
50.2527503341
 30
0.0
 10
58.4107027294
 20
50.2922338658
 30
0.0
 10
58.2124589845
 20
50.3331039037
 30
0.0
 10
57.9517090544
 20
50.3684248263
 30
0.0
 10
57.6690198431
 20
50.3901692287
 30
0.0
 10
57.4742405899
 20
50.3950615727
 30
0.0
 10
57.3751336163
 20
50.3950615727
 30
0.0
  0
SPLINE
  5
263
100
AcDbEntity
  8
00_COMPONENTS_1
100
AcDbSpline
 62
7
  6
BYLAYER
 70
0
 71
3
 72
19
 73
15
 74
0
 42
0.0000001
 43
0.0000001
 44
0.0000000001
 40
0.0
 40
0.0
 40
0.0
 40
0.0
 40
0.1813343932
 40
0.3563189674
 40
0.5185046693
 40
0.6625057352
 40
0.7262047145
 40
0.7837565625
 40
0.8348344904
 40
0.879282073
 40
0.9172175519
 40
0.9490987585
 40
0.9760273945
 40
1.0
 40
1.0
 40
1.0
 40
1.0
 10
14.4491336163
 20
50.3950615727
 30
0.0
 10
14.3500266711
 20
50.3950615727
 30
0.0
 10
14.1552474937
 20
50.3901692404
 30
0.0
 10
13.872558365
 20
50.3684248437
 30
0.0
 10
13.6118084808
 20
50.333103939
 30
0.0
 10
13.4135647241
 20
50.2922339239
 30
0.0
 10
13.2740102875
 20
50.2527503869
 30
0.0
 10
13.1849214999
 20
50.2220016442
 30
0.0
 10
13.1078579392
 20
50.1892100068
 30
0.0
 10
13.0434912245
 20
50.1546241819
 30
0.0
 10
12.9922675871
 20
50.1185426934
 30
0.0
 10
12.9545800473
 20
50.0809470891
 30
0.0
 10
12.93085492
 20
50.04171797
 30
0.0
 10
12.9251336163
 20
50.0137233948
 30
0.0
 10
12.9251336163
 20
50.000621348
 30
0.0
  0
SPLINE
  5
264
100
AcDbEntity
  8
00_COMPONENTS_1
100
AcDbSpline
 62
7
  6
BYLAYER
 70
0
 71
3
 72
19
 73
15
 74
0
 42
0.0000001
 43
0.0000001
 44
0.0000000001
 40
0.0
 40
0.0
 40
0.0
 40
0.0
 40
0.0239832992
 40
0.0509103939
 40
0.0827888415
 40
0.1207132833
 40
0.165166928
 40
0.2162481843
 40
0.2737932366
 40
0.3374992203
 40
0.4814916084
 40
0.6436975942
 40
0.8186240493
 40
1.0
 40
1.0
 40
1.0
 40
1.0
 10
60.4739336163
 20
71.4814708447
 30
0.0
 10
60.4739336163
 20
71.5076867815
 30
0.0
 10
60.4625172299
 20
71.5636899918
 30
0.0
 10
60.4150664284
 20
71.6421664343
 30
0.0
 10
60.339652375
 20
71.717293641
 30
0.0
 10
60.2372381786
 20
71.7894837704
 30
0.0
 10
60.1084887907
 20
71.8586299895
 30
0.0
 10
59.9543688516
 20
71.9242335697
 30
0.0
 10
59.7761924697
 20
71.9857545695
 30
0.0
 10
59.4970767812
 20
72.0646694821
 30
0.0
 10
59.1005772828
 20
72.146453973
 30
0.0
 10
58.5791201802
 20
72.217066214
 30
0.0
 10
58.0137377644
 20
72.2605871056
 30
0.0
 10
57.6241940981
 20
72.2703512942
 30
0.0
 10
57.4259336163
 20
72.2703512942
 30
0.0
  0
SPLINE
  5
265
100
AcDbEntity
  8
00_COMPONENTS_1
100
AcDbSpline
 62
7
  6
BYLAYER
 70
0
 71
3
 72
19
 73
15
 74
0
 42
0.0000001
 43
0.0000001
 44
0.0000000001
 40
0.0
 40
0.0
 40
0.0
 40
0.0
 40
0.1813759507
 40
0.3563024058
 40
0.5185083916
 40
0.6625007797
 40
0.7262067634
 40
0.7837518157
 40
0.834833072
 40
0.8792867167
 40
0.9172111585
 40
0.9490896061
 40
0.9760167008
 40
1.0
 40
1.0
 40
1.0
 40
1.0
 10
14.3983336163
 20
72.2703512942
 30
0.0
 10
14.2000731345
 20
72.2703512942
 30
0.0
 10
13.8105294682
 20
72.2605871056
 30
0.0
 10
13.2451470524
 20
72.217066214
 30
0.0
 10
12.7236899499
 20
72.146453973
 30
0.0
 10
12.3271904515
 20
72.0646694821
 30
0.0
 10
12.048074763
 20
71.9857545695
 30
0.0
 10
11.8698983811
 20
71.9242335697
 30
0.0
 10
11.7157784419
 20
71.8586299895
 30
0.0
 10
11.5870290541
 20
71.7894837704
 30
0.0
 10
11.4846148577
 20
71.717293641
 30
0.0
 10
11.4092008043
 20
71.6421664343
 30
0.0
 10
11.3617500028
 20
71.5636899918
 30
0.0
 10
11.3503336163
 20
71.5076867815
 30
0.0
 10
11.3503336163
 20
71.4814708447
 30
0.0
  0
SPLINE
  5
266
100
AcDbEntity
  8
00_COMPONENTS_1
100
AcDbSpline
 62
7
  6
BYLAYER
 70
0
 71
3
 72
23
 73
19
 74
0
 42
0.0000001
 43
0.0000001
 44
0.0000000001
 40
0.0
 40
0.0
 40
0.0
 40
0.0
 40
0.0614540171
 40
0.1231237907
 40
0.1851333796
 40
0.2475065697
 40
0.3102415341
 40
0.3732955271
 40
0.4365835776
 40
0.4999940087
 40
0.5634041239
 40
0.6266917068
 40
0.68974603
 40
0.7524823821
 40
0.8148582675
 40
0.8768708028
 40
0.9385433585
 40
1.0
 40
1.0
 40
1.0
 40
1.0
 10
33.7984053347
 20
61.5223849898
 30
0.0
 10
33.8218186325
 20
61.6398884795
 30
0.0
 10
33.8899966764
 20
61.8716195651
 30
0.0
 10
34.0521848384
 20
62.1960649503
 30
0.0
 10
34.2695455143
 20
62.4887923174
 30
0.0
 10
34.5356558395
 20
62.7409734702
 30
0.0
 10
34.842516678
 20
62.9452299984
 30
0.0
 10
35.1810063566
 20
63.0955887436
 30
0.0
 10
35.5411268606
 20
63.1875692159
 30
0.0
 10
35.9122010227
 20
63.2185096058
 30
0.0
 10
36.2832717172
 20
63.1875434715
 30
0.0
 10
36.6433867942
 20
63.0955459982
 30
0.0
 10
36.9818700288
 20
62.9451656247
 30
0.0
 10
37.2887227126
 20
62.7408810701
 30
0.0
 10
37.5548252215
 20
62.4886720056
 30
0.0
 10
37.7721763289
 20
62.1959164636
 30
0.0
 10
37.9343405033
 20
61.8714404078
 30
0.0
 10
38.0024994952
 20
61.6396926672
 30
0.0
 10
38.0259018145
 20
61.5221817734
 30
0.0
  0
SPLINE
  5
267
100
AcDbEntity
  8
00_COMPONENTS_1
100
AcDbSpline
 62
7
  6
BYLAYER
 70
0
 71
3
 72
23
 73
19
 74
0
 42
0.0000001
 43
0.0000001
 44
0.0000000001
 40
0.0
 40
0.0
 40
0.0
 40
0.0
 40
0.0614238018
 40
0.1230393929
 40
0.184931728
 40
0.2472251276
 40
0.3099369412
 40
0.3730392262
 40
0.4364373301
 40
0.4999939242
 40
0.5635502535
 40
0.6269480392
 40
0.6900510513
 40
0.752765312
 40
0.8150619561
 40
0.8769571725
 40
0.9385755825
 40
1.0
 40
1.0
 40
1.0
 40
1.0
 10
38.0647836163
 20
61.5365005496
 30
0.0
 10
38.0647836163
 20
61.672396759
 30
0.0
 10
38.0368982576
 20
61.9454095089
 30
0.0
 10
37.9133780557
 20
62.3382685476
 30
0.0
 10
37.7127293008
 20
62.7002374152
 30
0.0
 10
37.4430722432
 20
63.0172481847
 30
0.0
 10
37.114690917
 20
63.2772061792
 30
0.0
 10
36.7403185581
 20
63.4702420257
 30
0.0
 10
36.3343000575
 20
63.5890445505
 30
0.0
 10
35.9121757828
 20
63.6291510468
 30
0.0
 10
35.490050784
 20
63.5890586182
 30
0.0
 10
35.084028338
 20
63.4702696969
 30
0.0
 10
34.7096408817
 20
63.2772493104
 30
0.0
 10
34.3812396391
 20
63.0172925634
 30
0.0
 10
34.1115632984
 20
62.7002729971
 30
0.0
 10
33.9108980329
 20
62.3382902746
 30
0.0
 10
33.7873707376
 20
61.9454184245
 30
0.0
 10
33.7594836163
 20
61.6723981211
 30
0.0
 10
33.7594836163
 20
61.5365005496
 30
0.0
  0
SPLINE
  5
268
100
AcDbEntity
  8
00_COMPONENTS_1
100
AcDbSpline
 62
7
  6
BYLAYER
 70
0
 71
3
 72
19
 73
15
 74
0
 42
0.0000001
 43
0.0000001
 44
0.0000000001
 40
0.0
 40
0.0
 40
0.0
 40
0.0
 40
0.1813759507
 40
0.3563024058
 40
0.5185083916
 40
0.6625007797
 40
0.7262067634
 40
0.7837518157
 40
0.834833072
 40
0.8792867167
 40
0.9172111585
 40
0.9490896061
 40
0.9760167008
 40
1.0
 40
1.0
 40
1.0
 40
1.0
 10
57.4259336163
 20
50.8026498049
 30
0.0
 10
57.6241940981
 20
50.8026498049
 30
0.0
 10
58.0137377644
 20
50.7928856163
 30
0.0
 10
58.5791201802
 20
50.7493647247
 30
0.0
 10
59.1005772828
 20
50.6787524838
 30
0.0
 10
59.4970767812
 20
50.5969679928
 30
0.0
 10
59.7761924697
 20
50.5180530802
 30
0.0
 10
59.9543688516
 20
50.4565320805
 30
0.0
 10
60.1084887907
 20
50.3909285002
 30
0.0
 10
60.2372381786
 20
50.3217822812
 30
0.0
 10
60.339652375
 20
50.2495921517
 30
0.0
 10
60.4150664284
 20
50.174464945
 30
0.0
 10
60.4625172299
 20
50.0959885025
 30
0.0
 10
60.4739336163
 20
50.0399852922
 30
0.0
 10
60.4739336163
 20
50.0137693555
 30
0.0
  0
SPLINE
  5
269
100
AcDbEntity
  8
00_COMPONENTS_1
100
AcDbSpline
 62
7
  6
BYLAYER
 70
0
 71
3
 72
19
 73
15
 74
0
 42
0.0000001
 43
0.0000001
 44
0.0000000001
 40
0.0
 40
0.0
 40
0.0
 40
0.0
 40
0.0239832992
 40
0.0509103939
 40
0.0827888415
 40
0.1207132833
 40
0.165166928
 40
0.2162481843
 40
0.2737932366
 40
0.3374992203
 40
0.4814916084
 40
0.6436975942
 40
0.8186240493
 40
1.0
 40
1.0
 40
1.0
 40
1.0
 10
11.3503336163
 20
50.0137693555
 30
0.0
 10
11.3503336163
 20
50.0399852922
 30
0.0
 10
11.3617500028
 20
50.0959885025
 30
0.0
 10
11.4092008043
 20
50.174464945
 30
0.0
 10
11.4846148577
 20
50.2495921517
 30
0.0
 10
11.5870290541
 20
50.3217822812
 30
0.0
 10
11.7157784419
 20
50.3909285002
 30
0.0
 10
11.8698983811
 20
50.4565320805
 30
0.0
 10
12.048074763
 20
50.5180530802
 30
0.0
 10
12.3271904515
 20
50.5969679928
 30
0.0
 10
12.7236899499
 20
50.6787524838
 30
0.0
 10
13.2451470524
 20
50.7493647247
 30
0.0
 10
13.8105294682
 20
50.7928856163
 30
0.0
 10
14.2000731345
 20
50.8026498049
 30
0.0
 10
14.3983336163
 20
50.8026498049
 30
0.0
  0
ENDSEC
  0
SECTION
  2
OBJECTS
  0
DICTIONARY
  5
C
100
AcDbDictionary
280
0
281
1
  3
ACAD_GROUP
350
D
  3
ACAD_MLINESTYLE
350
17
  3
ACAD_LAYOUT
350
1A
  3
ACAD_PLOTSETTINGS
350
19
  3
ACAD_PLOTSTYLENAME
350
E
  0
DICTIONARY
  5
D
102
{ACAD_REACTORS
330
C
102
}
100
AcDbDictionary
280
0
281
1
  0
ACDBDICTIONARYWDFLT
  5
E
102
{ACAD_REACTORS
330
C
102
}
100
AcDbDictionary
281
1
  3
Normal
350
F
100
AcDbDictionaryWithDefault
340
F
  0
DICTIONARY
  5
17
102
{ACAD_REACTORS
330
C
102
}
100
AcDbDictionary
280
0
281
1
  3
Standard
350
18
  0
DICTIONARY
  5
19
102
{ACAD_REACTORS
330
C
102
}
100
AcDbDictionary
281
1
  0
DICTIONARY
  5
1A
102
{ACAD_REACTORS
330
C
102
}
100
AcDbDictionary
281
1
  3
Model
350
26A
  3
Layout1
350
26B
  0
ACDBPLACEHOLDER
  5
F
102
{ACAD_REACTORS
330
E
102
}
  0
MLINESTYLE
  5
18
102
{ACAD_REACTORS
330
17
102
}
100
AcDbMlineStyle
  2
STANDARD
 70
0
  3

 62
256
 51
90.0
 52
90.0
 71
2
 49
0.5
 62
256
  6
BYLAYER
 49
-0.5
 62
256
  6
BYLAYER
  0
LAYOUT
  5
26A
102
{ACAD_REACTORS
330
1A
102
}
100
AcDbPlotSettings
  1

  2
none_device
  4

  6

 40
0.0
 41
0.0
 42
0.0
 43
0.0
 44
210.0
 45
297.0
 46
0.0
 47
0.0
 48
0.0
 49
0.0
140
0.0
141
0.0
142
1.0
143
1.0
 70
1024
 72
1
 73
0
 74
0
  7

 75
0
147
1.0
148
0.0
149
0.0
100
AcDbLayout
  1
Model
 70
0
 71
0
 10
0.0
 20
0.0
 11
210.0
 21
297.0
 12
0.0
 22
0.0
 32
0.0
 14
0.0
 24
0.0
 34
0.0
 15
0.0
 25
0.0
 35
0.0
146
0.0
 13
0.0
 23
0.0
 33
0.0
 16
1.0
 26
0.0
 36
0.0
 17
0.0
 27
1.0
 37
0.0
 76
0
330
21A
345
0
346
0
  0
LAYOUT
  5
26B
102
{ACAD_REACTORS
330
1A
102
}
100
AcDbPlotSettings
  1

  2
none_device
  4

  6

 40
0.0
 41
0.0
 42
0.0
 43
0.0
 44
210.0
 45
297.0
 46
0.0
 47
0.0
 48
0.0
 49
0.0
140
0.0
141
0.0
142
1.0
143
1.0
 70
0
 72
1
 73
0
 74
0
  7

 75
0
147
1.0
148
0.0
149
0.0
100
AcDbLayout
  1
Layout1
 70
0
 71
1
 10
0.0
 20
0.0
 11
210.0
 21
297.0
 12
0.0
 22
0.0
 32
0.0
 14
0.0
 24
0.0
 34
0.0
 15
0.0
 25
0.0
 35
0.0
146
0.0
 13
0.0
 23
0.0
 33
0.0
 16
1.0
 26
0.0
 36
0.0
 17
0.0
 27
1.0
 37
0.0
 76
0
330
21B
345
0
346
0
  0
ENDSEC
  0
EOF
