999
DXF file: C:\Users\sesa63760\Dev\_Creo\CAD\MCADPP0003729_3D-CAD\drw0001_5.dxf
999
Pro/ENGINEER 2019471 by Parametric Technology Corporation
  0
SECTION
  2
HEADER
  9
$ACADVER
  1
AC1024
  9
$DWGCODEPAGE
  3
ANSI_1252
  9
$EXTMAX
 10
126.9252767324
 20
179.5086056644
 30
0.0
  9
$EXTMIN
 10
0.0
 20
0.0
 30
0.0
  9
$LIMMIN
 10
0.0
 20
0.0
  9
$LIMMAX
 10
126.9252767324
 20
179.5086056644
  9
$VIEWCTR
 10
63.4626383662
 20
89.7543028322
  9
$VIEWSIZE
 40
179.5086056644
  9
$CLAYER
  8
0
  9
$LTSCALE
 40
11.7013017026
  9
$CELTYPE
  6
BYLAYER
  9
$DIMSCALE
 40
1.0
  9
$DIMASZ
 40
1.5110151992
  9
$DIMEXO
 40
1.0
  9
$DIMDLI
 40
8.0845357218
  9
$DIMEXE
 40
1.0
  9
$DIMCEN
 40
1.9147584604
  9
$DIMLFAC
 40
1.0
  9
$DIMBLK
  1
_FILLED
  9
$DIMALT
 70
0
  9
$DIMALTF
 40
0.0393700787
  9
$DIMTXT
 40
2.1154212789
  9
$DIMTOL
 70
1
  9
$DIMLIM
 70
0
  9
$DIMTFAC
 40
1.0
  9
$DIMTP
 40
0.01
  9
$DIMTM
 40
0.01
  9
$DIMGAP
 40
0.625
  9
$DIMDSEP
 70
46
  9
$AUNITS
 70
0
  9
$PDMODE
 70
3
  9
$PDSIZE
 40
0.3125
  9
$HANDSEED
  5
283
  9
$TILEMODE
 70
1
  9
$MEASUREMENT
 70
1
  9
$INSUNITS
 70
4
  0
ENDSEC
  0
SECTION
  2
CLASSES
  0
CLASS
  1
ACDBDICTIONARYWDFLT
  2
AcDbDictionaryWithDefault
  3
AutoCAD 2000
 90
0
 91
1
280
0
281
0
  0
CLASS
  1
ACDBPLACEHOLDER
  2
AcDbPlaceHolder
  3
AutoCAD 2000
 90
0
 91
1
280
0
281
0
  0
CLASS
  1
LAYOUT
  2
AcDbLayout
  3
AutoCAD 2000
 90
0
 91
0
280
0
281
0
  0
ENDSEC
  0
SECTION
  2
TABLES
  0
TABLE
  2
VPORT
  5
8
100
AcDbSymbolTable
 70
2
  0
VPORT
  5
1F4
100
AcDbSymbolTableRecord
100
AcDbViewportTableRecord
  2
*ACTIVE
 70
0
 10
0.0
 20
0.0
 11
1.0
 21
1.0
 12
63.4626383662
 22
89.7543028322
 13
0.0
 23
0.0
 14
1.0
 24
1.0
 15
0.0
 25
0.0
 16
0.0
 26
0.0
 36
1.0
 17
0.0
 27
0.0
 37
0.0
 40
179.5086056644
 41
0.7070707071
 42
50.0
 43
0.0
 44
0.0
 50
0.0
 51
0.0
 71
0
 72
100
 73
1
 74
1
 75
0
 76
0
 77
0
 78
0
  0
ENDTAB
  0
TABLE
  2
LTYPE
  5
5
100
AcDbSymbolTable
 70
6
  0
LTYPE
  5
14
100
AcDbSymbolTableRecord
100
AcDbLinetypeTableRecord
  2
BYBLOCK
 70
0
  3

 72
65
 73
0
 40
0.0
  0
LTYPE
  5
15
100
AcDbSymbolTableRecord
100
AcDbLinetypeTableRecord
  2
BYLAYER
 70
0
  3

 72
65
 73
0
 40
0.0
  0
LTYPE
  5
16
100
AcDbSymbolTableRecord
100
AcDbLinetypeTableRecord
  2
CONTINUOUS
 70
64
  3
Solid line
 72
65
 73
0
 40
0.0
  0
LTYPE
  5
1F5
100
AcDbSymbolTableRecord
100
AcDbLinetypeTableRecord
  2
CENTER
 70
64
  3
____ _ ____ _ ____ _ ____ _ ____ _ ____ _ ____
 72
65
 73
4
 40
0.6
 49
0.375
 74
0
 49
-0.075
 74
0
 49
0.075
 74
0
 49
-0.075
 74
0
  0
LTYPE
  5
1F6
100
AcDbSymbolTableRecord
100
AcDbLinetypeTableRecord
  2
HIDDEN
 70
64
  3
- - - - - - - - - - - - - - - - - - - -
 72
65
 73
2
 40
0.2
 49
0.1
 74
0
 49
-0.1
 74
0
  0
LTYPE
  5
1F7
100
AcDbSymbolTableRecord
100
AcDbLinetypeTableRecord
  2
PHANTOM
 70
64
  3
_____ _ _ _____ _ _ _____ _ _ _____
 72
65
 73
6
 40
0.8
 49
0.45
 74
0
 49
-0.05
 74
0
 49
0.1
 74
0
 49
-0.05
 74
0
 49
0.1
 74
0
 49
-0.05
 74
0
  0
LTYPE
  5
1F8
100
AcDbSymbolTableRecord
100
AcDbLinetypeTableRecord
  2
DOT
 70
64
  3
. . . . . . . . . . . . . . . . . . . .
 72
65
 73
2
 40
0.2
 49
0.1
 74
0
 49
-0.1
 74
0
  0
LTYPE
  5
1F9
100
AcDbSymbolTableRecord
100
AcDbLinetypeTableRecord
  2
DASHED
 70
64
  3
- - - - - - - - - - - - - - - - - - - -
 72
65
 73
2
 40
0.2
 49
0.1
 74
0
 49
-0.1
 74
0
  0
ENDTAB
  0
TABLE
  2
LAYER
  5
2
100
AcDbSymbolTable
 70
36
  0
LAYER
  5
10
100
AcDbSymbolTableRecord
100
AcDbLayerTableRecord
  2
0
 70
0
 62
7
  6
CONTINUOUS
370
-3
390
F
  0
LAYER
  5
1FA
100
AcDbSymbolTableRecord
100
AcDbLayerTableRecord
  2
DEFAULT_1
 70
0
 62
7
  6
CENTER
370
-3
390
F
  0
LAYER
  5
1FB
100
AcDbSymbolTableRecord
100
AcDbLayerTableRecord
  2
DEFAULT_2
 70
0
 62
8
  6
HIDDEN
370
-3
390
F
  0
LAYER
  5
1FC
100
AcDbSymbolTableRecord
100
AcDbLayerTableRecord
  2
DEFAULT_3
 70
0
 62
7
  6
PHANTOM
370
-3
390
F
  0
LAYER
  5
1FD
100
AcDbSymbolTableRecord
100
AcDbLayerTableRecord
  2
00_COMPONENTS
 70
0
 62
7
  6
CONTINUOUS
370
-3
390
F
  0
LAYER
  5
1FE
100
AcDbSymbolTableRecord
100
AcDbLayerTableRecord
  2
00_COMPONENTS_1
 70
0
 62
7
  6
CONTINUOUS
370
-3
390
F
  0
LAYER
  5
1FF
100
AcDbSymbolTableRecord
100
AcDbLayerTableRecord
  2
01_1_DEFAULT_DATUMS
 70
0
 62
7
  6
CONTINUOUS
370
-3
390
F
  0
LAYER
  5
200
100
AcDbSymbolTableRecord
100
AcDbLayerTableRecord
  2
01_PLANES
 70
0
 62
7
  6
CONTINUOUS
370
-3
390
F
  0
LAYER
  5
201
100
AcDbSymbolTableRecord
100
AcDbLayerTableRecord
  2
02_COORD_SYS
 70
0
 62
7
  6
CONTINUOUS
370
-3
390
F
  0
LAYER
  5
202
100
AcDbSymbolTableRecord
100
AcDbLayerTableRecord
  2
03_AXES
 70
0
 62
7
  6
CONTINUOUS
370
-3
390
F
  0
LAYER
  5
203
100
AcDbSymbolTableRecord
100
AcDbLayerTableRecord
  2
03_AXES_1
 70
0
 62
7
  6
CONTINUOUS
370
-3
390
F
  0
LAYER
  5
204
100
AcDbSymbolTableRecord
100
AcDbLayerTableRecord
  2
04_POINTS
 70
0
 62
7
  6
CONTINUOUS
370
-3
390
F
  0
LAYER
  5
205
100
AcDbSymbolTableRecord
100
AcDbLayerTableRecord
  2
05_CURVES
 70
0
 62
7
  6
CONTINUOUS
370
-3
390
F
  0
LAYER
  5
206
100
AcDbSymbolTableRecord
100
AcDbLayerTableRecord
  2
06_SURFS
 70
0
 62
7
  6
CONTINUOUS
370
-3
390
F
  0
LAYER
  5
207
100
AcDbSymbolTableRecord
100
AcDbLayerTableRecord
  2
07_COSMETICS
 70
0
 62
7
  6
CONTINUOUS
370
-3
390
F
  0
LAYER
  5
208
100
AcDbSymbolTableRecord
100
AcDbLayerTableRecord
  2
10_NOTES
 70
0
 62
7
  6
CONTINUOUS
370
-3
390
F
  0
LAYER
  5
209
100
AcDbSymbolTableRecord
100
AcDbLayerTableRecord
  2
11_NOTES_PUB
 70
0
 62
7
  6
CONTINUOUS
370
-3
390
F
  0
LAYER
  5
20A
100
AcDbSymbolTableRecord
100
AcDbLayerTableRecord
  2
13_REF_GTOL
 70
0
 62
7
  6
CONTINUOUS
370
-3
390
F
  0
LAYER
  5
20B
100
AcDbSymbolTableRecord
100
AcDbLayerTableRecord
  2
16_MISC
 70
0
 62
7
  6
CONTINUOUS
370
-3
390
F
  0
LAYER
  5
20C
100
AcDbSymbolTableRecord
100
AcDbLayerTableRecord
  2
17_NO_PRINT
 70
0
 62
7
  6
CONTINUOUS
370
-3
390
F
  0
LAYER
  5
20D
100
AcDbSymbolTableRecord
100
AcDbLayerTableRecord
  2
18_DATUM_CAMS_JOINTS
 70
0
 62
7
  6
CONTINUOUS
370
-3
390
F
  0
LAYER
  5
20E
100
AcDbSymbolTableRecord
100
AcDbLayerTableRecord
  2
19_DATUM_FUNCTIONAL
 70
0
 62
7
  6
CONTINUOUS
370
-3
390
F
  0
LAYER
  5
20F
100
AcDbSymbolTableRecord
100
AcDbLayerTableRecord
  2
20_DATUM_KINEMATIC_SCHEME
 70
0
 62
7
  6
CONTINUOUS
370
-3
390
F
  0
LAYER
  5
210
100
AcDbSymbolTableRecord
100
AcDbLayerTableRecord
  2
INTFCLR_11
 70
0
 62
7
  6
CONTINUOUS
370
-3
390
F
  0
LAYER
  5
211
100
AcDbSymbolTableRecord
100
AcDbLayerTableRecord
  2
INTF_BLANK
 70
0
 62
7
  6
CONTINUOUS
370
-3
390
F
  0
LAYER
  5
212
100
AcDbSymbolTableRecord
100
AcDbLayerTableRecord
  2
INTF_YELLOW
 70
0
 62
7
  6
CONTINUOUS
370
-3
390
F
  0
LAYER
  5
213
100
AcDbSymbolTableRecord
100
AcDbLayerTableRecord
  2
_BLACK_HOLE
 70
0
 62
7
  6
CONTINUOUS
370
-3
390
F
  0
ENDTAB
  0
TABLE
  2
STYLE
  5
3
100
AcDbSymbolTable
 70
1
  0
STYLE
  5
11
100
AcDbSymbolTableRecord
100
AcDbTextStyleTableRecord
  2
STANDARD
 70
0
 40
0.0
 41
0.8
 50
0.0
 71
0
 42
0.2
  3
txt
  4

  0
STYLE
  5
214
100
AcDbSymbolTableRecord
100
AcDbTextStyleTableRecord
  2
TEXTSTYLE_1
 70
0
 40
0.0
 41
0.8
 50
0.0
 71
0
 42
0.2
  3
gdt
  4

  0
ENDTAB
  0
TABLE
  2
VIEW
  5
6
100
AcDbSymbolTable
 70
0
  0
ENDTAB
  0
TABLE
  2
UCS
  5
7
100
AcDbSymbolTable
 70
0
  0
ENDTAB
  0
TABLE
  2
APPID
  5
9
100
AcDbSymbolTable
 70
1
  0
APPID
  5
215
100
AcDbSymbolTableRecord
100
AcDbRegAppTableRecord
  2
ACAD
 70
0
  0
ENDTAB
  0
TABLE
  2
BLOCK_RECORD
  5
1
100
AcDbSymbolTable
 70
0
  0
BLOCK_RECORD
  5
216
100
AcDbSymbolTableRecord
100
AcDbBlockTableRecord
  2
*Model_Space
  0
BLOCK_RECORD
  5
217
100
AcDbSymbolTableRecord
100
AcDbBlockTableRecord
  2
*Paper_Space
  0
BLOCK_RECORD
  5
218
100
AcDbSymbolTableRecord
100
AcDbBlockTableRecord
  2
_FILLED
  0
ENDTAB
  0
TABLE
  2
DIMSTYLE
  5
A
100
AcDbSymbolTable
 70
1
100
AcDbDimStyleTable
 71
0
  0
DIMSTYLE
105
219
100
AcDbSymbolTableRecord
100
AcDbDimStyleTableRecord
  2
STANDARD
 70
0
  3

  4

 40
1.0
 41
1.5110151992
 42
1.0
 43
0.38
 44
1.0
 45
0.0
 46
0.0
 47
0.01
 48
0.01
140
2.1154212789
141
0.09
142
0.0
143
25.4
144
1.0
145
0.0
146
1.0
147
0.625
 71
1
 72
0
 73
0
 74
0
 75
0
 76
0
 77
1
 78
8
 79
2
170
0
171
1
172
0
173
0
174
0
175
0
176
0
177
0
178
0
270
2
179
2
271
2
272
2
273
2
274
2
275
0
280
0
281
0
282
0
283
1
284
8
285
0
286
0
287
3
288
0
340
11
278
46
341
218
342
218
343
218
344
218
  0
ENDTAB
  0
ENDSEC
  0
SECTION
  2
BLOCKS
  0
BLOCK
  5
20
100
AcDbEntity
  8
0
100
AcDbBlockBegin
  2
*Model_Space
 70
0
 10
0.0
 20
0.0
 30
0.0
  3
*Model_Space
  1

  0
ENDBLK
  5
21
100
AcDbEntity
  8
0
100
AcDbBlockEnd
  0
BLOCK
  5
1C
100
AcDbEntity
  8
0
100
AcDbBlockBegin
  2
*Paper_Space
 70
0
 10
0.0
 20
0.0
 30
0.0
  3
*Paper_Space
  1

  0
ENDBLK
  5
1D
100
AcDbEntity
  8
0
100
AcDbBlockEnd
  0
BLOCK
  5
21A
100
AcDbEntity
  8
0
100
AcDbBlockBegin
  2
_FILLED
 70
64
 10
0.0
 20
0.0
  3
_FILLED
  1

  0
SOLID
  5
21B
100
AcDbEntity
  8
0
  6
BYBLOCK
 62
0
100
AcDbTrace
 10
0.0
 20
0.0
 11
-1.0
 21
0.25
 12
-1.0
 22
-0.25
 13
-1.0
 23
-0.25
  0
ENDBLK
  5
21C
100
AcDbEntity
  8
0
  6
BYBLOCK
 62
0
100
AcDbBlockEnd
  0
ENDSEC
  0
SECTION
  2
ENTITIES
  0
LINE
  5
21D
100
AcDbEntity
  8
00_COMPONENTS_1
100
AcDbLine
 62
7
  6
CONTINUOUS
 10
14.795372571
 20
51.5740839071
 11
14.795372571
 21
71.1241442171
  0
LINE
  5
21E
100
AcDbEntity
  8
00_COMPONENTS_1
100
AcDbLine
 62
7
  6
CONTINUOUS
 10
14.795372571
 20
107.0740196078
 11
14.795372571
 21
128.5739553085
  0
LINE
  5
21F
100
AcDbEntity
  8
00_COMPONENTS_1
100
AcDbLine
 62
7
  6
CONTINUOUS
 10
17.195372571
 20
127.0740108665
 11
17.195372571
 21
126.8847331744
  0
LINE
  5
220
100
AcDbEntity
  8
00_COMPONENTS_1
100
AcDbLine
 62
7
  6
CONTINUOUS
 10
19.195372571
 20
109.7740196078
 11
18.595372571
 21
105.8740196078
  0
LINE
  5
221
100
AcDbEntity
  8
03_AXES_1
100
AcDbLine
 62
2
  6
CONTINUOUS
 10
18.495372571
 20
126.0107030953
 11
18.495372571
 21
126.6730145764
  0
LINE
  5
222
100
AcDbEntity
  8
00_COMPONENTS_1
100
AcDbLine
 62
7
  6
CONTINUOUS
 10
18.9953726599
 20
73.1724981237
 11
18.9953726599
 21
71.7726863332
  0
LINE
  5
223
100
AcDbEntity
  8
00_COMPONENTS_1
100
AcDbLine
 62
7
  6
CONTINUOUS
 10
19.296743381
 20
91.0740196078
 11
19.296743381
 21
89.0740196078
  0
LINE
  5
224
100
AcDbEntity
  8
00_COMPONENTS_1
100
AcDbLine
 62
7
  6
CONTINUOUS
 10
20.296743381
 20
71.7726863332
 11
20.296743381
 21
105.8740196078
  0
LINE
  5
225
100
AcDbEntity
  8
00_COMPONENTS_1
100
AcDbLine
 62
7
  6
CONTINUOUS
 10
20.995372571
 20
106.7740196078
 11
20.995372571
 21
109.7740196078
  0
LINE
  5
226
100
AcDbEntity
  8
00_COMPONENTS_1
100
AcDbLine
 62
7
  6
CONTINUOUS
 10
21.795372571
 20
51.5740839071
 11
21.795372571
 21
59.7740196078
  0
LINE
  5
227
100
AcDbEntity
  8
00_COMPONENTS_1
100
AcDbLine
 62
7
  6
CONTINUOUS
 10
21.795372571
 20
120.3740196078
 11
21.795372571
 21
128.5739553085
  0
LINE
  5
228
100
AcDbEntity
  8
00_COMPONENTS_1
100
AcDbLine
 62
7
  6
CONTINUOUS
 10
20.296743381
 20
105.8740196078
 11
20.4352049194
 21
106.7740196078
  0
LINE
  5
229
100
AcDbEntity
  8
00_COMPONENTS_1
100
AcDbLine
 62
7
  6
CONTINUOUS
 10
18.5940073045
 20
73.5738634791
 11
18.9953726599
 21
73.1724981237
  0
LINE
  5
22A
100
AcDbEntity
  8
00_COMPONENTS_1
100
AcDbLine
 62
7
  6
CONTINUOUS
 10
60.895372571
 20
47.5740196078
 11
94.2453672684
 21
47.5740196078
  0
LINE
  5
22B
100
AcDbEntity
  8
00_COMPONENTS_1
100
AcDbLine
 62
7
  6
CONTINUOUS
 10
21.795372571
 20
51.5740196078
 11
14.795372571
 21
51.5740196078
  0
LINE
  5
22C
100
AcDbEntity
  8
00_COMPONENTS_1
100
AcDbLine
 62
7
  6
CONTINUOUS
 10
14.795372571
 20
52.91376557
 11
21.795372571
 21
52.91376557
  0
LINE
  5
22D
100
AcDbEntity
  8
00_COMPONENTS_1
100
AcDbLine
 62
7
  6
CONTINUOUS
 10
60.895372571
 20
53.9740196078
 11
52.795372571
 21
53.9740196078
  0
LINE
  5
22E
100
AcDbEntity
  8
00_COMPONENTS_1
100
AcDbLine
 62
7
  6
CONTINUOUS
 10
52.795372571
 20
57.0740196078
 11
21.795372571
 21
57.0740196078
  0
LINE
  5
22F
100
AcDbEntity
  8
03_AXES_1
100
AcDbLine
 62
2
  6
CONTINUOUS
 10
93.0857278251
 20
57.5740196078
 11
93.8884829346
 21
57.5740196078
  0
LINE
  5
230
100
AcDbEntity
  8
03_AXES_1
100
AcDbLine
 62
2
  6
CONTINUOUS
 10
94.1883312707
 20
57.5740196078
 11
94.2456027303
 21
57.5740196078
  0
LINE
  5
231
100
AcDbEntity
  8
00_COMPONENTS_1
100
AcDbLine
 62
7
  6
CONTINUOUS
 10
21.795372571
 20
59.7740196078
 11
52.795372571
 21
59.7740196078
  0
LINE
  5
232
100
AcDbEntity
  8
00_COMPONENTS_1
100
AcDbLine
 62
7
  6
CONTINUOUS
 10
106.945372571
 20
63.0740196078
 11
94.2444814791
 21
63.0740196078
  0
LINE
  5
233
100
AcDbEntity
  8
00_COMPONENTS_1
100
AcDbLine
 62
7
  6
CONTINUOUS
 10
92.445372571
 20
64.0740196078
 11
108.7453672684
 21
64.0740196078
  0
LINE
  5
234
100
AcDbEntity
  8
00_COMPONENTS_1
100
AcDbLine
 62
7
  6
CONTINUOUS
 10
15.995372571
 20
105.8740196078
 11
14.795372571
 21
107.0740196078
  0
LINE
  5
235
100
AcDbEntity
  8
03_AXES_1
100
AcDbLine
 62
2
  6
CONTINUOUS
 10
108.4845667583
 20
70.7740196078
 11
108.7303925633
 21
70.7740196078
  0
LINE
  5
236
100
AcDbEntity
  8
00_COMPONENTS_1
100
AcDbLine
 62
7
  6
CONTINUOUS
 10
19.5953726599
 20
71.1726863332
 11
19.696743381
 21
71.1726863332
  0
LINE
  5
237
100
AcDbEntity
  8
00_COMPONENTS_1
100
AcDbLine
 62
7
  6
CONTINUOUS
 10
14.795372571
 20
71.1241442171
 11
18.2940073045
 21
73.5738634791
  0
LINE
  5
238
100
AcDbEntity
  8
00_COMPONENTS_1
100
AcDbLine
 62
7
  6
CONTINUOUS
 10
18.2940073045
 20
73.5738634791
 11
20.296743381
 21
73.5738634791
  0
LINE
  5
239
100
AcDbEntity
  8
00_COMPONENTS_1
100
AcDbLine
 62
7
  6
CONTINUOUS
 10
106.945372571
 20
75.1740196078
 11
108.995372571
 21
75.1740196078
  0
LINE
  5
23A
100
AcDbEntity
  8
00_COMPONENTS_1
100
AcDbLine
 62
7
  6
CONTINUOUS
 10
115.645372571
 20
75.2740196078
 11
109.095372571
 21
75.2740196078
  0
LINE
  5
23B
100
AcDbEntity
  8
00_COMPONENTS_1
100
AcDbLine
 62
7
  6
CONTINUOUS
 10
52.795372571
 20
53.9740196078
 11
52.795372571
 21
59.7740196078
  0
LINE
  5
23C
100
AcDbEntity
  8
00_COMPONENTS_1
100
AcDbLine
 62
7
  6
CONTINUOUS
 10
52.795372571
 20
120.3740196078
 11
52.795372571
 21
125.9740196078
  0
LINE
  5
23D
100
AcDbEntity
  8
00_COMPONENTS_1
100
AcDbLine
 62
7
  6
CONTINUOUS
 10
109.095372571
 20
79.2740196078
 11
115.645372571
 21
79.2740196078
  0
LINE
  5
23E
100
AcDbEntity
  8
00_COMPONENTS_1
100
AcDbLine
 62
7
  6
CONTINUOUS
 10
60.895372571
 20
53.9740196078
 11
60.895372571
 21
47.5740196078
  0
LINE
  5
23F
100
AcDbEntity
  8
00_COMPONENTS_1
100
AcDbLine
 62
7
  6
CONTINUOUS
 10
60.895372571
 20
125.9740196078
 11
60.895372571
 21
132.3740196078
  0
LINE
  5
240
100
AcDbEntity
  8
00_COMPONENTS_1
100
AcDbLine
 62
7
  6
CONTINUOUS
 10
19.296743381
 20
89.0740196078
 11
20.296743381
 21
89.0740196078
  0
LINE
  5
241
100
AcDbEntity
  8
00_COMPONENTS_1
100
AcDbLine
 62
7
  6
CONTINUOUS
 10
19.296743381
 20
91.0740196078
 11
20.296743381
 21
91.0740196078
  0
LINE
  5
242
100
AcDbEntity
  8
00_COMPONENTS_1
100
AcDbLine
 62
7
  6
CONTINUOUS
 10
115.645372571
 20
100.6440196078
 11
109.095372571
 21
100.6440196078
  0
LINE
  5
243
100
AcDbEntity
  8
00_COMPONENTS_1
100
AcDbLine
 62
7
  6
CONTINUOUS
 10
109.095372571
 20
104.6440196078
 11
115.645372571
 21
104.6440196078
  0
LINE
  5
244
100
AcDbEntity
  8
00_COMPONENTS_1
100
AcDbLine
 62
7
  6
CONTINUOUS
 10
106.945372571
 20
104.7740196078
 11
108.995372571
 21
104.7740196078
  0
LINE
  5
245
100
AcDbEntity
  8
00_COMPONENTS_1
100
AcDbLine
 62
7
  6
CONTINUOUS
 10
18.595372571
 20
105.8740196078
 11
15.995372571
 21
105.8740196078
  0
LINE
  5
246
100
AcDbEntity
  8
00_COMPONENTS_1
100
AcDbLine
 62
7
  6
CONTINUOUS
 10
20.4352049194
 20
106.7740196078
 11
20.995372571
 21
106.7740196078
  0
LINE
  5
247
100
AcDbEntity
  8
03_AXES_1
100
AcDbLine
 62
2
  6
CONTINUOUS
 10
108.4845667583
 20
109.3740196078
 11
108.7303925633
 21
109.3740196078
  0
LINE
  5
248
100
AcDbEntity
  8
00_COMPONENTS_1
100
AcDbLine
 62
7
  6
CONTINUOUS
 10
20.995372571
 20
109.7740196078
 11
14.795372571
 21
109.7740196078
  0
LINE
  5
249
100
AcDbEntity
  8
00_COMPONENTS_1
100
AcDbLine
 62
7
  6
CONTINUOUS
 10
92.445372571
 20
115.8740196078
 11
108.7453672684
 21
115.8740196078
  0
LINE
  5
24A
100
AcDbEntity
  8
00_COMPONENTS_1
100
AcDbLine
 62
7
  6
CONTINUOUS
 10
106.945372571
 20
116.8740196078
 11
94.2444814791
 21
116.8740196078
  0
LINE
  5
24B
100
AcDbEntity
  8
00_COMPONENTS_1
100
AcDbLine
 62
7
  6
CONTINUOUS
 10
94.245372571
 20
118.3750447857
 11
94.2445176755
 21
118.4041622379
  0
LINE
  5
24C
100
AcDbEntity
  8
00_COMPONENTS_1
100
AcDbLine
 62
7
  6
CONTINUOUS
 10
94.2402971447
 20
53.7666229758
 11
94.2453530316
 21
53.5740310244
  0
LINE
  5
24D
100
AcDbEntity
  8
00_COMPONENTS_1
100
AcDbLine
 62
7
  6
CONTINUOUS
 10
92.445372571
 20
47.5740196078
 11
92.445372571
 21
64.0740196078
  0
LINE
  5
24E
100
AcDbEntity
  8
00_COMPONENTS_1
100
AcDbLine
 62
7
  6
CONTINUOUS
 10
92.445372571
 20
115.8740196078
 11
92.445372571
 21
132.3740196078
  0
LINE
  5
24F
100
AcDbEntity
  8
00_COMPONENTS_1
100
AcDbLine
 62
7
  6
CONTINUOUS
 10
94.245372571
 20
47.5740196078
 11
94.245372571
 21
53.5740196078
  0
LINE
  5
250
100
AcDbEntity
  8
00_COMPONENTS_1
100
AcDbLine
 62
7
  6
CONTINUOUS
 10
94.245372571
 20
61.5740196078
 11
94.2444814791
 21
64.0740196078
  0
LINE
  5
251
100
AcDbEntity
  8
00_COMPONENTS_1
100
AcDbLine
 62
7
  6
CONTINUOUS
 10
94.2444814791
 20
115.8740196078
 11
94.245372571
 21
118.3740196078
  0
LINE
  5
252
100
AcDbEntity
  8
00_COMPONENTS_1
100
AcDbLine
 62
7
  6
CONTINUOUS
 10
94.245372571
 20
126.3740196078
 11
94.245372571
 21
132.3740196078
  0
LINE
  5
253
100
AcDbEntity
  8
00_COMPONENTS_1
100
AcDbLine
 62
7
  6
CONTINUOUS
 10
94.244561771
 20
61.5455016513
 11
94.2453675506
 21
61.5740506825
  0
LINE
  5
254
100
AcDbEntity
  8
00_COMPONENTS_1
100
AcDbLine
 62
7
  6
CONTINUOUS
 10
21.795372571
 20
120.3740196078
 11
52.795372571
 21
120.3740196078
  0
LINE
  5
255
100
AcDbEntity
  8
03_AXES_1
100
AcDbLine
 62
2
  6
CONTINUOUS
 10
93.0857278251
 20
122.3740196078
 11
93.8884829346
 21
122.3740196078
  0
LINE
  5
256
100
AcDbEntity
  8
03_AXES_1
100
AcDbLine
 62
2
  6
CONTINUOUS
 10
94.1883312707
 20
122.3740196078
 11
94.2455866793
 21
122.3740196078
  0
LINE
  5
257
100
AcDbEntity
  8
00_COMPONENTS_1
100
AcDbLine
 62
7
  6
CONTINUOUS
 10
52.795372571
 20
123.0740196078
 11
21.795372571
 21
123.0740196078
  0
LINE
  5
258
100
AcDbEntity
  8
00_COMPONENTS_1
100
AcDbLine
 62
7
  6
CONTINUOUS
 10
21.795372571
 20
123.8740196078
 11
14.795372571
 21
123.8740196078
  0
LINE
  5
259
100
AcDbEntity
  8
00_COMPONENTS_1
100
AcDbLine
 62
7
  6
CONTINUOUS
 10
60.895372571
 20
125.9740196078
 11
52.795372571
 21
125.9740196078
  0
LINE
  5
25A
100
AcDbEntity
  8
00_COMPONENTS_1
100
AcDbLine
 62
7
  6
CONTINUOUS
 10
14.795372571
 20
126.8847331744
 11
17.195372571
 21
126.8847331744
  0
LINE
  5
25B
100
AcDbEntity
  8
00_COMPONENTS_1
100
AcDbLine
 62
7
  6
CONTINUOUS
 10
21.795372571
 20
127.0740196078
 11
17.195372571
 21
127.0740196078
  0
LINE
  5
25C
100
AcDbEntity
  8
00_COMPONENTS_1
100
AcDbLine
 62
7
  6
CONTINUOUS
 10
21.795372571
 20
127.4030901904
 11
14.795372571
 21
127.4030901904
  0
LINE
  5
25D
100
AcDbEntity
  8
00_COMPONENTS_1
100
AcDbLine
 62
7
  6
CONTINUOUS
 10
21.795372571
 20
128.3603578361
 11
14.795372571
 21
128.3603578361
  0
LINE
  5
25E
100
AcDbEntity
  8
00_COMPONENTS_1
100
AcDbLine
 62
7
  6
CONTINUOUS
 10
21.795372571
 20
128.5740196078
 11
14.795372571
 21
128.5740196078
  0
LINE
  5
25F
100
AcDbEntity
  8
00_COMPONENTS_1
100
AcDbLine
 62
7
  6
CONTINUOUS
 10
106.945372571
 20
63.0740196078
 11
106.945372571
 21
75.1740196078
  0
LINE
  5
260
100
AcDbEntity
  8
00_COMPONENTS_1
100
AcDbLine
 62
7
  6
CONTINUOUS
 10
106.945372571
 20
104.7740196078
 11
106.945372571
 21
116.8740196078
  0
LINE
  5
261
100
AcDbEntity
  8
00_COMPONENTS_1
100
AcDbLine
 62
7
  6
CONTINUOUS
 10
108.745372571
 20
64.0740196078
 11
108.745372571
 21
75.1740196078
  0
LINE
  5
262
100
AcDbEntity
  8
00_COMPONENTS_1
100
AcDbLine
 62
7
  6
CONTINUOUS
 10
108.745372571
 20
104.7740196078
 11
108.745372571
 21
115.8740196078
  0
LINE
  5
263
100
AcDbEntity
  8
00_COMPONENTS_1
100
AcDbLine
 62
7
  6
CONTINUOUS
 10
108.995372571
 20
75.1740196078
 11
108.995372571
 21
104.7740196078
  0
LINE
  5
264
100
AcDbEntity
  8
00_COMPONENTS_1
100
AcDbLine
 62
7
  6
CONTINUOUS
 10
109.095372571
 20
75.2740196078
 11
109.095372571
 21
104.6440196078
  0
LINE
  5
265
100
AcDbEntity
  8
00_COMPONENTS_1
100
AcDbLine
 62
7
  6
CONTINUOUS
 10
94.2453672684
 20
132.3740196078
 11
60.895372571
 21
132.3740196078
  0
LINE
  5
266
100
AcDbEntity
  8
00_COMPONENTS_1
100
AcDbLine
 62
7
  6
CONTINUOUS
 10
115.645372571
 20
75.2740196078
 11
115.645372571
 21
104.6440196078
  0
ARC
  5
267
100
AcDbEntity
  8
00_COMPONENTS_1
100
AcDbCircle
 62
7
  6
CONTINUOUS
 10
19.5953726599
 20
71.7726863332
 40
0.6
100
AcDbArc
 50
180.0
 51
270.0
  0
ARC
  5
268
100
AcDbEntity
  8
00_COMPONENTS_1
100
AcDbCircle
 62
7
  6
CONTINUOUS
 10
19.696743381
 20
71.7726863332
 40
0.6
100
AcDbArc
 50
270.0
 51
360.0
  0
SPLINE
  5
269
100
AcDbEntity
  8
00_COMPONENTS_1
100
AcDbSpline
 62
7
  6
CONTINUOUS
 70
0
 71
3
 72
17
 73
13
 74
0
 42
0.0000001
 43
0.0000001
 44
0.0000000001
 40
0.0
 40
0.0
 40
0.0
 40
0.0
 40
0.0317313178
 40
0.0581212619
 40
0.092473924
 40
0.134909898
 40
0.1852277436
 40
0.2430366742
 40
0.3078956651
 40
0.456401152
 40
0.6255311717
 40
1.0
 40
1.0
 40
1.0
 40
1.0
 10
15.9955562315
 20
126.3819564049
 30
0.0
 10
15.995813563
 20
126.3547972364
 30
0.0
 10
16.0399951657
 20
126.3143746141
 30
0.0
 10
16.1075278456
 20
126.2791054913
 30
0.0
 10
16.1907796525
 20
126.2462195451
 30
0.0
 10
16.2946249276
 20
126.214823503
 30
0.0
 10
16.4199284204
 20
126.1839628055
 30
0.0
 10
16.5650311135
 20
126.1545269196
 30
0.0
 10
16.7939429779
 20
126.1158358986
 30
0.0
 10
17.1188943998
 20
126.0747954725
 30
0.0
 10
17.7092936584
 20
126.0248867794
 30
0.0
 10
18.174846378
 20
126.0107030953
 30
0.0
 10
18.495372571
 20
126.0107030953
 30
0.0
  0
SPLINE
  5
26A
100
AcDbEntity
  8
00_COMPONENTS_1
100
AcDbSpline
 62
7
  6
CONTINUOUS
 70
0
 71
3
 72
21
 73
17
 74
0
 42
0.0000001
 43
0.0000001
 44
0.0000000001
 40
0.0
 40
0.0
 40
0.0
 40
0.0
 40
0.0022403194
 40
0.0063809458
 40
0.0214190854
 40
0.0455869562
 40
0.0787043703
 40
0.1205622812
 40
0.1709244616
 40
0.2293276669
 40
0.2951299486
 40
0.3676716156
 40
0.4462407211
 40
0.6185128885
 40
0.8055932801
 40
1.0
 40
1.0
 40
1.0
 40
1.0
 10
108.6452140451
 20
112.6245470313
 30
0.0
 10
108.6427779672
 20
112.624556091
 30
0.0
 10
108.6369712745
 20
112.618964654
 30
0.0
 10
108.6282320593
 20
112.5980314601
 30
0.0
 10
108.6169203535
 20
112.5514401769
 30
0.0
 10
108.6044481879
 20
112.4741706507
 30
0.0
 10
108.5910914768
 20
112.3670062279
 30
0.0
 10
108.5776471283
 20
112.2314362963
 30
0.0
 10
108.5642631693
 20
112.0681694957
 30
0.0
 10
108.5512298964
 20
111.8787982133
 30
0.0
 10
108.5387523699
 20
111.6652164214
 30
0.0
 10
108.5270808408
 20
111.4296348766
 30
0.0
 10
108.5124253576
 20
111.0782947063
 30
0.0
 10
108.4978433413
 20
110.6023112174
 30
0.0
 10
108.4870354788
 20
110.0002437963
 30
0.0
 10
108.4845667583
 20
109.5854149967
 30
0.0
 10
108.4845667583
 20
109.3740196078
 30
0.0
  0
SPLINE
  5
26B
100
AcDbEntity
  8
00_COMPONENTS_1
100
AcDbSpline
 62
7
  6
CONTINUOUS
 70
0
 71
3
 72
21
 73
17
 74
0
 42
0.0000001
 43
0.0000001
 44
0.0000000001
 40
0.0
 40
0.0
 40
0.0
 40
0.0
 40
0.0022460551
 40
0.0063921035
 40
0.0214262345
 40
0.0455637862
 40
0.0786404081
 40
0.1204857853
 40
0.1708855401
 40
0.2293269402
 40
0.2951357388
 40
0.3676355374
 40
0.4461529493
 40
0.6184562823
 40
0.8056090031
 40
1.0
 40
1.0
 40
1.0
 40
1.0
 10
108.6452140654
 20
74.0245328406
 30
0.0
 10
108.6427717681
 20
74.024525509
 30
0.0
 10
108.6369830466
 20
74.0189097526
 30
0.0
 10
108.6282326632
 20
73.9979735471
 30
0.0
 10
108.6169353555
 20
73.9514111027
 30
0.0
 10
108.6044468236
 20
73.8742285024
 30
0.0
 10
108.5910876558
 20
73.7671564337
 30
0.0
 10
108.5776441101
 20
73.6316050863
 30
0.0
 10
108.5642762419
 20
73.4682693814
 30
0.0
 10
108.5512510524
 20
73.2788097921
 30
0.0
 10
108.5387732685
 20
73.065227015
 30
0.0
 10
108.5270832529
 20
72.8297434646
 30
0.0
 10
108.5123989123
 20
72.4784756958
 30
0.0
 10
108.4978449402
 20
72.0024392955
 30
0.0
 10
108.4870545608
 20
71.4002821544
 30
0.0
 10
108.4845667583
 20
70.9853958756
 30
0.0
 10
108.4845667583
 20
70.7740196078
 30
0.0
  0
SPLINE
  5
26C
100
AcDbEntity
  8
00_COMPONENTS_1
100
AcDbSpline
 62
7
  6
CONTINUOUS
 70
0
 71
3
 72
17
 73
13
 74
0
 42
0.0000001
 43
0.0000001
 44
0.0000000001
 40
0.0
 40
0.0
 40
0.0
 40
0.0
 40
0.37446313
 40
0.5435780005
 40
0.6920972158
 40
0.7569594219
 40
0.8147697597
 40
0.8650852782
 40
0.9075134058
 40
0.9418705075
 40
0.9682685654
 40
1.0
 40
1.0
 40
1.0
 40
1.0
 10
18.495372571
 20
126.0107030953
 30
0.0
 10
18.8158993076
 20
126.0107030953
 30
0.0
 10
19.2814433602
 20
126.0248713499
 30
0.0
 10
19.8718434719
 20
126.0748141476
 30
0.0
 10
20.1968036442
 20
126.1158388771
 30
0.0
 10
20.425736418
 20
126.1545247789
 30
0.0
 10
20.5708439747
 20
126.1839586218
 30
0.0
 10
20.6961432654
 20
126.2148155559
 30
0.0
 10
20.799982493
 20
126.2462195674
 30
0.0
 10
20.8832407386
 20
126.2791073253
 30
0.0
 10
20.9507872208
 20
126.3143635928
 30
0.0
 10
20.9949904729
 20
126.3547973393
 30
0.0
 10
20.9952338303
 20
126.3819571959
 30
0.0
  0
SPLINE
  5
26D
100
AcDbEntity
  8
00_COMPONENTS_1
100
AcDbSpline
 62
7
  6
CONTINUOUS
 70
0
 71
3
 72
20
 73
16
 74
0
 42
0.0000001
 43
0.0000001
 44
0.0000000001
 40
0.0
 40
0.0
 40
0.0
 40
0.0
 40
0.0108486194
 40
0.0185387132
 40
0.0281498817
 40
0.0535372035
 40
0.0873749091
 40
0.1295921378
 40
0.1798863606
 40
0.2378795938
 40
0.3030574068
 40
0.4525467411
 40
0.6228863641
 40
0.8077839416
 40
1.0
 40
1.0
 40
1.0
 40
1.0
 10
93.544993077
 20
53.5740301102
 30
0.0
 10
93.5302698562
 20
53.5740333491
 30
0.0
 10
93.5063643483
 20
53.5891085421
 30
0.0
 10
93.4829536108
 20
53.6187331808
 30
0.0
 10
93.4531940823
 20
53.6688690731
 30
0.0
 10
93.4183894444
 20
53.7558173884
 30
0.0
 10
93.3788479821
 20
53.8877918397
 30
0.0
 10
93.3398680563
 20
54.0548602865
 30
0.0
 10
93.3017366353
 20
54.2555661545
 30
0.0
 10
93.2651979918
 20
54.4881655667
 30
0.0
 10
93.2170241026
 20
54.8550877804
 30
0.0
 10
93.1658606565
 20
55.3752261629
 30
0.0
 10
93.1205706396
 20
56.0588077557
 30
0.0
 10
93.0921744226
 20
56.8013293465
 30
0.0
 10
93.0857278251
 20
57.3131532761
 30
0.0
 10
93.0857278251
 20
57.5740196078
 30
0.0
  0
SPLINE
  5
26E
100
AcDbEntity
  8
00_COMPONENTS_1
100
AcDbSpline
 62
7
  6
CONTINUOUS
 70
0
 71
3
 72
20
 73
16
 74
0
 42
0.0000001
 43
0.0000001
 44
0.0000000001
 40
0.0
 40
0.0
 40
0.0
 40
0.0
 40
0.0108487616
 40
0.018545509
 40
0.0281662357
 40
0.0535750937
 40
0.0874296743
 40
0.1296417128
 40
0.1799146359
 40
0.2378790133
 40
0.3030280632
 40
0.4525275784
 40
0.6228866316
 40
0.8077841538
 40
1.0
 40
1.0
 40
1.0
 40
1.0
 10
93.5450054098
 20
61.5740519393
 30
0.0
 10
93.5302818679
 20
61.5740643026
 30
0.0
 10
93.5063551832
 20
61.5589827405
 30
0.0
 10
93.4829555272
 20
61.5293223896
 30
0.0
 10
93.4531941255
 20
61.4791273129
 30
0.0
 10
93.4183950027
 20
61.3921066347
 30
0.0
 10
93.3788572283
 20
61.2600833421
 30
0.0
 10
93.3398671754
 20
61.0930294731
 30
0.0
 10
93.3017311142
 20
60.8923989838
 30
0.0
 10
93.2651868957
 20
60.6599067744
 30
0.0
 10
93.2169977414
 20
60.2930477864
 30
0.0
 10
93.1659021323
 20
59.7728961128
 30
0.0
 10
93.1206195964
 20
59.0892689988
 30
0.0
 10
93.0921685926
 20
58.3467165347
 30
0.0
 10
93.0857278251
 20
57.834888006
 30
0.0
 10
93.0857278251
 20
57.5740196078
 30
0.0
  0
SPLINE
  5
26F
100
AcDbEntity
  8
00_COMPONENTS_1
100
AcDbSpline
 62
7
  6
CONTINUOUS
 70
0
 71
3
 72
13
 73
9
 74
0
 42
0.0000001
 43
0.0000001
 44
0.0000000001
 40
0.0
 40
0.0
 40
0.0
 40
0.0
 40
0.0192402002
 40
0.076196228
 40
0.292934893
 40
0.4444812254
 40
0.6173469555
 40
1.0
 40
1.0
 40
1.0
 40
1.0
 10
94.2453675506
 20
61.5740506755
 30
0.0
 10
94.2457458567
 20
61.5997050965
 30
0.0
 10
94.2402240605
 20
61.3749988807
 30
0.0
 10
94.233579078
 20
61.1674367706
 30
0.0
 10
94.21734568
 20
60.4601659763
 30
0.0
 10
94.2051585608
 20
59.7754583767
 30
0.0
 10
94.1922652978
 20
58.8197904917
 30
0.0
 10
94.1883312707
 20
58.0842954618
 30
0.0
 10
94.1883312707
 20
57.5740196078
 30
0.0
  0
SPLINE
  5
270
100
AcDbEntity
  8
00_COMPONENTS_1
100
AcDbSpline
 62
7
  6
CONTINUOUS
 70
0
 71
3
 72
28
 73
24
 74
0
 42
0.0000001
 43
0.0000001
 44
0.0000000001
 40
0.0
 40
0.0
 40
0.0
 40
0.0
 40
0.000301341
 40
0.0012039561
 40
0.0027075998
 40
0.004812026
 40
0.0075169885
 40
0.0108221012
 40
0.0192221424
 40
0.0299837642
 40
0.0430770583
 40
0.0584721175
 40
0.0761388343
 40
0.1181118396
 40
0.1685677507
 40
0.2270462298
 40
0.292966419
 40
0.3656817086
 40
0.4445037548
 40
0.5286577128
 40
0.6173509494
 40
0.8049777808
 40
1.0
 40
1.0
 40
1.0
 40
1.0
 10
94.2453530279
 20
53.5740310256
 30
0.0
 10
94.2450169116
 20
53.5742512574
 30
0.0
 10
94.245753635
 20
53.5762972905
 30
0.0
 10
94.2448921678
 20
53.5794805035
 30
0.0
 10
94.2451517668
 20
53.5857357875
 30
0.0
 10
94.2447223428
 20
53.5940436437
 30
0.0
 10
94.244490835
 20
53.6049016309
 30
0.0
 10
94.243915578
 20
53.624090272
 30
0.0
 10
94.2431027073
 20
53.6540512057
 30
0.0
 10
94.241906047
 20
53.6970414919
 30
0.0
 10
94.2404832162
 20
53.7493642819
 30
0.0
 10
94.2388266874
 20
53.8108895497
 30
0.0
 10
94.2361715733
 20
53.9109141749
 30
0.0
 10
94.2323773705
 20
54.0576785553
 30
0.0
 10
94.2274495619
 20
54.2588547736
 30
0.0
 10
94.2221186542
 20
54.4919641298
 30
0.0
 10
94.2165823934
 20
54.7547592816
 30
0.0
 10
94.2110417632
 20
55.0446881803
 30
0.0
 10
94.2057033165
 20
55.3589396263
 30
0.0
 10
94.2007740805
 20
55.6945070452
 30
0.0
 10
94.1949254035
 20
56.1751673847
 30
0.0
 10
94.1897534786
 20
56.8036885101
 30
0.0
 10
94.1883312707
 20
57.3139556618
 30
0.0
 10
94.1883312707
 20
57.5740196078
 30
0.0
  0
SPLINE
  5
271
100
AcDbEntity
  8
00_COMPONENTS_1
100
AcDbSpline
 62
7
  6
CONTINUOUS
 70
0
 71
3
 72
14
 73
10
 74
0
 42
0.0000001
 43
0.0000001
 44
0.0000000001
 40
0.0
 40
0.0
 40
0.0
 40
0.0
 40
0.3826687467
 40
0.5555243067
 40
0.7070633692
 40
0.8314049812
 40
0.9238023833
 40
0.9807499862
 40
1.0
 40
1.0
 40
1.0
 40
1.0
 10
94.1883312707
 20
122.3740196078
 30
0.0
 10
94.1883312707
 20
121.8637226735
 30
0.0
 10
94.1923920231
 20
121.122910803
 30
0.0
 10
94.2049795098
 20
120.1801082103
 30
0.0
 10
94.2158112108
 20
119.5818050462
 30
0.0
 10
94.2264080217
 20
119.090811702
 30
0.0
 10
94.2359706912
 20
118.7259680385
 30
0.0
 10
94.2413017439
 20
118.5012088492
 30
0.0
 10
94.2449741184
 20
118.3996557338
 30
0.0
 10
94.245367551
 20
118.3739884451
 30
0.0
  0
SPLINE
  5
272
100
AcDbEntity
  8
00_COMPONENTS_1
100
AcDbSpline
 62
7
  6
CONTINUOUS
 70
0
 71
3
 72
20
 73
16
 74
0
 42
0.0000001
 43
0.0000001
 44
0.0000000001
 40
0.0
 40
0.0
 40
0.0
 40
0.0
 40
0.1922287016
 40
0.3771320259
 40
0.5474803163
 40
0.6969729879
 40
0.7621257527
 40
0.8200913187
 40
0.8703646891
 40
0.9125743198
 40
0.9464218517
 40
0.9718274717
 40
0.9814478759
 40
0.9891454232
 40
1.0
 40
1.0
 40
1.0
 40
1.0
 10
93.0857278251
 20
122.3740196078
 30
0.0
 10
93.0857278251
 20
122.11313529
 30
0.0
 10
93.0921751724
 20
121.6012845216
 30
0.0
 10
93.1206218577
 20
120.8587256079
 30
0.0
 10
93.165905234
 20
120.1751184471
 30
0.0
 10
93.2170033396
 20
119.6549892894
 30
0.0
 10
93.2651794337
 20
119.2881334635
 30
0.0
 10
93.3017202982
 20
119.0556347125
 30
0.0
 10
93.3398563495
 20
118.8550064681
 30
0.0
 10
93.3788455926
 20
118.6879659684
 30
0.0
 10
93.4183896007
 20
118.5559628465
 30
0.0
 10
93.453192907
 20
118.4689606859
 30
0.0
 10
93.4829531791
 20
118.4187693846
 30
0.0
 10
93.5063627488
 20
118.3891067126
 30
0.0
 10
93.5302740736
 20
118.3739992064
 30
0.0
 10
93.5450054227
 20
118.3739883788
 30
0.0
  0
SPLINE
  5
273
100
AcDbEntity
  8
00_COMPONENTS_1
100
AcDbSpline
 62
7
  6
CONTINUOUS
 70
0
 71
3
 72
21
 73
17
 74
0
 42
0.0000001
 43
0.0000001
 44
0.0000000001
 40
0.0
 40
0.0
 40
0.0
 40
0.0
 40
0.1943963046
 40
0.3815374949
 40
0.5538242521
 40
0.632343434
 40
0.7048452161
 40
0.7706494695
 40
0.8290796397
 40
0.8794656241
 40
0.9213225963
 40
0.9544261701
 40
0.9785832175
 40
0.9936182808
 40
0.9977591772
 40
1.0
 40
1.0
 40
1.0
 40
1.0
 10
108.4845667583
 20
109.3740196078
 30
0.0
 10
108.4845667583
 20
109.1626365444
 30
0.0
 10
108.4870541562
 20
108.7477550272
 30
0.0
 10
108.4978436603
 20
108.1456197197
 30
0.0
 10
108.5124005071
 20
107.6696097764
 30
0.0
 10
108.5270794167
 20
107.3183540471
 30
0.0
 10
108.5387652549
 20
107.0828699959
 30
0.0
 10
108.5512423522
 20
106.8693011667
 30
0.0
 10
108.5642681748
 20
106.6798728413
 30
0.0
 10
108.5776436227
 20
106.5165516778
 30
0.0
 10
108.5910878793
 20
106.3809725522
 30
0.0
 10
108.60444764
 20
106.273836826
 30
0.0
 10
108.6169239114
 20
106.1965992581
 30
0.0
 10
108.628233578
 20
106.1500224335
 30
0.0
 10
108.6369730775
 20
106.1290930067
 30
0.0
 10
108.6427774001
 20
106.123498591
 30
0.0
 10
108.6452140185
 20
106.1235062734
 30
0.0
  0
SPLINE
  5
274
100
AcDbEntity
  8
00_COMPONENTS_1
100
AcDbSpline
 62
7
  6
CONTINUOUS
 70
0
 71
3
 72
20
 73
16
 74
0
 42
0.0000001
 43
0.0000001
 44
0.0000000001
 40
0.0
 40
0.0
 40
0.0
 40
0.0
 40
0.1922360092
 40
0.3771678064
 40
0.5475061316
 40
0.6969905497
 40
0.7621554772
 40
0.8201454398
 40
0.8704330954
 40
0.9126411341
 40
0.9464787258
 40
0.9718554205
 40
0.9814644958
 40
0.989156997
 40
1.0
 40
1.0
 40
1.0
 40
1.0
 10
93.0857278251
 20
122.3740196078
 30
0.0
 10
93.0857278251
 20
122.6349120132
 30
0.0
 10
93.0922078616
 20
123.1468070794
 30
0.0
 10
93.1205845468
 20
123.8893978104
 30
0.0
 10
93.1658512011
 20
124.5730167139
 30
0.0
 10
93.2170302489
 20
125.0931260274
 30
0.0
 10
93.2652285522
 20
125.4600147451
 30
0.0
 10
93.3017667201
 20
125.692581831
 30
0.0
 10
93.3398853192
 20
125.8932632616
 30
0.0
 10
93.3788658127
 20
126.060308464
 30
0.0
 10
93.4183921799
 20
126.1922590525
 30
0.0
 10
93.4532127404
 20
126.279183021
 30
0.0
 10
93.4829810314
 20
126.3292967816
 30
0.0
 10
93.506370995
 20
126.358924382
 30
0.0
 10
93.5302712886
 20
126.3740118439
 30
0.0
 10
93.5449868306
 20
126.3740085169
 30
0.0
  0
SPLINE
  5
275
100
AcDbEntity
  8
00_COMPONENTS_1
100
AcDbSpline
 62
7
  6
CONTINUOUS
 70
0
 71
3
 72
21
 73
17
 74
0
 42
0.0000001
 43
0.0000001
 44
0.0000000001
 40
0.0
 40
0.0
 40
0.0
 40
0.0
 40
0.1944198903
 40
0.381528085
 40
0.553789345
 40
0.6323392204
 40
0.7048679224
 40
0.7706723945
 40
0.8290871162
 40
0.8794613612
 40
0.9213144999
 40
0.9544169509
 40
0.9785723852
 40
0.9936097234
 40
0.9977547315
 40
1.0
 40
1.0
 40
1.0
 40
1.0
 10
108.4845667583
 20
70.7740196078
 30
0.0
 10
108.4845667583
 20
70.5626108641
 30
0.0
 10
108.4870391793
 20
70.1477394339
 30
0.0
 10
108.4978426815
 20
69.5456420209
 30
0.0
 10
108.5124235084
 20
69.0696631592
 30
0.0
 10
108.5270844961
 20
68.7183717254
 30
0.0
 10
108.5387590738
 20
68.4828240945
 30
0.0
 10
108.5512346898
 20
68.2692423681
 30
0.0
 10
108.5642649864
 20
68.0798437093
 30
0.0
 10
108.5776432655
 20
67.9165565782
 30
0.0
 10
108.5910883454
 20
67.7809958646
 30
0.0
 10
108.6044444401
 20
67.6738666988
 30
0.0
 10
108.616928626
 20
67.5966310215
 30
0.0
 10
108.6282292061
 20
67.5500471486
 30
0.0
 10
108.6369808706
 20
67.5291084796
 30
0.0
 10
108.6427725449
 20
67.5234979928
 30
0.0
 10
108.6452140043
 20
67.5234926679
 30
0.0
  0
SPLINE
  5
276
100
AcDbEntity
  8
00_COMPONENTS_1
100
AcDbSpline
 62
7
  6
CONTINUOUS
 70
0
 71
3
 72
28
 73
24
 74
0
 42
0.0000001
 43
0.0000001
 44
0.0000000001
 40
0.0
 40
0.0
 40
0.0
 40
0.0
 40
0.1950419276
 40
0.3827049956
 40
0.4713999267
 40
0.5555512519
 40
0.6343697965
 40
0.7070831508
 40
0.7729891628
 40
0.8314635527
 40
0.8819122854
 40
0.9238748245
 40
0.941543041
 40
0.9569362218
 40
0.9700230444
 40
0.9807778566
 40
0.9891750077
 40
0.992481444
 40
0.9951888456
 40
0.9972945358
 40
0.9987981324
 40
0.9996998741
 40
1.0
 40
1.0
 40
1.0
 40
1.0
 10
94.1883312707
 20
122.3740196078
 30
0.0
 10
94.1883312707
 20
122.6341098287
 30
0.0
 10
94.1897591218
 20
123.1444515607
 30
0.0
 10
94.1949317152
 20
123.7730495124
 30
0.0
 10
94.2007764246
 20
124.2537569587
 30
0.0
 10
94.205699886
 20
124.5893185345
 30
0.0
 10
94.211040226
 20
124.9035591848
 30
0.0
 10
94.2165862187
 20
125.1934618099
 30
0.0
 10
94.2221294798
 20
125.4562298802
 30
0.0
 10
94.2274595801
 20
125.6893052436
 30
0.0
 10
94.232374095
 20
125.8904529598
 30
0.0
 10
94.2361591841
 20
126.0371956102
 30
0.0
 10
94.2388248337
 20
126.137206204
 30
0.0
 10
94.2404879367
 20
126.1987204649
 30
0.0
 10
94.2419263861
 20
126.2510275828
 30
0.0
 10
94.2431084667
 20
126.2939828363
 30
0.0
 10
94.2439728652
 20
126.3239630573
 30
0.0
 10
94.2444747737
 20
126.3431060735
 30
0.0
 10
94.2448601807
 20
126.3540690556
 30
0.0
 10
94.2448867528
 20
126.3621282473
 30
0.0
 10
94.2455264281
 20
126.3689574387
 30
0.0
 10
94.2447967768
 20
126.3711336974
 30
0.0
 10
94.2456960901
 20
126.374214766
 30
0.0
 10
94.2453533526
 20
126.3740081079
 30
0.0
  0
SPLINE
  5
277
100
AcDbEntity
  8
00_COMPONENTS_1
100
AcDbSpline
 62
7
  6
CONTINUOUS
 70
0
 71
3
 72
21
 73
17
 74
0
 42
0.0000001
 43
0.0000001
 44
0.0000000001
 40
0.0
 40
0.0
 40
0.0
 40
0.0
 40
0.194604078
 40
0.381880535
 40
0.5542970254
 40
0.6329161853
 40
0.7054914439
 40
0.7713080199
 40
0.8297017642
 40
0.8800272713
 40
0.92180696
 40
0.9548085668
 40
0.9788351031
 40
0.9937252295
 40
0.9977987343
 40
1.0
 40
1.0
 40
1.0
 40
1.0
 10
108.7303925633
 20
109.3740196078
 30
0.0
 10
108.7303925633
 20
109.5853513268
 30
0.0
 10
108.7298169247
 20
110.0000576112
 30
0.0
 10
108.7270858283
 20
110.6019953328
 30
0.0
 10
108.7228790871
 20
111.0779676675
 30
0.0
 10
108.7179466179
 20
111.4293617803
 30
0.0
 10
108.7136093612
 20
111.6649867953
 30
0.0
 10
108.7084606366
 20
111.8786292718
 30
0.0
 10
108.702473217
 20
112.0680683384
 30
0.0
 10
108.6955868715
 20
112.2313843315
 30
0.0
 10
108.6878487293
 20
112.3669704224
 30
0.0
 10
108.6791869931
 20
112.4740981068
 30
0.0
 10
108.6702215006
 20
112.5513263565
 30
0.0
 10
108.6609609479
 20
112.5978761504
 30
0.0
 10
108.6532394698
 20
112.6189155458
 30
0.0
 10
108.6476045092
 20
112.6245381411
 30
0.0
 10
108.6452140451
 20
112.6245470313
 30
0.0
  0
SPLINE
  5
278
100
AcDbEntity
  8
00_COMPONENTS_1
100
AcDbSpline
 62
7
  6
CONTINUOUS
 70
0
 71
3
 72
20
 73
16
 74
0
 42
0.0000001
 43
0.0000001
 44
0.0000000001
 40
0.0
 40
0.0
 40
0.0
 40
0.0
 40
0.1927634049
 40
0.3781894009
 40
0.5489860165
 40
0.698749914
 40
0.7639312757
 40
0.821837675
 40
0.8719556932
 40
0.9139151821
 40
0.9474266876
 40
0.9724349485
 40
0.981850479
 40
0.9893574554
 40
1.0
 40
1.0
 40
1.0
 40
1.0
 10
93.8884829346
 20
57.5740196078
 30
0.0
 10
93.8884829346
 20
57.834590581
 30
0.0
 10
93.8849518409
 20
58.3458210856
 30
0.0
 10
93.869003508
 20
59.0877822614
 30
0.0
 10
93.8423779503
 20
59.7712737738
 30
0.0
 10
93.8103380989
 20
60.291804115
 30
0.0
 10
93.7778809976
 20
60.6592259113
 30
0.0
 10
93.7521435193
 20
60.8919682046
 30
0.0
 10
93.7239501896
 20
61.0927720879
 30
0.0
 10
93.693710801
 20
61.2599072518
 30
0.0
 10
93.6613455689
 20
61.3919038281
 30
0.0
 10
93.6314353435
 20
61.47901132
 30
0.0
 10
93.6044650356
 20
61.5292728439
 30
0.0
 10
93.5827533484
 20
61.5590614938
 30
0.0
 10
93.5593916323
 20
61.5740398592
 30
0.0
 10
93.5450054098
 20
61.5740519393
 30
0.0
  0
SPLINE
  5
279
100
AcDbEntity
  8
00_COMPONENTS_1
100
AcDbSpline
 62
7
  6
CONTINUOUS
 70
0
 71
3
 72
21
 73
17
 74
0
 42
0.0000001
 43
0.0000001
 44
0.0000000001
 40
0.0
 40
0.0
 40
0.0
 40
0.0
 40
0.1945795611
 40
0.3819007279
 40
0.5543439144
 40
0.6329211944
 40
0.7054617503
 40
0.7712814353
 40
0.829699676
 40
0.8800425992
 40
0.9218231298
 40
0.9548200189
 40
0.9788461802
 40
0.993734985
 40
0.9978041304
 40
1.0
 40
1.0
 40
1.0
 40
1.0
 10
108.7303925633
 20
70.7740196078
 30
0.0
 10
108.7303925633
 20
70.9853247431
 30
0.0
 10
108.7298109497
 20
71.4000530278
 30
0.0
 10
108.7270872049
 20
72.0020417926
 30
0.0
 10
108.7228876739
 20
72.4780463801
 30
0.0
 10
108.717947784
 20
72.8293862854
 30
0.0
 10
108.7136055066
 20
73.0649314488
 30
0.0
 10
108.7084561089
 20
73.2785662184
 30
0.0
 10
108.7024712713
 20
73.468054333
 30
0.0
 10
108.6955864816
 20
73.6314168359
 30
0.0
 10
108.6878496167
 20
73.7670179601
 30
0.0
 10
108.6791826964
 20
73.8741402038
 30
0.0
 10
108.6702253064
 20
73.9513630456
 30
0.0
 10
108.6609530402
 20
73.997903623
 30
0.0
 10
108.6532499596
 20
74.018935199
 30
0.0
 10
108.6475986757
 20
74.0245399991
 30
0.0
 10
108.6452140654
 20
74.0245328406
 30
0.0
  0
SPLINE
  5
27A
100
AcDbEntity
  8
00_COMPONENTS_1
100
AcDbSpline
 62
7
  6
CONTINUOUS
 70
0
 71
3
 72
20
 73
16
 74
0
 42
0.0000001
 43
0.0000001
 44
0.0000000001
 40
0.0
 40
0.0
 40
0.0
 40
0.0
 40
0.0106368989
 40
0.0181429017
 40
0.0275588183
 40
0.0525707832
 40
0.0860897283
 40
0.1280519774
 40
0.1781698977
 40
0.2360754978
 40
0.3012536916
 40
0.4510239669
 40
0.6218299413
 40
0.8072492787
 40
1.0
 40
1.0
 40
1.0
 40
1.0
 10
93.5450054227
 20
118.3739883788
 30
0.0
 10
93.5593840956
 20
118.3739778105
 30
0.0
 10
93.582762201
 20
118.3889291056
 30
0.0
 10
93.6044627581
 20
118.4187167743
 30
0.0
 10
93.6314346753
 20
118.4689818549
 30
0.0
 10
93.6613432897
 20
118.5561079166
 30
0.0
 10
93.6937016002
 20
118.6881257967
 30
0.0
 10
93.7239433522
 20
118.8552753294
 30
0.0
 10
93.7521378789
 20
119.0560827504
 30
0.0
 10
93.7778762263
 20
119.2888207107
 30
0.0
 10
93.810342417
 20
119.6562470641
 30
0.0
 10
93.842379968
 20
120.1767976475
 30
0.0
 10
93.8690053872
 20
120.8603052075
 30
0.0
 10
93.8849548003
 20
121.6022570689
 30
0.0
 10
93.8884829346
 20
122.1134643155
 30
0.0
 10
93.8884829346
 20
122.3740196078
 30
0.0
  0
SPLINE
  5
27B
100
AcDbEntity
  8
00_COMPONENTS_1
100
AcDbSpline
 62
7
  6
CONTINUOUS
 70
0
 71
3
 72
20
 73
16
 74
0
 42
0.0000001
 43
0.0000001
 44
0.0000000001
 40
0.0
 40
0.0
 40
0.0
 40
0.0
 40
0.0106322374
 40
0.0181319549
 40
0.0275398379
 40
0.052533981
 40
0.0860376421
 40
0.1280049396
 40
0.1781437582
 40
0.2360781014
 40
0.3012857137
 40
0.4510463679
 40
0.6218333489
 40
0.8072501604
 40
1.0
 40
1.0
 40
1.0
 40
1.0
 10
93.5449868306
 20
126.3740085169
 30
0.0
 10
93.5593590991
 20
126.3740052676
 30
0.0
 10
93.5827058977
 20
126.3590547183
 30
0.0
 10
93.6044218122
 20
126.3293116578
 30
0.0
 10
93.6314138656
 20
126.2791063057
 30
0.0
 10
93.6613633626
 20
126.1920533149
 30
0.0
 10
93.6937494084
 20
126.0600803368
 30
0.0
 10
93.7239541977
 20
125.8929099536
 30
0.0
 10
93.7521122876
 20
125.6920247603
 30
0.0
 10
93.777850155
 20
125.4591812233
 30
0.0
 10
93.8103380284
 20
125.0916938064
 30
0.0
 10
93.8424197107
 20
124.5711485296
 30
0.0
 10
93.869020839
 20
123.8876868248
 30
0.0
 10
93.8849547037
 20
123.1457706288
 30
0.0
 10
93.8884829346
 20
122.6345717778
 30
0.0
 10
93.8884829346
 20
122.3740196078
 30
0.0
  0
SPLINE
  5
27C
100
AcDbEntity
  8
00_COMPONENTS_1
100
AcDbSpline
 62
7
  6
CONTINUOUS
 70
0
 71
3
 72
21
 73
17
 74
0
 42
0.0000001
 43
0.0000001
 44
0.0000000001
 40
0.0
 40
0.0
 40
0.0
 40
0.0
 40
0.0021968706
 40
0.0062677831
 40
0.0211602715
 40
0.0451882996
 40
0.0781832645
 40
0.1199562153
 40
0.1702832527
 40
0.2286830448
 40
0.2945021901
 40
0.3670717056
 40
0.4456843342
 40
0.6181186212
 40
0.8054057727
 40
1.0
 40
1.0
 40
1.0
 40
1.0
 10
108.6452140043
 20
67.5234926679
 30
0.0
 10
108.6475997145
 20
67.5234874645
 30
0.0
 10
108.6532495369
 20
67.5290974219
 30
0.0
 10
108.6609533006
 20
67.5501355471
 30
0.0
 10
108.6702237916
 20
67.5966852902
 30
0.0
 10
108.6791813479
 20
67.6739119732
 30
0.0
 10
108.687847852
 20
67.7810263922
 30
0.0
 10
108.6955848752
 20
67.9166002874
 30
0.0
 10
108.7024707101
 20
68.0799177268
 30
0.0
 10
108.7084577244
 20
68.2693684998
 30
0.0
 10
108.7136071057
 20
68.4830148092
 30
0.0
 10
108.7179461924
 20
68.7186300617
 30
0.0
 10
108.7228813669
 20
69.0700313462
 30
0.0
 10
108.7270866847
 20
69.5460291911
 30
0.0
 10
108.7298152557
 20
70.1479892328
 30
0.0
 10
108.7303925633
 20
70.5626978587
 30
0.0
 10
108.7303925633
 20
70.7740196078
 30
0.0
  0
SPLINE
  5
27D
100
AcDbEntity
  8
00_COMPONENTS_1
100
AcDbSpline
 62
7
  6
CONTINUOUS
 70
0
 71
3
 72
21
 73
17
 74
0
 42
0.0000001
 43
0.0000001
 44
0.0000000001
 40
0.0
 40
0.0
 40
0.0
 40
0.0
 40
0.0022012336
 40
0.0062757077
 40
0.0211638041
 40
0.0451708284
 40
0.0781412747
 40
0.1199104222
 40
0.1702667932
 40
0.2286960834
 40
0.2945203473
 40
0.367059144
 40
0.4456348062
 40
0.6180937347
 40
0.8054256811
 40
1.0
 40
1.0
 40
1.0
 40
1.0
 10
108.6452140185
 20
106.1235062734
 30
0.0
 10
108.6476044417
 20
106.1235138102
 30
0.0
 10
108.6532399424
 20
106.129140304
 30
0.0
 10
108.6609562964
 20
106.1501775001
 30
0.0
 10
108.6702164291
 20
106.1967057346
 30
0.0
 10
108.6791830691
 20
106.273875268
 30
0.0
 10
108.687849613
 20
106.3809356746
 30
0.0
 10
108.6955873906
 20
106.5165093376
 30
0.0
 10
108.7024668133
 20
106.6798856885
 30
0.0
 10
108.7084526886
 20
106.8694044167
 30
0.0
 10
108.7136025938
 20
107.0830532641
 30
0.0
 10
108.7179461774
 20
107.3185986053
 30
0.0
 10
108.7228881042
 20
107.6699502806
 30
0.0
 10
108.7270874568
 20
108.145979705
 30
0.0
 10
108.7298105484
 20
108.7479887796
 30
0.0
 10
108.7303925633
 20
109.162721148
 30
0.0
 10
108.7303925633
 20
109.3740196078
 30
0.0
  0
SPLINE
  5
27E
100
AcDbEntity
  8
00_COMPONENTS_1
100
AcDbSpline
 62
7
  6
CONTINUOUS
 70
0
 71
3
 72
20
 73
16
 74
0
 42
0.0000001
 43
0.0000001
 44
0.0000000001
 40
0.0
 40
0.0
 40
0.0
 40
0.0
 40
0.1927689372
 40
0.3782202494
 40
0.5490053946
 40
0.6987601742
 40
0.7639537011
 40
0.8218845073
 40
0.872016541
 40
0.9139739256
 40
0.9474755898
 40
0.9724560931
 40
0.9818611037
 40
0.9893637831
 40
1.0
 40
1.0
 40
1.0
 40
1.0
 10
93.8884829346
 20
57.5740196078
 30
0.0
 10
93.8884829346
 20
57.3134410609
 30
0.0
 10
93.8849314274
 20
56.8021688786
 30
0.0
 10
93.8690215443
 20
56.060180684
 30
0.0
 10
93.8424172455
 20
55.3766812663
 30
0.0
 10
93.8103345397
 20
54.8561643708
 30
0.0
 10
93.7778390778
 20
54.4887086798
 30
0.0
 10
93.7520996712
 20
54.2558980668
 30
0.0
 10
93.7239293697
 20
54.0550412772
 30
0.0
 10
93.6937073156
 20
53.8879002157
 30
0.0
 10
93.661373003
 20
53.7559509243
 30
0.0
 10
93.6314328393
 20
53.6689179684
 30
0.0
 10
93.6044403106
 20
53.6187354039
 30
0.0
 10
93.582736486
 20
53.5889761003
 30
0.0
 10
93.559370756
 20
53.5740269473
 30
0.0
 10
93.544993077
 20
53.5740301102
 30
0.0
  0
SPLINE
  5
27F
100
AcDbEntity
  8
00_COMPONENTS_1
100
AcDbSpline
 62
7
  6
CONTINUOUS
 70
0
 71
3
 72
17
 73
13
 74
0
 42
0.0000001
 43
0.0000001
 44
0.0000000001
 40
0.0
 40
0.0
 40
0.0
 40
0.0
 40
0.3759092229
 40
0.5457291507
 40
0.6945779879
 40
0.7594344802
 40
0.8171151168
 40
0.8672051629
 40
0.9093521101
 40
0.9433490442
 40
0.9692622848
 40
1.0
 40
1.0
 40
1.0
 40
1.0
 10
18.495372571
 20
126.6730145764
 30
0.0
 10
18.1753828912
 20
126.6730145764
 30
0.0
 10
17.7107193988
 20
126.6646072884
 30
0.0
 10
17.1202780917
 20
126.6326540494
 30
0.0
 10
16.7949073618
 20
126.6048193368
 30
0.0
 10
16.5655367953
 20
126.5769589967
 30
0.0
 10
16.4202567093
 20
126.5549837427
 30
0.0
 10
16.2947464787
 20
126.5309704159
 30
0.0
 10
16.1906399405
 20
126.5056761444
 30
0.0
 10
16.1071154415
 20
126.4776474089
 30
0.0
 10
16.0394871725
 20
126.4473707042
 30
0.0
 10
15.9953083285
 20
126.4081204615
 30
0.0
 10
15.9955562315
 20
126.3819564049
 30
0.0
  0
SPLINE
  5
280
100
AcDbEntity
  8
00_COMPONENTS_1
100
AcDbSpline
 62
7
  6
CONTINUOUS
 70
0
 71
3
 72
17
 73
13
 74
0
 42
0.0000001
 43
0.0000001
 44
0.0000000001
 40
0.0
 40
0.0
 40
0.0
 40
0.0
 40
0.0307552583
 40
0.0566693238
 40
0.0906631058
 40
0.1328169745
 40
0.1829164469
 40
0.2406022061
 40
0.3054523695
 40
0.4542720621
 40
0.6240950183
 40
1.0
 40
1.0
 40
1.0
 40
1.0
 10
20.9952338303
 20
126.3819571959
 30
0.0
 10
20.9954684014
 20
126.4081364471
 30
0.0
 10
20.9512214963
 20
126.4473466924
 30
0.0
 10
20.8836020905
 20
126.4776516639
 30
0.0
 10
20.8000698097
 20
126.5056840236
 30
0.0
 10
20.6959515005
 20
126.5309737291
 30
0.0
 10
20.5704214492
 20
126.5549866111
 30
0.0
 10
20.4251337817
 20
126.5769622746
 30
0.0
 10
20.1957888053
 20
126.6048288745
 30
0.0
 10
19.8704449599
 20
126.6326765507
 30
0.0
 10
19.2800245562
 20
126.6645988574
 30
0.0
 10
18.8153603218
 20
126.6730145764
 30
0.0
 10
18.495372571
 20
126.6730145764
 30
0.0
  0
ENDSEC
  0
SECTION
  2
OBJECTS
  0
DICTIONARY
  5
C
100
AcDbDictionary
280
0
281
1
  3
ACAD_GROUP
350
D
  3
ACAD_MLINESTYLE
350
17
  3
ACAD_LAYOUT
350
1A
  3
ACAD_PLOTSETTINGS
350
19
  3
ACAD_PLOTSTYLENAME
350
E
  0
DICTIONARY
  5
D
102
{ACAD_REACTORS
330
C
102
}
100
AcDbDictionary
280
0
281
1
  0
ACDBDICTIONARYWDFLT
  5
E
102
{ACAD_REACTORS
330
C
102
}
100
AcDbDictionary
281
1
  3
Normal
350
F
100
AcDbDictionaryWithDefault
340
F
  0
DICTIONARY
  5
17
102
{ACAD_REACTORS
330
C
102
}
100
AcDbDictionary
280
0
281
1
  3
Standard
350
18
  0
DICTIONARY
  5
19
102
{ACAD_REACTORS
330
C
102
}
100
AcDbDictionary
281
1
  0
DICTIONARY
  5
1A
102
{ACAD_REACTORS
330
C
102
}
100
AcDbDictionary
281
1
  3
Model
350
281
  3
Layout1
350
282
  0
ACDBPLACEHOLDER
  5
F
102
{ACAD_REACTORS
330
E
102
}
  0
MLINESTYLE
  5
18
102
{ACAD_REACTORS
330
17
102
}
100
AcDbMlineStyle
  2
STANDARD
 70
0
  3

 62
256
 51
90.0
 52
90.0
 71
2
 49
0.5
 62
256
  6
BYLAYER
 49
-0.5
 62
256
  6
BYLAYER
  0
LAYOUT
  5
281
102
{ACAD_REACTORS
330
1A
102
}
100
AcDbPlotSettings
  1

  2
none_device
  4

  6

 40
0.0
 41
0.0
 42
0.0
 43
0.0
 44
210.0
 45
297.0
 46
0.0
 47
0.0
 48
0.0
 49
0.0
140
0.0
141
0.0
142
1.0
143
1.0
 70
1024
 72
1
 73
0
 74
0
  7

 75
0
147
1.0
148
0.0
149
0.0
100
AcDbLayout
  1
Model
 70
0
 71
0
 10
0.0
 20
0.0
 11
210.0
 21
297.0
 12
0.0
 22
0.0
 32
0.0
 14
0.0
 24
0.0
 34
0.0
 15
0.0
 25
0.0
 35
0.0
146
0.0
 13
0.0
 23
0.0
 33
0.0
 16
1.0
 26
0.0
 36
0.0
 17
0.0
 27
1.0
 37
0.0
 76
0
330
216
345
0
346
0
  0
LAYOUT
  5
282
102
{ACAD_REACTORS
330
1A
102
}
100
AcDbPlotSettings
  1

  2
none_device
  4

  6

 40
0.0
 41
0.0
 42
0.0
 43
0.0
 44
210.0
 45
297.0
 46
0.0
 47
0.0
 48
0.0
 49
0.0
140
0.0
141
0.0
142
1.0
143
1.0
 70
0
 72
1
 73
0
 74
0
  7

 75
0
147
1.0
148
0.0
149
0.0
100
AcDbLayout
  1
Layout1
 70
0
 71
1
 10
0.0
 20
0.0
 11
210.0
 21
297.0
 12
0.0
 22
0.0
 32
0.0
 14
0.0
 24
0.0
 34
0.0
 15
0.0
 25
0.0
 35
0.0
146
0.0
 13
0.0
 23
0.0
 33
0.0
 16
1.0
 26
0.0
 36
0.0
 17
0.0
 27
1.0
 37
0.0
 76
0
330
217
345
0
346
0
  0
ENDSEC
  0
EOF
