ISO-10303-21;
HEADER;
FILE_DESCRIPTION(('STEP AP242'),'1');
FILE_NAME('tag_xghb520246.stp','2019-12-10T12:54:46',('TraceParts'),('TraceParts S.A.'),'Spatial InterOp 3D',' ',' ');
FILE_SCHEMA(('AP242_MANAGED_MODEL_BASED_3D_ENGINEERING_MIM_LF  {1 0 10303 442 1 1 4}'));
ENDSEC;
DATA;
#1=PRODUCT_DEFINITION_CONTEXT('',#9,'design');
#2=APPLICATION_PROTOCOL_DEFINITION('INTERNATIONAL STANDARD','ap242_managed_model_based_3d_engineering',2014,#9);
#3=PRODUCT_CATEGORY_RELATIONSHIP('NONE','NONE',#10,#11);
#4=SHAPE_DEFINITION_REPRESENTATION(#12,#13);
#5= (GEOMETRIC_REPRESENTATION_CONTEXT(3)GLOBAL_UNCERTAINTY_ASSIGNED_CONTEXT((#16))GLOBAL_UNIT_ASSIGNED_CONTEXT((#18,#19,#20))REPRESENTATION_CONTEXT('NONE','WORKSPACE'));
#9=APPLICATION_CONTEXT('managed model based 3d engineering');
#10=PRODUCT_CATEGORY('part','NONE');
#11=PRODUCT_RELATED_PRODUCT_CATEGORY('detail',' ',(#22));
#12=PRODUCT_DEFINITION_SHAPE('NONE','NONE',#23);
#13=ADVANCED_BREP_SHAPE_REPRESENTATION('tag_xghb520246',(#24,#25),#5);
#16=UNCERTAINTY_MEASURE_WITH_UNIT(LENGTH_MEASURE(1.0E-06),#18,'','');
#18= (CONVERSION_BASED_UNIT('MILLIMETRE',#28)LENGTH_UNIT()NAMED_UNIT(#31));
#19= (NAMED_UNIT(#33)PLANE_ANGLE_UNIT()SI_UNIT($,.RADIAN.));
#20= (NAMED_UNIT(#33)SOLID_ANGLE_UNIT()SI_UNIT($,.STERADIAN.));
#22=PRODUCT('tag_xghb520246','tag_xghb520246','PART-tag_xghb520246-DESC',(#39));
#23=PRODUCT_DEFINITION('','NONE',#40,#1);
#24=MANIFOLD_SOLID_BREP('tag_xghb520246',#41);
#25=AXIS2_PLACEMENT_3D('',#42,#43,#44);
#28=LENGTH_MEASURE_WITH_UNIT(LENGTH_MEASURE(1.0),#45);
#31=DIMENSIONAL_EXPONENTS(1.0,0.0,0.0,0.0,0.0,0.0,0.0);
#33=DIMENSIONAL_EXPONENTS(0.0,0.0,0.0,0.0,0.0,0.0,0.0);
#39=PRODUCT_CONTEXT('',#9,'mechanical');
#40=PRODUCT_DEFINITION_FORMATION_WITH_SPECIFIED_SOURCE(' ','NONE',#22,.NOT_KNOWN.);
#41=CLOSED_SHELL('',(#46,#47,#48,#49,#50,#51,#52,#53,#54,#55,#56,#57,#58,#59,#60,#61));
#42=CARTESIAN_POINT('',(0.0,0.0,0.0));
#43=DIRECTION('',(0.0,0.0,1.0));
#44=DIRECTION('',(1.0,0.0,0.0));
#45= (NAMED_UNIT(#31)LENGTH_UNIT()SI_UNIT(.MILLI.,.METRE.));
#46=ADVANCED_FACE('',(#63),#64,.T.);
#47=ADVANCED_FACE('',(#65),#66,.T.);
#48=ADVANCED_FACE('',(#67),#68,.T.);
#49=ADVANCED_FACE('',(#69),#70,.T.);
#50=ADVANCED_FACE('',(#71,#72),#73,.F.);
#51=ADVANCED_FACE('',(#74),#75,.F.);
#52=ADVANCED_FACE('',(#76),#77,.F.);
#53=ADVANCED_FACE('',(#78,#79),#80,.T.);
#54=ADVANCED_FACE('',(#81),#82,.T.);
#55=ADVANCED_FACE('',(#83),#84,.T.);
#56=ADVANCED_FACE('',(#85),#86,.T.);
#57=ADVANCED_FACE('',(#87),#88,.T.);
#58=ADVANCED_FACE('',(#89),#90,.T.);
#59=ADVANCED_FACE('',(#91),#92,.T.);
#60=ADVANCED_FACE('',(#93),#94,.T.);
#61=ADVANCED_FACE('',(#95),#96,.T.);
#63=FACE_OUTER_BOUND('',#97,.T.);
#64=TOROIDAL_SURFACE('',#98,14.48246877105,0.5);
#65=FACE_OUTER_BOUND('',#99,.T.);
#66=TOROIDAL_SURFACE('',#100,14.48246877105,0.5);
#67=FACE_OUTER_BOUND('',#101,.T.);
#68=TOROIDAL_SURFACE('',#102,14.48246877105,0.5);
#69=FACE_OUTER_BOUND('',#103,.T.);
#70=TOROIDAL_SURFACE('',#104,14.48246877105,0.5);
#71=FACE_OUTER_BOUND('',#105,.T.);
#72=FACE_BOUND('',#106,.T.);
#73=PLANE('',#107);
#74=FACE_OUTER_BOUND('',#108,.T.);
#75=CYLINDRICAL_SURFACE('',#109,2.15);
#76=FACE_OUTER_BOUND('',#110,.T.);
#77=CYLINDRICAL_SURFACE('',#111,2.15);
#78=FACE_OUTER_BOUND('',#112,.T.);
#79=FACE_BOUND('',#113,.T.);
#80=PLANE('',#114);
#81=FACE_OUTER_BOUND('',#115,.T.);
#82=TOROIDAL_SURFACE('',#116,14.48246877105,0.5);
#83=FACE_OUTER_BOUND('',#117,.T.);
#84=TOROIDAL_SURFACE('',#118,14.48246877105,0.5);
#85=FACE_OUTER_BOUND('',#119,.T.);
#86=CONICAL_SURFACE('',#120,14.99119630926,0.0174532925199416);
#87=FACE_OUTER_BOUND('',#121,.T.);
#88=CONICAL_SURFACE('',#122,14.99119630926,0.0174532925199416);
#89=FACE_OUTER_BOUND('',#123,.T.);
#90=CONICAL_SURFACE('',#124,14.99119630926,0.0174532925199416);
#91=FACE_OUTER_BOUND('',#125,.T.);
#92=TOROIDAL_SURFACE('',#126,14.48246877105,0.5);
#93=FACE_OUTER_BOUND('',#127,.T.);
#94=TOROIDAL_SURFACE('',#128,14.48246877105,0.5);
#95=FACE_OUTER_BOUND('',#129,.T.);
#96=CONICAL_SURFACE('',#130,14.99119630926,0.0174532925199416);
#97=EDGE_LOOP('',(#131,#132,#133,#134));
#98=AXIS2_PLACEMENT_3D('',#135,#136,#137);
#99=EDGE_LOOP('',(#138,#139,#140,#141));
#100=AXIS2_PLACEMENT_3D('',#142,#143,#144);
#101=EDGE_LOOP('',(#145,#146,#147,#148));
#102=AXIS2_PLACEMENT_3D('',#149,#150,#151);
#103=EDGE_LOOP('',(#152,#153,#154,#155));
#104=AXIS2_PLACEMENT_3D('',#156,#157,#158);
#105=EDGE_LOOP('',(#159,#160,#161,#162));
#106=EDGE_LOOP('',(#163,#164));
#107=AXIS2_PLACEMENT_3D('',#165,#166,#167);
#108=EDGE_LOOP('',(#168,#169,#170,#171));
#109=AXIS2_PLACEMENT_3D('',#172,#173,#174);
#110=EDGE_LOOP('',(#175,#176,#177,#178));
#111=AXIS2_PLACEMENT_3D('',#179,#180,#181);
#112=EDGE_LOOP('',(#182,#183,#184,#185));
#113=EDGE_LOOP('',(#186,#187));
#114=AXIS2_PLACEMENT_3D('',#188,#189,#190);
#115=EDGE_LOOP('',(#191,#192,#193,#194));
#116=AXIS2_PLACEMENT_3D('',#195,#196,#197);
#117=EDGE_LOOP('',(#198,#199,#200,#201));
#118=AXIS2_PLACEMENT_3D('',#202,#203,#204);
#119=EDGE_LOOP('',(#205,#206,#207,#208,#209));
#120=AXIS2_PLACEMENT_3D('',#210,#211,#212);
#121=EDGE_LOOP('',(#213,#214,#215,#216,#217));
#122=AXIS2_PLACEMENT_3D('',#218,#219,#220);
#123=EDGE_LOOP('',(#221,#222,#223,#224,#225));
#124=AXIS2_PLACEMENT_3D('',#226,#227,#228);
#125=EDGE_LOOP('',(#229,#230,#231,#232));
#126=AXIS2_PLACEMENT_3D('',#233,#234,#235);
#127=EDGE_LOOP('',(#236,#237,#238,#239));
#128=AXIS2_PLACEMENT_3D('',#240,#241,#242);
#129=EDGE_LOOP('',(#243,#244,#245,#246,#247));
#130=AXIS2_PLACEMENT_3D('',#248,#249,#250);
#131=ORIENTED_EDGE('',*,*,#251,.F.);
#132=ORIENTED_EDGE('',*,*,#252,.T.);
#133=ORIENTED_EDGE('',*,*,#253,.F.);
#134=ORIENTED_EDGE('',*,*,#254,.F.);
#135=CARTESIAN_POINT('',(0.0,-1.0,0.0));
#136=DIRECTION('',(0.0,1.0,0.0));
#137=DIRECTION('',(0.999980786930965,0.0,-0.00619885222672178));
#138=ORIENTED_EDGE('',*,*,#255,.F.);
#139=ORIENTED_EDGE('',*,*,#256,.T.);
#140=ORIENTED_EDGE('',*,*,#257,.F.);
#141=ORIENTED_EDGE('',*,*,#258,.F.);
#142=CARTESIAN_POINT('',(0.0,-1.0,0.0));
#143=DIRECTION('',(0.0,1.0,0.0));
#144=DIRECTION('',(-0.999980786930965,0.0,0.00619885222672278));
#145=ORIENTED_EDGE('',*,*,#259,.F.);
#146=ORIENTED_EDGE('',*,*,#260,.F.);
#147=ORIENTED_EDGE('',*,*,#261,.T.);
#148=ORIENTED_EDGE('',*,*,#262,.T.);
#149=CARTESIAN_POINT('',(0.0,1.0,0.0));
#150=DIRECTION('',(0.0,1.0,0.0));
#151=DIRECTION('',(-0.999990479035498,0.0,-0.00436369549287199));
#152=ORIENTED_EDGE('',*,*,#263,.F.);
#153=ORIENTED_EDGE('',*,*,#264,.F.);
#154=ORIENTED_EDGE('',*,*,#265,.T.);
#155=ORIENTED_EDGE('',*,*,#266,.T.);
#156=CARTESIAN_POINT('',(0.0,1.0,0.0));
#157=DIRECTION('',(-0.0,1.0,0.0));
#158=DIRECTION('',(0.999990479035498,0.0,0.00436369549287199));
#159=ORIENTED_EDGE('',*,*,#267,.T.);
#160=ORIENTED_EDGE('',*,*,#254,.T.);
#161=ORIENTED_EDGE('',*,*,#268,.T.);
#162=ORIENTED_EDGE('',*,*,#258,.T.);
#163=ORIENTED_EDGE('',*,*,#269,.F.);
#164=ORIENTED_EDGE('',*,*,#270,.F.);
#165=CARTESIAN_POINT('',(0.0,-1.5,0.0));
#166=DIRECTION('',(0.0,1.0,0.0));
#167=DIRECTION('',(1.0,0.0,-0.0));
#168=ORIENTED_EDGE('',*,*,#271,.T.);
#169=ORIENTED_EDGE('',*,*,#272,.F.);
#170=ORIENTED_EDGE('',*,*,#273,.F.);
#171=ORIENTED_EDGE('',*,*,#270,.T.);
#172=CARTESIAN_POINT('',(0.0,-1.5,0.0));
#173=DIRECTION('',(0.0,-1.0,0.0));
#174=DIRECTION('',(1.0,0.0,0.0));
#175=ORIENTED_EDGE('',*,*,#273,.T.);
#176=ORIENTED_EDGE('',*,*,#274,.F.);
#177=ORIENTED_EDGE('',*,*,#271,.F.);
#178=ORIENTED_EDGE('',*,*,#269,.T.);
#179=CARTESIAN_POINT('',(0.0,-1.5,0.0));
#180=DIRECTION('',(0.0,-1.0,0.0));
#181=DIRECTION('',(1.0,0.0,0.0));
#182=ORIENTED_EDGE('',*,*,#260,.T.);
#183=ORIENTED_EDGE('',*,*,#275,.T.);
#184=ORIENTED_EDGE('',*,*,#264,.T.);
#185=ORIENTED_EDGE('',*,*,#276,.T.);
#186=ORIENTED_EDGE('',*,*,#274,.T.);
#187=ORIENTED_EDGE('',*,*,#272,.T.);
#188=CARTESIAN_POINT('',(0.0,1.5,0.0));
#189=DIRECTION('',(0.0,1.0,0.0));
#190=DIRECTION('',(1.0,0.0,-0.0));
#191=ORIENTED_EDGE('',*,*,#263,.T.);
#192=ORIENTED_EDGE('',*,*,#277,.T.);
#193=ORIENTED_EDGE('',*,*,#261,.F.);
#194=ORIENTED_EDGE('',*,*,#276,.F.);
#195=CARTESIAN_POINT('',(0.0,1.0,0.0));
#196=DIRECTION('',(-0.0,1.0,0.0));
#197=DIRECTION('',(0.999990479035498,0.0,0.00436369549287199));
#198=ORIENTED_EDGE('',*,*,#259,.T.);
#199=ORIENTED_EDGE('',*,*,#278,.T.);
#200=ORIENTED_EDGE('',*,*,#265,.F.);
#201=ORIENTED_EDGE('',*,*,#275,.F.);
#202=CARTESIAN_POINT('',(0.0,1.0,0.0));
#203=DIRECTION('',(0.0,1.0,0.0));
#204=DIRECTION('',(-0.999990479035498,0.0,-0.00436369549287199));
#205=ORIENTED_EDGE('',*,*,#279,.F.);
#206=ORIENTED_EDGE('',*,*,#280,.T.);
#207=ORIENTED_EDGE('',*,*,#281,.T.);
#208=ORIENTED_EDGE('',*,*,#278,.F.);
#209=ORIENTED_EDGE('',*,*,#262,.F.);
#210=CARTESIAN_POINT('',(0.0,0.5043631046397,0.0));
#211=DIRECTION('',(-0.0,-1.0,0.0));
#212=DIRECTION('',(-1.0,0.0,0.0));
#213=ORIENTED_EDGE('',*,*,#281,.F.);
#214=ORIENTED_EDGE('',*,*,#282,.T.);
#215=ORIENTED_EDGE('',*,*,#279,.T.);
#216=ORIENTED_EDGE('',*,*,#277,.F.);
#217=ORIENTED_EDGE('',*,*,#266,.F.);
#218=CARTESIAN_POINT('',(0.0,0.5043631046397,0.0));
#219=DIRECTION('',(-0.0,-1.0,0.0));
#220=DIRECTION('',(-1.0,0.0,0.0));
#221=ORIENTED_EDGE('',*,*,#283,.T.);
#222=ORIENTED_EDGE('',*,*,#282,.F.);
#223=ORIENTED_EDGE('',*,*,#284,.F.);
#224=ORIENTED_EDGE('',*,*,#256,.F.);
#225=ORIENTED_EDGE('',*,*,#285,.F.);
#226=CARTESIAN_POINT('',(0.0,-0.5043631046474,0.0));
#227=DIRECTION('',(-0.0,1.0,-0.0));
#228=DIRECTION('',(1.0,0.0,0.0));
#229=ORIENTED_EDGE('',*,*,#255,.T.);
#230=ORIENTED_EDGE('',*,*,#268,.F.);
#231=ORIENTED_EDGE('',*,*,#253,.T.);
#232=ORIENTED_EDGE('',*,*,#285,.T.);
#233=CARTESIAN_POINT('',(0.0,-1.0,0.0));
#234=DIRECTION('',(0.0,1.0,0.0));
#235=DIRECTION('',(-0.999980786930965,0.0,0.00619885222672278));
#236=ORIENTED_EDGE('',*,*,#251,.T.);
#237=ORIENTED_EDGE('',*,*,#267,.F.);
#238=ORIENTED_EDGE('',*,*,#257,.T.);
#239=ORIENTED_EDGE('',*,*,#286,.T.);
#240=CARTESIAN_POINT('',(0.0,-1.0,0.0));
#241=DIRECTION('',(0.0,1.0,0.0));
#242=DIRECTION('',(0.999980786930965,0.0,-0.00619885222672178));
#243=ORIENTED_EDGE('',*,*,#284,.T.);
#244=ORIENTED_EDGE('',*,*,#280,.F.);
#245=ORIENTED_EDGE('',*,*,#283,.F.);
#246=ORIENTED_EDGE('',*,*,#252,.F.);
#247=ORIENTED_EDGE('',*,*,#286,.F.);
#248=CARTESIAN_POINT('',(0.0,-0.5043631046474,0.0));
#249=DIRECTION('',(-0.0,1.0,-0.0));
#250=DIRECTION('',(1.0,0.0,0.0));
#251=EDGE_CURVE('',#287,#288,#289,.T.);
#252=EDGE_CURVE('',#287,#290,#291,.T.);
#253=EDGE_CURVE('',#292,#290,#293,.T.);
#254=EDGE_CURVE('',#288,#292,#294,.T.);
#255=EDGE_CURVE('',#295,#296,#297,.T.);
#256=EDGE_CURVE('',#295,#298,#299,.T.);
#257=EDGE_CURVE('',#300,#298,#301,.T.);
#258=EDGE_CURVE('',#296,#300,#302,.T.);
#259=EDGE_CURVE('',#303,#304,#305,.T.);
#260=EDGE_CURVE('',#306,#303,#307,.T.);
#261=EDGE_CURVE('',#306,#308,#309,.T.);
#262=EDGE_CURVE('',#308,#304,#310,.T.);
#263=EDGE_CURVE('',#311,#312,#313,.T.);
#264=EDGE_CURVE('',#314,#311,#315,.T.);
#265=EDGE_CURVE('',#314,#316,#317,.T.);
#266=EDGE_CURVE('',#316,#312,#318,.T.);
#267=EDGE_CURVE('',#300,#288,#319,.T.);
#268=EDGE_CURVE('',#292,#296,#320,.T.);
#269=EDGE_CURVE('',#321,#322,#323,.T.);
#270=EDGE_CURVE('',#322,#321,#324,.T.);
#271=EDGE_CURVE('',#321,#325,#326,.T.);
#272=EDGE_CURVE('',#327,#325,#328,.T.);
#273=EDGE_CURVE('',#322,#327,#329,.T.);
#274=EDGE_CURVE('',#325,#327,#330,.T.);
#275=EDGE_CURVE('',#303,#314,#331,.T.);
#276=EDGE_CURVE('',#311,#306,#332,.T.);
#277=EDGE_CURVE('',#312,#308,#333,.T.);
#278=EDGE_CURVE('',#304,#316,#334,.T.);
#279=EDGE_CURVE('',#335,#308,#336,.T.);
#280=EDGE_CURVE('',#335,#337,#338,.T.);
#281=EDGE_CURVE('',#337,#316,#339,.T.);
#282=EDGE_CURVE('',#337,#335,#340,.T.);
#283=EDGE_CURVE('',#290,#335,#341,.T.);
#284=EDGE_CURVE('',#298,#337,#342,.T.);
#285=EDGE_CURVE('',#290,#295,#343,.T.);
#286=EDGE_CURVE('',#298,#287,#344,.T.);
#287=VERTEX_POINT('',#345);
#288=VERTEX_POINT('',#346);
#289=CIRCLE('',#347,0.5);
#290=VERTEX_POINT('',#348);
#291=CIRCLE('',#349,14.98239261862);
#292=VERTEX_POINT('',#350);
#293=CIRCLE('',#351,0.5);
#294=CIRCLE('',#352,14.48246874638);
#295=VERTEX_POINT('',#353);
#296=VERTEX_POINT('',#354);
#297=CIRCLE('',#355,0.5);
#298=VERTEX_POINT('',#356);
#299=CIRCLE('',#357,14.98239261862);
#300=VERTEX_POINT('',#358);
#301=CIRCLE('',#359,0.5);
#302=CIRCLE('',#360,14.48246874638);
#303=VERTEX_POINT('',#361);
#304=VERTEX_POINT('',#362);
#305=CIRCLE('',#363,0.5);
#306=VERTEX_POINT('',#364);
#307=CIRCLE('',#365,14.48246874639);
#308=VERTEX_POINT('',#366);
#309=CIRCLE('',#367,0.5);
#310=CIRCLE('',#368,14.98239261862);
#311=VERTEX_POINT('',#369);
#312=VERTEX_POINT('',#370);
#313=CIRCLE('',#371,0.5);
#314=VERTEX_POINT('',#372);
#315=CIRCLE('',#373,14.48246874639);
#316=VERTEX_POINT('',#374);
#317=CIRCLE('',#375,0.5);
#318=CIRCLE('',#376,14.98239261862);
#319=CIRCLE('',#377,14.48246874638);
#320=CIRCLE('',#378,14.48246874638);
#321=VERTEX_POINT('',#379);
#322=VERTEX_POINT('',#380);
#323=CIRCLE('',#381,2.15);
#324=CIRCLE('',#382,2.15);
#325=VERTEX_POINT('',#383);
#326=LINE('',#384,#385);
#327=VERTEX_POINT('',#386);
#328=CIRCLE('',#387,2.15);
#329=LINE('',#388,#389);
#330=CIRCLE('',#390,2.15);
#331=CIRCLE('',#391,14.48246874639);
#332=CIRCLE('',#392,14.48246874639);
#333=CIRCLE('',#393,14.98239261862);
#334=CIRCLE('',#394,14.98239261862);
#335=VERTEX_POINT('',#395);
#336=LINE('',#396,#397);
#337=VERTEX_POINT('',#398);
#338=CIRCLE('',#399,15.0);
#339=LINE('',#400,#401);
#340=CIRCLE('',#402,15.0);
#341=LINE('',#403,#404);
#342=LINE('',#405,#406);
#343=CIRCLE('',#407,14.98239261862);
#344=CIRCLE('',#408,14.98239261862);
#345=CARTESIAN_POINT('',(-14.9821047608763,-1.008726203684,0.0928736378455492));
#346=CARTESIAN_POINT('',(-14.4821904937082,-1.5,0.089774683636923));
#347=AXIS2_PLACEMENT_3D('',#409,#410,#411);
#348=CARTESIAN_POINT('',(-14.98239261862,-1.008726203684,0.0));
#349=AXIS2_PLACEMENT_3D('',#412,#413,#414);
#350=CARTESIAN_POINT('',(-14.48246874638,-1.5,0.0));
#351=AXIS2_PLACEMENT_3D('',#415,#416,#417);
#352=AXIS2_PLACEMENT_3D('',#418,#419,#420);
#353=CARTESIAN_POINT('',(14.9821047608763,-1.008726203684,-0.092873637845565));
#354=CARTESIAN_POINT('',(14.4821904937082,-1.5,-0.0897746836369383));
#355=AXIS2_PLACEMENT_3D('',#421,#422,#423);
#356=CARTESIAN_POINT('',(14.98239261862,-1.008726203684,0.0));
#357=AXIS2_PLACEMENT_3D('',#424,#425,#426);
#358=CARTESIAN_POINT('',(14.48246874638,-1.5,0.0));
#359=AXIS2_PLACEMENT_3D('',#427,#428,#429);
#360=AXIS2_PLACEMENT_3D('',#430,#431,#432);
#361=CARTESIAN_POINT('',(14.4823308593192,1.5,0.0631970835942842));
#362=CARTESIAN_POINT('',(14.9822499717917,1.008726203684,0.0653785991423134));
#363=AXIS2_PLACEMENT_3D('',#433,#434,#435);
#364=CARTESIAN_POINT('',(-14.48246874639,1.5,0.0));
#365=AXIS2_PLACEMENT_3D('',#436,#437,#438);
#366=CARTESIAN_POINT('',(-14.98239261862,1.008726203684,0.0));
#367=AXIS2_PLACEMENT_3D('',#439,#440,#441);
#368=AXIS2_PLACEMENT_3D('',#442,#443,#444);
#369=CARTESIAN_POINT('',(-14.4823308593192,1.5,-0.0631970835942842));
#370=CARTESIAN_POINT('',(-14.9822499717917,1.008726203684,-0.0653785991423134));
#371=AXIS2_PLACEMENT_3D('',#445,#446,#447);
#372=CARTESIAN_POINT('',(14.48246874639,1.5,0.0));
#373=AXIS2_PLACEMENT_3D('',#448,#449,#450);
#374=CARTESIAN_POINT('',(14.98239261862,1.008726203684,0.0));
#375=AXIS2_PLACEMENT_3D('',#451,#452,#453);
#376=AXIS2_PLACEMENT_3D('',#454,#455,#456);
#377=AXIS2_PLACEMENT_3D('',#457,#458,#459);
#378=AXIS2_PLACEMENT_3D('',#460,#461,#462);
#379=CARTESIAN_POINT('',(-2.15,-1.5,0.0));
#380=CARTESIAN_POINT('',(2.15,-1.5,0.0));
#381=AXIS2_PLACEMENT_3D('',#463,#464,#465);
#382=AXIS2_PLACEMENT_3D('',#466,#467,#468);
#383=CARTESIAN_POINT('',(-2.15,1.5,0.0));
#384=CARTESIAN_POINT('',(-2.15,-1.5,0.0));
#385=VECTOR('',#469,3.0);
#386=CARTESIAN_POINT('',(2.15,1.5,0.0));
#387=AXIS2_PLACEMENT_3D('',#470,#471,#472);
#388=CARTESIAN_POINT('',(2.15,-1.5,0.0));
#389=VECTOR('',#473,3.0);
#390=AXIS2_PLACEMENT_3D('',#474,#475,#476);
#391=AXIS2_PLACEMENT_3D('',#477,#478,#479);
#392=AXIS2_PLACEMENT_3D('',#480,#481,#482);
#393=AXIS2_PLACEMENT_3D('',#483,#484,#485);
#394=AXIS2_PLACEMENT_3D('',#486,#487,#488);
#395=CARTESIAN_POINT('',(-15.0,2.273736754432E-13,0.0));
#396=CARTESIAN_POINT('',(-15.0,0.0,0.0));
#397=VECTOR('',#489,1.008879860508);
#398=CARTESIAN_POINT('',(15.0,2.273736754432E-13,0.0));
#399=AXIS2_PLACEMENT_3D('',#490,#491,#492);
#400=CARTESIAN_POINT('',(15.0,0.0,0.0));
#401=VECTOR('',#493,1.008879860508);
#402=AXIS2_PLACEMENT_3D('',#494,#495,#496);
#403=CARTESIAN_POINT('',(-14.98239261863,-1.008726203219,1.287635190997E-12));
#404=VECTOR('',#497,1.008879860508);
#405=CARTESIAN_POINT('',(14.98239261863,-1.008726203219,-1.285418689413E-12));
#406=VECTOR('',#498,1.008879860508);
#407=AXIS2_PLACEMENT_3D('',#499,#500,#501);
#408=AXIS2_PLACEMENT_3D('',#502,#503,#504);
#409=CARTESIAN_POINT('',(-14.4821905183777,-1.0,0.0897746837898502));
#410=DIRECTION('',(0.00619885222672166,0.0,0.999980786930965));
#411=DIRECTION('',(-0.999980786930965,0.0,0.00619885222672166));
#412=CARTESIAN_POINT('',(0.0,-1.008726203684,0.0));
#413=DIRECTION('',(0.0,-1.0,0.0));
#414=DIRECTION('',(1.0,0.0,0.0));
#415=CARTESIAN_POINT('',(-14.48246877105,-1.0,0.0));
#416=DIRECTION('',(0.0,0.0,-1.0));
#417=DIRECTION('',(0.0,-1.0,0.0));
#418=CARTESIAN_POINT('',(0.0,-1.5,0.0));
#419=DIRECTION('',(0.0,-1.0,0.0));
#420=DIRECTION('',(1.0,0.0,0.0));
#421=CARTESIAN_POINT('',(14.4821905183777,-1.0,-0.0897746837898647));
#422=DIRECTION('',(-0.00619885222672266,0.0,-0.999980786930965));
#423=DIRECTION('',(0.999980786930965,0.0,-0.00619885222672266));
#424=CARTESIAN_POINT('',(0.0,-1.008726203684,0.0));
#425=DIRECTION('',(0.0,-1.0,0.0));
#426=DIRECTION('',(-1.0,0.0,0.0));
#427=CARTESIAN_POINT('',(14.48246877105,-1.0,0.0));
#428=DIRECTION('',(0.0,0.0,1.0));
#429=DIRECTION('',(0.0,-1.0,0.0));
#430=CARTESIAN_POINT('',(0.0,-1.5,0.0));
#431=DIRECTION('',(0.0,-1.0,0.0));
#432=DIRECTION('',(-1.0,0.0,0.0));
#433=CARTESIAN_POINT('',(14.4823308839789,1.0,0.063197083701892));
#434=DIRECTION('',(0.00436369549287212,0.0,-0.999990479035498));
#435=DIRECTION('',(0.999990479035498,0.0,0.00436369549287212));
#436=CARTESIAN_POINT('',(0.0,1.5,0.0));
#437=DIRECTION('',(0.0,1.0,0.0));
#438=DIRECTION('',(-1.0,0.0,0.0));
#439=CARTESIAN_POINT('',(-14.48246877105,1.0,0.0));
#440=DIRECTION('',(0.0,-0.0,1.0));
#441=DIRECTION('',(0.0,1.0,0.0));
#442=CARTESIAN_POINT('',(0.0,1.008726203684,0.0));
#443=DIRECTION('',(0.0,1.0,0.0));
#444=DIRECTION('',(-1.0,0.0,0.0));
#445=CARTESIAN_POINT('',(-14.4823308839789,1.0,-0.063197083701892));
#446=DIRECTION('',(-0.00436369549287212,-0.0,0.999990479035498));
#447=DIRECTION('',(-0.999990479035498,0.0,-0.00436369549287212));
#448=CARTESIAN_POINT('',(0.0,1.5,0.0));
#449=DIRECTION('',(-0.0,1.0,0.0));
#450=DIRECTION('',(1.0,0.0,0.0));
#451=CARTESIAN_POINT('',(14.48246877105,1.0,0.0));
#452=DIRECTION('',(0.0,0.0,-1.0));
#453=DIRECTION('',(0.0,1.0,0.0));
#454=CARTESIAN_POINT('',(0.0,1.008726203684,0.0));
#455=DIRECTION('',(-0.0,1.0,0.0));
#456=DIRECTION('',(1.0,0.0,0.0));
#457=CARTESIAN_POINT('',(0.0,-1.5,0.0));
#458=DIRECTION('',(0.0,-1.0,0.0));
#459=DIRECTION('',(1.0,0.0,0.0));
#460=CARTESIAN_POINT('',(0.0,-1.5,0.0));
#461=DIRECTION('',(0.0,-1.0,0.0));
#462=DIRECTION('',(-1.0,0.0,0.0));
#463=CARTESIAN_POINT('',(0.0,-1.5,0.0));
#464=DIRECTION('',(0.0,-1.0,0.0));
#465=DIRECTION('',(-1.0,0.0,0.0));
#466=CARTESIAN_POINT('',(0.0,-1.5,0.0));
#467=DIRECTION('',(0.0,-1.0,0.0));
#468=DIRECTION('',(1.0,0.0,0.0));
#469=DIRECTION('',(0.0,1.0,0.0));
#470=CARTESIAN_POINT('',(0.0,1.5,0.0));
#471=DIRECTION('',(0.0,-1.0,0.0));
#472=DIRECTION('',(1.0,0.0,0.0));
#473=DIRECTION('',(0.0,1.0,0.0));
#474=CARTESIAN_POINT('',(0.0,1.5,0.0));
#475=DIRECTION('',(0.0,-1.0,0.0));
#476=DIRECTION('',(-1.0,0.0,0.0));
#477=CARTESIAN_POINT('',(0.0,1.5,0.0));
#478=DIRECTION('',(0.0,1.0,0.0));
#479=DIRECTION('',(-1.0,0.0,0.0));
#480=CARTESIAN_POINT('',(0.0,1.5,0.0));
#481=DIRECTION('',(-0.0,1.0,0.0));
#482=DIRECTION('',(1.0,0.0,0.0));
#483=CARTESIAN_POINT('',(0.0,1.008726203684,0.0));
#484=DIRECTION('',(-0.0,1.0,0.0));
#485=DIRECTION('',(1.0,0.0,0.0));
#486=CARTESIAN_POINT('',(0.0,1.008726203684,0.0));
#487=DIRECTION('',(0.0,1.0,0.0));
#488=DIRECTION('',(-1.0,0.0,0.0));
#489=DIRECTION('',(0.0174524064372798,0.999847695156391,-4.02758092639496E-13));
#490=CARTESIAN_POINT('',(0.0,2.273736754432E-13,0.0));
#491=DIRECTION('',(0.0,1.0,0.0));
#492=DIRECTION('',(-1.0,0.0,0.0));
#493=DIRECTION('',(-0.0174524064372798,0.999847695156391,3.98799616754697E-13));
#494=CARTESIAN_POINT('',(0.0,2.273736754432E-13,0.0));
#495=DIRECTION('',(-0.0,1.0,0.0));
#496=DIRECTION('',(1.0,0.0,0.0));
#497=DIRECTION('',(-0.0174524064372798,0.999847695156391,-1.27812261070099E-12));
#498=DIRECTION('',(0.0174524064372798,0.999847695156391,1.27683601897099E-12));
#499=CARTESIAN_POINT('',(0.0,-1.008726203684,0.0));
#500=DIRECTION('',(0.0,-1.0,0.0));
#501=DIRECTION('',(-1.0,0.0,0.0));
#502=CARTESIAN_POINT('',(0.0,-1.008726203684,0.0));
#503=DIRECTION('',(0.0,-1.0,0.0));
#504=DIRECTION('',(1.0,0.0,0.0));
ENDSEC;
END-ISO-10303-21;
