999
DXF file: C:\Users\sesa63760\OneDrive - Schneider Electric\Documents\7-Dev\_Creo\CAD\MCADPP0000259_3D-CAD\drw0001_5.dxf
999
Pro/ENGINEER 2019471 by Parametric Technology Corporation
  0
SECTION
  2
HEADER
  9
$ACADVER
  1
AC1024
  9
$DWGCODEPAGE
  3
ANSI_1252
  9
$EXTMAX
 10
141.713298563
 20
200.4230936819
 30
0.0
  9
$EXTMIN
 10
0.0
 20
0.0
 30
0.0
  9
$LIMMIN
 10
0.0
 20
0.0
  9
$LIMMAX
 10
141.713298563
 20
200.4230936819
  9
$VIEWCTR
 10
70.8566492815
 20
100.211546841
  9
$VIEWSIZE
 40
200.4230936819
  9
$CLAYER
  8
0
  9
$LTSCALE
 40
13.064616477
  9
$CELTYPE
  6
BYLAYER
  9
$DIMSCALE
 40
1.0
  9
$DIMASZ
 40
1.6870630781
  9
$DIMEXO
 40
1.0
  9
$DIMDLI
 40
9.0264622932
  9
$DIMEXE
 40
1.0
  9
$DIMCEN
 40
2.1378463326
  9
$DIMLFAC
 40
1.0
  9
$DIMBLK
  1
_FILLED
  9
$DIMALT
 70
0
  9
$DIMALTF
 40
0.0393700787
  9
$DIMTXT
 40
2.3618883094
  9
$DIMTOL
 70
1
  9
$DIMLIM
 70
0
  9
$DIMTFAC
 40
1.0
  9
$DIMTP
 40
0.01
  9
$DIMTM
 40
0.01
  9
$DIMGAP
 40
0.625
  9
$DIMDSEP
 70
46
  9
$AUNITS
 70
0
  9
$PDMODE
 70
3
  9
$PDSIZE
 40
0.3125
  9
$HANDSEED
  5
2BB
  9
$TILEMODE
 70
1
  9
$MEASUREMENT
 70
1
  9
$INSUNITS
 70
4
  0
ENDSEC
  0
SECTION
  2
CLASSES
  0
CLASS
  1
ACDBDICTIONARYWDFLT
  2
AcDbDictionaryWithDefault
  3
AutoCAD 2000
 90
0
 91
1
280
0
281
0
  0
CLASS
  1
ACDBPLACEHOLDER
  2
AcDbPlaceHolder
  3
AutoCAD 2000
 90
0
 91
1
280
0
281
0
  0
CLASS
  1
LAYOUT
  2
AcDbLayout
  3
AutoCAD 2000
 90
0
 91
0
280
0
281
0
  0
ENDSEC
  0
SECTION
  2
TABLES
  0
TABLE
  2
VPORT
  5
8
100
AcDbSymbolTable
 70
2
  0
VPORT
  5
1F4
100
AcDbSymbolTableRecord
100
AcDbViewportTableRecord
  2
*ACTIVE
 70
0
 10
0.0
 20
0.0
 11
1.0
 21
1.0
 12
70.8566492815
 22
100.211546841
 13
0.0
 23
0.0
 14
1.0
 24
1.0
 15
0.0
 25
0.0
 16
0.0
 26
0.0
 36
1.0
 17
0.0
 27
0.0
 37
0.0
 40
200.4230936819
 41
0.7070707071
 42
50.0
 43
0.0
 44
0.0
 50
0.0
 51
0.0
 71
0
 72
100
 73
1
 74
1
 75
0
 76
0
 77
0
 78
0
  0
ENDTAB
  0
TABLE
  2
LTYPE
  5
5
100
AcDbSymbolTable
 70
6
  0
LTYPE
  5
14
100
AcDbSymbolTableRecord
100
AcDbLinetypeTableRecord
  2
BYBLOCK
 70
0
  3

 72
65
 73
0
 40
0.0
  0
LTYPE
  5
15
100
AcDbSymbolTableRecord
100
AcDbLinetypeTableRecord
  2
BYLAYER
 70
0
  3

 72
65
 73
0
 40
0.0
  0
LTYPE
  5
16
100
AcDbSymbolTableRecord
100
AcDbLinetypeTableRecord
  2
CONTINUOUS
 70
64
  3
Solid line
 72
65
 73
0
 40
0.0
  0
LTYPE
  5
1F5
100
AcDbSymbolTableRecord
100
AcDbLinetypeTableRecord
  2
CENTER
 70
64
  3
____ _ ____ _ ____ _ ____ _ ____ _ ____ _ ____
 72
65
 73
4
 40
0.6
 49
0.375
 74
0
 49
-0.075
 74
0
 49
0.075
 74
0
 49
-0.075
 74
0
  0
LTYPE
  5
1F6
100
AcDbSymbolTableRecord
100
AcDbLinetypeTableRecord
  2
HIDDEN
 70
64
  3
- - - - - - - - - - - - - - - - - - - -
 72
65
 73
2
 40
0.2
 49
0.1
 74
0
 49
-0.1
 74
0
  0
LTYPE
  5
1F7
100
AcDbSymbolTableRecord
100
AcDbLinetypeTableRecord
  2
PHANTOM
 70
64
  3
_____ _ _ _____ _ _ _____ _ _ _____
 72
65
 73
6
 40
0.8
 49
0.45
 74
0
 49
-0.05
 74
0
 49
0.1
 74
0
 49
-0.05
 74
0
 49
0.1
 74
0
 49
-0.05
 74
0
  0
LTYPE
  5
1F8
100
AcDbSymbolTableRecord
100
AcDbLinetypeTableRecord
  2
DOT
 70
64
  3
. . . . . . . . . . . . . . . . . . . .
 72
65
 73
2
 40
0.2
 49
0.1
 74
0
 49
-0.1
 74
0
  0
LTYPE
  5
1F9
100
AcDbSymbolTableRecord
100
AcDbLinetypeTableRecord
  2
DASHED
 70
64
  3
- - - - - - - - - - - - - - - - - - - -
 72
65
 73
2
 40
0.2
 49
0.1
 74
0
 49
-0.1
 74
0
  0
ENDTAB
  0
TABLE
  2
LAYER
  5
2
100
AcDbSymbolTable
 70
36
  0
LAYER
  5
10
100
AcDbSymbolTableRecord
100
AcDbLayerTableRecord
  2
0
 70
0
 62
7
  6
CONTINUOUS
370
-3
390
F
  0
LAYER
  5
1FA
100
AcDbSymbolTableRecord
100
AcDbLayerTableRecord
  2
DEFAULT_1
 70
0
 62
7
  6
CENTER
370
-3
390
F
  0
LAYER
  5
1FB
100
AcDbSymbolTableRecord
100
AcDbLayerTableRecord
  2
DEFAULT_2
 70
0
 62
8
  6
HIDDEN
370
-3
390
F
  0
LAYER
  5
1FC
100
AcDbSymbolTableRecord
100
AcDbLayerTableRecord
  2
DEFAULT_3
 70
0
 62
7
  6
PHANTOM
370
-3
390
F
  0
LAYER
  5
1FD
100
AcDbSymbolTableRecord
100
AcDbLayerTableRecord
  2
00_COMPONENTS
 70
0
 62
7
  6
CONTINUOUS
370
-3
390
F
  0
LAYER
  5
1FE
100
AcDbSymbolTableRecord
100
AcDbLayerTableRecord
  2
01_1_DEFAULT_DATUMS
 70
0
 62
7
  6
CONTINUOUS
370
-3
390
F
  0
LAYER
  5
1FF
100
AcDbSymbolTableRecord
100
AcDbLayerTableRecord
  2
01_PLANES
 70
0
 62
7
  6
CONTINUOUS
370
-3
390
F
  0
LAYER
  5
200
100
AcDbSymbolTableRecord
100
AcDbLayerTableRecord
  2
02_COORD_SYS
 70
0
 62
7
  6
CONTINUOUS
370
-3
390
F
  0
LAYER
  5
201
100
AcDbSymbolTableRecord
100
AcDbLayerTableRecord
  2
03_AXES
 70
0
 62
7
  6
CONTINUOUS
370
-3
390
F
  0
LAYER
  5
202
100
AcDbSymbolTableRecord
100
AcDbLayerTableRecord
  2
04_POINTS
 70
0
 62
7
  6
CONTINUOUS
370
-3
390
F
  0
LAYER
  5
203
100
AcDbSymbolTableRecord
100
AcDbLayerTableRecord
  2
05_CURVES
 70
0
 62
7
  6
CONTINUOUS
370
-3
390
F
  0
LAYER
  5
204
100
AcDbSymbolTableRecord
100
AcDbLayerTableRecord
  2
06_SURFS
 70
0
 62
7
  6
CONTINUOUS
370
-3
390
F
  0
LAYER
  5
205
100
AcDbSymbolTableRecord
100
AcDbLayerTableRecord
  2
07_COSMETICS
 70
0
 62
7
  6
CONTINUOUS
370
-3
390
F
  0
LAYER
  5
206
100
AcDbSymbolTableRecord
100
AcDbLayerTableRecord
  2
10_NOTES
 70
0
 62
7
  6
CONTINUOUS
370
-3
390
F
  0
LAYER
  5
207
100
AcDbSymbolTableRecord
100
AcDbLayerTableRecord
  2
11_NOTES_PUB
 70
0
 62
7
  6
CONTINUOUS
370
-3
390
F
  0
LAYER
  5
208
100
AcDbSymbolTableRecord
100
AcDbLayerTableRecord
  2
13_REF_GTOL
 70
0
 62
7
  6
CONTINUOUS
370
-3
390
F
  0
LAYER
  5
209
100
AcDbSymbolTableRecord
100
AcDbLayerTableRecord
  2
16_MISC
 70
0
 62
7
  6
CONTINUOUS
370
-3
390
F
  0
LAYER
  5
20A
100
AcDbSymbolTableRecord
100
AcDbLayerTableRecord
  2
17_NO_PRINT
 70
0
 62
7
  6
CONTINUOUS
370
-3
390
F
  0
LAYER
  5
20B
100
AcDbSymbolTableRecord
100
AcDbLayerTableRecord
  2
18_DATUM_CAMS_JOINTS
 70
0
 62
7
  6
CONTINUOUS
370
-3
390
F
  0
LAYER
  5
20C
100
AcDbSymbolTableRecord
100
AcDbLayerTableRecord
  2
19_DATUM_FUNCTIONAL
 70
0
 62
7
  6
CONTINUOUS
370
-3
390
F
  0
LAYER
  5
20D
100
AcDbSymbolTableRecord
100
AcDbLayerTableRecord
  2
20_DATUM_KINEMATIC_SCHEME
 70
0
 62
7
  6
CONTINUOUS
370
-3
390
F
  0
LAYER
  5
20E
100
AcDbSymbolTableRecord
100
AcDbLayerTableRecord
  2
INTFCLR_3
 70
0
 62
7
  6
CONTINUOUS
370
-3
390
F
  0
LAYER
  5
20F
100
AcDbSymbolTableRecord
100
AcDbLayerTableRecord
  2
black
 70
0
 62
7
  6
CONTINUOUS
370
-3
390
F
  0
ENDTAB
  0
TABLE
  2
STYLE
  5
3
100
AcDbSymbolTable
 70
1
  0
STYLE
  5
11
100
AcDbSymbolTableRecord
100
AcDbTextStyleTableRecord
  2
STANDARD
 70
0
 40
0.0
 41
0.8
 50
0.0
 71
0
 42
0.2
  3
txt
  4

  0
STYLE
  5
210
100
AcDbSymbolTableRecord
100
AcDbTextStyleTableRecord
  2
TEXTSTYLE_1
 70
0
 40
0.0
 41
0.8
 50
0.0
 71
0
 42
0.2
  3
gdt
  4

  0
ENDTAB
  0
TABLE
  2
VIEW
  5
6
100
AcDbSymbolTable
 70
0
  0
ENDTAB
  0
TABLE
  2
UCS
  5
7
100
AcDbSymbolTable
 70
0
  0
ENDTAB
  0
TABLE
  2
APPID
  5
9
100
AcDbSymbolTable
 70
1
  0
APPID
  5
211
100
AcDbSymbolTableRecord
100
AcDbRegAppTableRecord
  2
ACAD
 70
0
  0
ENDTAB
  0
TABLE
  2
BLOCK_RECORD
  5
1
100
AcDbSymbolTable
 70
0
  0
BLOCK_RECORD
  5
212
100
AcDbSymbolTableRecord
100
AcDbBlockTableRecord
  2
*Model_Space
  0
BLOCK_RECORD
  5
213
100
AcDbSymbolTableRecord
100
AcDbBlockTableRecord
  2
*Paper_Space
  0
BLOCK_RECORD
  5
214
100
AcDbSymbolTableRecord
100
AcDbBlockTableRecord
  2
_FILLED
  0
ENDTAB
  0
TABLE
  2
DIMSTYLE
  5
A
100
AcDbSymbolTable
 70
1
100
AcDbDimStyleTable
 71
0
  0
DIMSTYLE
105
215
100
AcDbSymbolTableRecord
100
AcDbDimStyleTableRecord
  2
STANDARD
 70
0
  3

  4

 40
1.0
 41
1.6870630781
 42
1.0
 43
0.38
 44
1.0
 45
0.0
 46
0.0
 47
0.01
 48
0.01
140
2.3618883094
141
0.09
142
0.0
143
25.4
144
1.0
145
0.0
146
1.0
147
0.625
 71
1
 72
0
 73
0
 74
0
 75
0
 76
0
 77
1
 78
8
 79
2
170
0
171
1
172
0
173
0
174
0
175
0
176
0
177
0
178
0
270
2
179
2
271
2
272
2
273
2
274
2
275
0
280
0
281
0
282
0
283
1
284
8
285
0
286
0
287
3
288
0
340
11
278
46
341
214
342
214
343
214
344
214
  0
ENDTAB
  0
ENDSEC
  0
SECTION
  2
BLOCKS
  0
BLOCK
  5
20
100
AcDbEntity
  8
0
100
AcDbBlockBegin
  2
*Model_Space
 70
0
 10
0.0
 20
0.0
 30
0.0
  3
*Model_Space
  1

  0
ENDBLK
  5
21
100
AcDbEntity
  8
0
100
AcDbBlockEnd
  0
BLOCK
  5
1C
100
AcDbEntity
  8
0
100
AcDbBlockBegin
  2
*Paper_Space
 70
0
 10
0.0
 20
0.0
 30
0.0
  3
*Paper_Space
  1

  0
ENDBLK
  5
1D
100
AcDbEntity
  8
0
100
AcDbBlockEnd
  0
BLOCK
  5
216
100
AcDbEntity
  8
0
100
AcDbBlockBegin
  2
_FILLED
 70
64
 10
0.0
 20
0.0
  3
_FILLED
  1

  0
SOLID
  5
217
100
AcDbEntity
  8
0
  6
BYBLOCK
 62
0
100
AcDbTrace
 10
0.0
 20
0.0
 11
-1.0
 21
0.25
 12
-1.0
 22
-0.25
 13
-1.0
 23
-0.25
  0
ENDBLK
  5
218
100
AcDbEntity
  8
0
  6
BYBLOCK
 62
0
100
AcDbBlockEnd
  0
ENDSEC
  0
SECTION
  2
ENTITIES
  0
LINE
  5
219
100
AcDbEntity
  8
INTFCLR_3
100
AcDbLine
 62
7
  6
CONTINUOUS
 10
16.5191765146
 20
126.9119150044
 11
16.5191765146
 21
86.4868627451
  0
LINE
  5
21A
100
AcDbEntity
  8
INTFCLR_3
100
AcDbLine
 62
7
  6
CONTINUOUS
 10
22.5191765146
 20
126.3068627451
 11
22.5191765146
 21
86.4371846148
  0
LINE
  5
21B
100
AcDbEntity
  8
INTFCLR_3
100
AcDbLine
 62
7
  6
CONTINUOUS
 10
20.5188850021
 20
128.9816256571
 11
16.5191765146
 21
126.9119150044
  0
LINE
  5
21C
100
AcDbEntity
  8
INTFCLR_3
100
AcDbLine
 62
7
  6
CONTINUOUS
 10
107.6191765146
 20
53.2068627451
 11
82.1191765146
 21
53.2068627451
  0
LINE
  5
21D
100
AcDbEntity
  8
INTFCLR_3
100
AcDbLine
 62
7
  6
CONTINUOUS
 10
29.4191765146
 20
125.7068627451
 11
29.4191765146
 21
83.2167446668
  0
LINE
  5
21E
100
AcDbEntity
  8
INTFCLR_3
100
AcDbLine
 62
7
  6
CONTINUOUS
 10
32.1191765146
 20
100.6096159915
 11
32.1191765146
 21
83.1696159915
  0
LINE
  5
21F
100
AcDbEntity
  8
INTFCLR_3
100
AcDbLine
 62
7
  6
CONTINUOUS
 10
107.6191765146
 20
61.0921819181
 11
82.1191765146
 21
61.0921819181
  0
LINE
  5
220
100
AcDbEntity
  8
INTFCLR_3
100
AcDbLine
 62
7
  6
CONTINUOUS
 10
34.5191765146
 20
129.2260016545
 11
34.5191765146
 21
125.7068627451
  0
LINE
  5
221
100
AcDbEntity
  8
INTFCLR_3
100
AcDbLine
 62
7
  6
CONTINUOUS
 10
34.8191765146
 20
129.231238174
 11
34.8191765146
 21
122.9068627451
  0
LINE
  5
222
100
AcDbEntity
  8
INTFCLR_3
100
AcDbLine
 62
7
  6
CONTINUOUS
 10
38.1191765146
 20
94.6096159915
 11
38.1191765146
 21
83.0648856019
  0
LINE
  5
223
100
AcDbEntity
  8
INTFCLR_3
100
AcDbLine
 62
7
  6
CONTINUOUS
 10
107.6191765146
 20
65.7068627451
 11
82.1191765146
 21
65.7068627451
  0
LINE
  5
224
100
AcDbEntity
  8
INTFCLR_3
100
AcDbLine
 62
7
  6
CONTINUOUS
 10
82.1191765146
 20
65.7568350506
 11
107.6191765146
 21
65.7568350506
  0
LINE
  5
225
100
AcDbEntity
  8
INTFCLR_3
100
AcDbLine
 62
7
  6
CONTINUOUS
 10
107.6191765146
 20
67.7068627451
 11
104.6191765146
 21
67.7068627451
  0
LINE
  5
226
100
AcDbEntity
  8
INTFCLR_3
100
AcDbLine
 62
7
  6
CONTINUOUS
 10
92.6191765146
 20
69.4568627451
 11
107.6191765146
 21
69.4568627451
  0
LINE
  5
227
100
AcDbEntity
  8
INTFCLR_3
100
AcDbLine
 62
7
  6
CONTINUOUS
 10
107.6191765146
 20
70.9568627451
 11
92.6191765146
 21
70.9568627451
  0
LINE
  5
228
100
AcDbEntity
  8
INTFCLR_3
100
AcDbLine
 62
7
  6
CONTINUOUS
 10
92.6191765146
 20
72.4568627451
 11
107.6191765146
 21
72.4568627451
  0
LINE
  5
229
100
AcDbEntity
  8
INTFCLR_3
100
AcDbLine
 62
7
  6
CONTINUOUS
 10
107.6191765146
 20
74.1068627451
 11
93.1191765146
 21
74.1068627451
  0
LINE
  5
22A
100
AcDbEntity
  8
INTFCLR_3
100
AcDbLine
 62
7
  6
CONTINUOUS
 10
86.3191765146
 20
75.7068976967
 11
107.6191765146
 21
75.7068976967
  0
LINE
  5
22B
100
AcDbEntity
  8
INTFCLR_3
100
AcDbLine
 62
7
  6
CONTINUOUS
 10
107.6191765146
 20
76.2068627451
 11
88.5691765146
 21
76.2068627451
  0
LINE
  5
22C
100
AcDbEntity
  8
INTFCLR_3
100
AcDbLine
 62
7
  6
CONTINUOUS
 10
82.1191765146
 20
78.1068627451
 11
86.3191765146
 21
78.1068627451
  0
LINE
  5
22D
100
AcDbEntity
  8
INTFCLR_3
100
AcDbLine
 62
7
  6
CONTINUOUS
 10
90.1191765146
 20
78.1612783328
 11
82.1191765146
 21
78.1612783328
  0
LINE
  5
22E
100
AcDbEntity
  8
INTFCLR_3
100
AcDbLine
 62
7
  6
CONTINUOUS
 10
117.1191765146
 20
80.7068627451
 11
82.1191765146
 21
80.7068627451
  0
LINE
  5
22F
100
AcDbEntity
  8
INTFCLR_3
100
AcDbLine
 62
7
  6
CONTINUOUS
 10
90.1191765146
 20
83.2524471574
 11
82.1191765146
 21
83.2524471574
  0
LINE
  5
230
100
AcDbEntity
  8
INTFCLR_3
100
AcDbLine
 62
7
  6
CONTINUOUS
 10
82.1191765146
 20
83.3068627451
 11
86.3191765146
 21
83.3068627451
  0
LINE
  5
231
100
AcDbEntity
  8
INTFCLR_3
100
AcDbLine
 62
7
  6
CONTINUOUS
 10
117.1191765146
 20
85.2068627451
 11
88.5691765146
 21
85.2068627451
  0
LINE
  5
232
100
AcDbEntity
  8
INTFCLR_3
100
AcDbLine
 62
7
  6
CONTINUOUS
 10
86.3191765146
 20
85.7068277935
 11
99.3191765146
 21
85.7068277935
  0
LINE
  5
233
100
AcDbEntity
  8
INTFCLR_3
100
AcDbLine
 62
7
  6
CONTINUOUS
 10
117.1191765146
 20
85.7068627451
 11
99.3191765146
 21
85.7068627451
  0
LINE
  5
234
100
AcDbEntity
  8
INTFCLR_3
100
AcDbLine
 62
7
  6
CONTINUOUS
 10
82.1191765146
 20
86.3167446668
 11
29.4191765146
 21
86.3167446668
  0
LINE
  5
235
100
AcDbEntity
  8
INTFCLR_3
100
AcDbLine
 62
7
  6
CONTINUOUS
 10
29.4191765146
 20
86.3200403825
 11
16.5191765146
 21
86.5419150044
  0
LINE
  5
236
100
AcDbEntity
  8
INTFCLR_3
100
AcDbLine
 62
7
  6
CONTINUOUS
 10
82.1191765146
 20
82.2968627451
 11
29.4191765146
 21
83.2167446668
  0
LINE
  5
237
100
AcDbEntity
  8
INTFCLR_3
100
AcDbLine
 62
7
  6
CONTINUOUS
 10
62.8191765146
 20
129.719979992
 11
62.8191765146
 21
122.9068627451
  0
LINE
  5
238
100
AcDbEntity
  8
INTFCLR_3
100
AcDbLine
 62
7
  6
CONTINUOUS
 10
29.4191765146
 20
86.4868627451
 11
16.5191765146
 21
86.4868627451
  0
LINE
  5
239
100
AcDbEntity
  8
INTFCLR_3
100
AcDbLine
 62
7
  6
CONTINUOUS
 10
115.2191765146
 20
86.7068627451
 11
95.5191765146
 21
86.7068627451
  0
LINE
  5
23A
100
AcDbEntity
  8
INTFCLR_3
100
AcDbLine
 62
7
  6
CONTINUOUS
 10
122.5191765146
 20
90.7068627451
 11
117.1191765146
 21
90.7068627451
  0
LINE
  5
23B
100
AcDbEntity
  8
INTFCLR_3
100
AcDbLine
 62
7
  6
CONTINUOUS
 10
120.1191765146
 20
91.2068627451
 11
119.8441765146
 21
91.2068627451
  0
LINE
  5
23C
100
AcDbEntity
  8
INTFCLR_3
100
AcDbLine
 62
7
  6
CONTINUOUS
 10
29.4191765146
 20
91.4196317202
 11
16.5191765146
 21
91.4196317202
  0
LINE
  5
23D
100
AcDbEntity
  8
INTFCLR_3
100
AcDbLine
 62
7
  6
CONTINUOUS
 10
29.4191765146
 20
91.4368627451
 11
16.5191765146
 21
91.4368627451
  0
LINE
  5
23E
100
AcDbEntity
  8
INTFCLR_3
100
AcDbLine
 62
7
  6
CONTINUOUS
 10
32.1191765146
 20
92.1696159915
 11
29.4191765146
 21
92.1696159915
  0
LINE
  5
23F
100
AcDbEntity
  8
INTFCLR_3
100
AcDbLine
 62
7
  6
CONTINUOUS
 10
122.5191765146
 20
93.3568627451
 11
119.8441765146
 21
93.3568627451
  0
LINE
  5
240
100
AcDbEntity
  8
INTFCLR_3
100
AcDbLine
 62
7
  6
CONTINUOUS
 10
80.3191765146
 20
94.6096159915
 11
38.1191765146
 21
94.6096159915
  0
LINE
  5
241
100
AcDbEntity
  8
INTFCLR_3
100
AcDbLine
 62
7
  6
CONTINUOUS
 10
29.4191765146
 20
95.2568627451
 11
16.5191765146
 21
95.2568627451
  0
LINE
  5
242
100
AcDbEntity
  8
INTFCLR_3
100
AcDbLine
 62
7
  6
CONTINUOUS
 10
122.5191765146
 20
96.6568627451
 11
119.8441765146
 21
96.6568627451
  0
LINE
  5
243
100
AcDbEntity
  8
INTFCLR_3
100
AcDbLine
 62
7
  6
CONTINUOUS
 10
29.4191765146
 20
97.0808668886
 11
16.5191765146
 21
97.0808668886
  0
LINE
  5
244
100
AcDbEntity
  8
INTFCLR_3
100
AcDbLine
 62
7
  6
CONTINUOUS
 10
122.5191765146
 20
97.4068627451
 11
117.1191765146
 21
97.4068627451
  0
LINE
  5
245
100
AcDbEntity
  8
INTFCLR_3
100
AcDbLine
 62
7
  6
CONTINUOUS
 10
74.3191765146
 20
100.6096159915
 11
32.1191765146
 21
100.6096159915
  0
LINE
  5
246
100
AcDbEntity
  8
INTFCLR_3
100
AcDbLine
 62
7
  6
CONTINUOUS
 10
74.3191765146
 20
129.9207132387
 11
74.3191765146
 21
100.6096159915
  0
LINE
  5
247
100
AcDbEntity
  8
INTFCLR_3
100
AcDbLine
 62
7
  6
CONTINUOUS
 10
115.8441765146
 20
102.9569003783
 11
119.8441765146
 21
102.9569003783
  0
LINE
  5
248
100
AcDbEntity
  8
INTFCLR_3
100
AcDbLine
 62
7
  6
CONTINUOUS
 10
115.4441765146
 20
104.0068627451
 11
118.7191765146
 21
104.0068627451
  0
LINE
  5
249
100
AcDbEntity
  8
INTFCLR_3
100
AcDbLine
 62
7
  6
CONTINUOUS
 10
119.8441765146
 20
104.4128245192
 11
113.3441765146
 21
104.4128245192
  0
LINE
  5
24A
100
AcDbEntity
  8
INTFCLR_3
100
AcDbLine
 62
7
  6
CONTINUOUS
 10
119.8441765146
 20
104.8563479699
 11
115.8441765146
 21
104.8563479699
  0
LINE
  5
24B
100
AcDbEntity
  8
INTFCLR_3
100
AcDbLine
 62
7
  6
CONTINUOUS
 10
119.8441765146
 20
105.6384956282
 11
113.3441765146
 21
105.6384956282
  0
LINE
  5
24C
100
AcDbEntity
  8
INTFCLR_3
100
AcDbLine
 62
7
  6
CONTINUOUS
 10
80.3191765146
 20
130.0254436282
 11
80.3191765146
 21
94.6096159915
  0
LINE
  5
24D
100
AcDbEntity
  8
INTFCLR_3
100
AcDbLine
 62
7
  6
CONTINUOUS
 10
82.1191765146
 20
132.2068627451
 11
82.1191765146
 21
53.2068627451
  0
LINE
  5
24E
100
AcDbEntity
  8
INTFCLR_3
100
AcDbLine
 62
7
  6
CONTINUOUS
 10
119.8441765146
 20
106.0820190789
 11
115.8441765146
 21
106.0820190789
  0
LINE
  5
24F
100
AcDbEntity
  8
INTFCLR_3
100
AcDbLine
 62
7
  6
CONTINUOUS
 10
118.7191765146
 20
106.4068987437
 11
119.8441765146
 21
106.4068987437
  0
LINE
  5
250
100
AcDbEntity
  8
INTFCLR_3
100
AcDbLine
 62
7
  6
CONTINUOUS
 10
115.8441765146
 20
106.5946540359
 11
113.3441765146
 21
106.5946540359
  0
LINE
  5
251
100
AcDbEntity
  8
INTFCLR_3
100
AcDbLine
 62
7
  6
CONTINUOUS
 10
80.3191765146
 20
106.6096159915
 11
74.3191765146
 21
106.6096159915
  0
LINE
  5
252
100
AcDbEntity
  8
INTFCLR_3
100
AcDbLine
 62
7
  6
CONTINUOUS
 10
112.2441765146
 20
106.89190826
 11
113.3441765146
 21
106.89190826
  0
LINE
  5
253
100
AcDbEntity
  8
INTFCLR_3
100
AcDbLine
 62
7
  6
CONTINUOUS
 10
113.3441765146
 20
107.7068627451
 11
112.2441765146
 21
107.7068627451
  0
LINE
  5
254
100
AcDbEntity
  8
INTFCLR_3
100
AcDbLine
 62
7
  6
CONTINUOUS
 10
115.8441765146
 20
107.8203251449
 11
113.3441765146
 21
107.8203251449
  0
LINE
  5
255
100
AcDbEntity
  8
INTFCLR_3
100
AcDbLine
 62
7
  6
CONTINUOUS
 10
112.2441765146
 20
108.20690463
 11
115.8441765146
 21
108.20690463
  0
LINE
  5
256
100
AcDbEntity
  8
INTFCLR_3
100
AcDbLine
 62
7
  6
CONTINUOUS
 10
113.3441765146
 20
108.3568627451
 11
117.9441765146
 21
108.3568627451
  0
LINE
  5
257
100
AcDbEntity
  8
INTFCLR_3
100
AcDbLine
 62
7
  6
CONTINUOUS
 10
112.2441765146
 20
108.5218172302
 11
113.3441765146
 21
108.5218172302
  0
LINE
  5
258
100
AcDbEntity
  8
INTFCLR_3
100
AcDbLine
 62
7
  6
CONTINUOUS
 10
29.4191765146
 20
108.5810224587
 11
16.5191765146
 21
108.5810224587
  0
LINE
  5
259
100
AcDbEntity
  8
INTFCLR_3
100
AcDbLine
 62
7
  6
CONTINUOUS
 10
115.8441765146
 20
108.9568627451
 11
112.2441765146
 21
108.9568627451
  0
LINE
  5
25A
100
AcDbEntity
  8
INTFCLR_3
100
AcDbLine
 62
7
  6
CONTINUOUS
 10
112.2441765146
 20
109.09190826
 11
113.3441765146
 21
109.09190826
  0
LINE
  5
25B
100
AcDbEntity
  8
INTFCLR_3
100
AcDbLine
 62
7
  6
CONTINUOUS
 10
112.2441765146
 20
109.15690463
 11
117.9441765146
 21
109.15690463
  0
LINE
  5
25C
100
AcDbEntity
  8
INTFCLR_3
100
AcDbLine
 62
7
  6
CONTINUOUS
 10
112.2441765146
 20
109.7068208602
 11
115.8441765146
 21
109.7068208602
  0
LINE
  5
25D
100
AcDbEntity
  8
INTFCLR_3
100
AcDbLine
 62
7
  6
CONTINUOUS
 10
119.8441765146
 20
109.9068627451
 11
112.2441765146
 21
109.9068627451
  0
LINE
  5
25E
100
AcDbEntity
  8
INTFCLR_3
100
AcDbLine
 62
7
  6
CONTINUOUS
 10
112.2441765146
 20
110.6568208602
 11
117.9441765146
 21
110.6568208602
  0
LINE
  5
25F
100
AcDbEntity
  8
INTFCLR_3
100
AcDbLine
 62
7
  6
CONTINUOUS
 10
112.2441765146
 20
110.7218172302
 11
113.3441765146
 21
110.7218172302
  0
LINE
  5
260
100
AcDbEntity
  8
INTFCLR_3
100
AcDbLine
 62
7
  6
CONTINUOUS
 10
86.3191765146
 20
75.7069028437
 11
86.3191765146
 21
85.7068226465
  0
LINE
  5
261
100
AcDbEntity
  8
INTFCLR_3
100
AcDbLine
 62
7
  6
CONTINUOUS
 10
112.2441765146
 20
111.29190826
 11
113.3441765146
 21
111.29190826
  0
LINE
  5
262
100
AcDbEntity
  8
INTFCLR_3
100
AcDbLine
 62
7
  6
CONTINUOUS
 10
113.3441765146
 20
111.4568627451
 11
117.9441765146
 21
111.4568627451
  0
LINE
  5
263
100
AcDbEntity
  8
INTFCLR_3
100
AcDbLine
 62
7
  6
CONTINUOUS
 10
29.4191765146
 20
111.4958818392
 11
16.5191765146
 21
111.4958818392
  0
LINE
  5
264
100
AcDbEntity
  8
INTFCLR_3
100
AcDbLine
 62
7
  6
CONTINUOUS
 10
113.3441765146
 20
112.1068627451
 11
112.2441765146
 21
112.1068627451
  0
LINE
  5
265
100
AcDbEntity
  8
INTFCLR_3
100
AcDbLine
 62
7
  6
CONTINUOUS
 10
112.2441765146
 20
112.9218172302
 11
113.3441765146
 21
112.9218172302
  0
LINE
  5
266
100
AcDbEntity
  8
INTFCLR_3
100
AcDbLine
 62
7
  6
CONTINUOUS
 10
118.7191765146
 20
113.4068267465
 11
119.8441765146
 21
113.4068267465
  0
LINE
  5
267
100
AcDbEntity
  8
INTFCLR_3
100
AcDbLine
 62
7
  6
CONTINUOUS
 10
112.2441765146
 20
113.92690463
 11
115.8441765146
 21
113.92690463
  0
LINE
  5
268
100
AcDbEntity
  8
INTFCLR_3
100
AcDbLine
 62
7
  6
CONTINUOUS
 10
115.8441765146
 20
114.1063418795
 11
113.3441765146
 21
114.1063418795
  0
LINE
  5
269
100
AcDbEntity
  8
INTFCLR_3
100
AcDbLine
 62
7
  6
CONTINUOUS
 10
29.4191765146
 20
114.4867446668
 11
16.5191765146
 21
114.4867446668
  0
LINE
  5
26A
100
AcDbEntity
  8
INTFCLR_3
100
AcDbLine
 62
7
  6
CONTINUOUS
 10
115.8441765146
 20
114.6768627451
 11
112.2441765146
 21
114.6768627451
  0
LINE
  5
26B
100
AcDbEntity
  8
INTFCLR_3
100
AcDbLine
 62
7
  6
CONTINUOUS
 10
112.2441765146
 20
115.4268208602
 11
115.8441765146
 21
115.4268208602
  0
LINE
  5
26C
100
AcDbEntity
  8
INTFCLR_3
100
AcDbLine
 62
7
  6
CONTINUOUS
 10
115.4441765146
 20
115.8068627451
 11
118.7191765146
 21
115.8068627451
  0
LINE
  5
26D
100
AcDbEntity
  8
INTFCLR_3
100
AcDbLine
 62
7
  6
CONTINUOUS
 10
88.5691765146
 20
85.2068627451
 11
88.5691765146
 21
76.2068627451
  0
LINE
  5
26E
100
AcDbEntity
  8
INTFCLR_3
100
AcDbLine
 62
7
  6
CONTINUOUS
 10
90.1191765146
 20
85.2068627451
 11
90.1191765146
 21
76.2068627451
  0
LINE
  5
26F
100
AcDbEntity
  8
INTFCLR_3
100
AcDbLine
 62
7
  6
CONTINUOUS
 10
92.6191765146
 20
69.4568627451
 11
92.6191765146
 21
72.4568627451
  0
LINE
  5
270
100
AcDbEntity
  8
INTFCLR_3
100
AcDbLine
 62
7
  6
CONTINUOUS
 10
119.8441765146
 20
116.8106660447
 11
115.8441765146
 21
116.8106660447
  0
LINE
  5
271
100
AcDbEntity
  8
INTFCLR_3
100
AcDbLine
 62
7
  6
CONTINUOUS
 10
119.8441765146
 20
117.5006660447
 11
113.3441765146
 21
117.5006660447
  0
LINE
  5
272
100
AcDbEntity
  8
INTFCLR_3
100
AcDbLine
 62
7
  6
CONTINUOUS
 10
22.5191765146
 20
118.3067446668
 11
16.5191765146
 21
118.3067446668
  0
LINE
  5
273
100
AcDbEntity
  8
INTFCLR_3
100
AcDbLine
 62
7
  6
CONTINUOUS
 10
22.5191765146
 20
118.5635059196
 11
16.5191765146
 21
118.5635059196
  0
LINE
  5
274
100
AcDbEntity
  8
INTFCLR_3
100
AcDbLine
 62
7
  6
CONTINUOUS
 10
93.1191765146
 20
76.2068627451
 11
93.1191765146
 21
74.1068627451
  0
LINE
  5
275
100
AcDbEntity
  8
INTFCLR_3
100
AcDbLine
 62
7
  6
CONTINUOUS
 10
95.5191765146
 20
130.7068627451
 11
95.5191765146
 21
86.7068627451
  0
LINE
  5
276
100
AcDbEntity
  8
INTFCLR_3
100
AcDbLine
 62
7
  6
CONTINUOUS
 10
96.8191765146
 20
130.7068627451
 11
96.8191765146
 21
86.7068627451
  0
LINE
  5
277
100
AcDbEntity
  8
INTFCLR_3
100
AcDbLine
 62
7
  6
CONTINUOUS
 10
97.8191765146
 20
132.2068627451
 11
97.8191765146
 21
86.7068627451
  0
LINE
  5
278
100
AcDbEntity
  8
INTFCLR_3
100
AcDbLine
 62
7
  6
CONTINUOUS
 10
62.8191765146
 20
122.9068627451
 11
16.5191765146
 21
122.9068627451
  0
LINE
  5
279
100
AcDbEntity
  8
INTFCLR_3
100
AcDbLine
 62
7
  6
CONTINUOUS
 10
29.4191765146
 20
124.7067446668
 11
16.5191765146
 21
124.7067446668
  0
LINE
  5
27A
100
AcDbEntity
  8
INTFCLR_3
100
AcDbLine
 62
7
  6
CONTINUOUS
 10
99.1191765146
 20
130.7068627451
 11
99.1191765146
 21
86.7068627451
  0
LINE
  5
27B
100
AcDbEntity
  8
INTFCLR_3
100
AcDbLine
 62
7
  6
CONTINUOUS
 10
99.3191765146
 20
85.7068277935
 11
99.3191765146
 21
80.7068627451
  0
LINE
  5
27C
100
AcDbEntity
  8
INTFCLR_3
100
AcDbLine
 62
7
  6
CONTINUOUS
 10
100.1191765146
 20
130.7068627451
 11
100.1191765146
 21
86.7068627451
  0
LINE
  5
27D
100
AcDbEntity
  8
INTFCLR_3
100
AcDbLine
 62
7
  6
CONTINUOUS
 10
101.4191765146
 20
130.7068627451
 11
101.4191765146
 21
86.7068627451
  0
LINE
  5
27E
100
AcDbEntity
  8
INTFCLR_3
100
AcDbLine
 62
7
  6
CONTINUOUS
 10
102.4191765146
 20
130.7068627451
 11
102.4191765146
 21
86.7068627451
  0
LINE
  5
27F
100
AcDbEntity
  8
INTFCLR_3
100
AcDbLine
 62
7
  6
CONTINUOUS
 10
82.1191765146
 20
130.0568627451
 11
20.5188850021
 21
128.9816256571
  0
LINE
  5
280
100
AcDbEntity
  8
INTFCLR_3
100
AcDbLine
 62
7
  6
CONTINUOUS
 10
34.5191765146
 20
125.7068627451
 11
16.5191765146
 21
125.7068627451
  0
LINE
  5
281
100
AcDbEntity
  8
INTFCLR_3
100
AcDbLine
 62
7
  6
CONTINUOUS
 10
123.0191765146
 20
125.9068627451
 11
119.8441765146
 21
125.9068627451
  0
LINE
  5
282
100
AcDbEntity
  8
INTFCLR_3
100
AcDbLine
 62
7
  6
CONTINUOUS
 10
82.1191765146
 20
126.3068627451
 11
22.5191765146
 21
126.3068627451
  0
LINE
  5
283
100
AcDbEntity
  8
INTFCLR_3
100
AcDbLine
 62
7
  6
CONTINUOUS
 10
82.1191765146
 20
128.3814912096
 11
62.8191765146
 21
128.3814912096
  0
LINE
  5
284
100
AcDbEntity
  8
INTFCLR_3
100
AcDbLine
 62
7
  6
CONTINUOUS
 10
82.1191765146
 20
128.9268627451
 11
62.8191765146
 21
128.9268627451
  0
LINE
  5
285
100
AcDbEntity
  8
INTFCLR_3
100
AcDbLine
 62
7
  6
CONTINUOUS
 10
82.1191765146
 20
129.0168627451
 11
62.8191765146
 21
129.0168627451
  0
LINE
  5
286
100
AcDbEntity
  8
INTFCLR_3
100
AcDbLine
 62
7
  6
CONTINUOUS
 10
120.1191765146
 20
129.6568627451
 11
119.8441765146
 21
129.6568627451
  0
LINE
  5
287
100
AcDbEntity
  8
INTFCLR_3
100
AcDbLine
 62
7
  6
CONTINUOUS
 10
123.0191765146
 20
130.0068627451
 11
120.1191765146
 21
130.0068627451
  0
LINE
  5
288
100
AcDbEntity
  8
INTFCLR_3
100
AcDbLine
 62
7
  6
CONTINUOUS
 10
97.8191765146
 20
130.0068627451
 11
82.1191765146
 21
130.0068627451
  0
LINE
  5
289
100
AcDbEntity
  8
INTFCLR_3
100
AcDbLine
 62
7
  6
CONTINUOUS
 10
103.7191765146
 20
130.7068627451
 11
103.7191765146
 21
86.7068627451
  0
LINE
  5
28A
100
AcDbEntity
  8
INTFCLR_3
100
AcDbLine
 62
7
  6
CONTINUOUS
 10
104.6191765146
 20
80.706819237
 11
104.6191765146
 21
53.2068627451
  0
LINE
  5
28B
100
AcDbEntity
  8
INTFCLR_3
100
AcDbLine
 62
7
  6
CONTINUOUS
 10
104.7191765146
 20
130.7068627451
 11
104.7191765146
 21
86.7068627451
  0
LINE
  5
28C
100
AcDbEntity
  8
INTFCLR_3
100
AcDbLine
 62
7
  6
CONTINUOUS
 10
106.0191765146
 20
130.7068627451
 11
106.0191765146
 21
86.7068627451
  0
LINE
  5
28D
100
AcDbEntity
  8
INTFCLR_3
100
AcDbLine
 62
7
  6
CONTINUOUS
 10
107.0191765146
 20
130.7068627451
 11
107.0191765146
 21
86.7068627451
  0
LINE
  5
28E
100
AcDbEntity
  8
INTFCLR_3
100
AcDbLine
 62
7
  6
CONTINUOUS
 10
107.6191765146
 20
80.7068627451
 11
107.6191765146
 21
53.2068627451
  0
LINE
  5
28F
100
AcDbEntity
  8
INTFCLR_3
100
AcDbLine
 62
7
  6
CONTINUOUS
 10
115.2191765146
 20
130.7068627451
 11
95.5191765146
 21
130.7068627451
  0
LINE
  5
290
100
AcDbEntity
  8
INTFCLR_3
100
AcDbLine
 62
7
  6
CONTINUOUS
 10
120.1191765146
 20
132.2068627451
 11
82.1191765146
 21
132.2068627451
  0
LINE
  5
291
100
AcDbEntity
  8
INTFCLR_3
100
AcDbLine
 62
7
  6
CONTINUOUS
 10
108.3191765146
 20
130.7068627451
 11
108.3191765146
 21
86.7068627451
  0
LINE
  5
292
100
AcDbEntity
  8
INTFCLR_3
100
AcDbLine
 62
7
  6
CONTINUOUS
 10
109.1191765146
 20
144.6168627451
 11
109.1191765146
 21
132.2068627451
  0
LINE
  5
293
100
AcDbEntity
  8
INTFCLR_3
100
AcDbLine
 62
7
  6
CONTINUOUS
 10
109.3191765146
 20
130.7068627451
 11
109.3191765146
 21
86.7068627451
  0
LINE
  5
294
100
AcDbEntity
  8
INTFCLR_3
100
AcDbLine
 62
7
  6
CONTINUOUS
 10
110.6191765146
 20
130.7068627451
 11
110.6191765146
 21
86.7068627451
  0
LINE
  5
295
100
AcDbEntity
  8
INTFCLR_3
100
AcDbLine
 62
7
  6
CONTINUOUS
 10
111.6191765146
 20
130.7068627451
 11
111.6191765146
 21
86.7068627451
  0
LINE
  5
296
100
AcDbEntity
  8
INTFCLR_3
100
AcDbLine
 62
7
  6
CONTINUOUS
 10
112.2441765146
 20
112.921827104
 11
112.2441765146
 21
111.29190826
  0
LINE
  5
297
100
AcDbEntity
  8
INTFCLR_3
100
AcDbLine
 62
7
  6
CONTINUOUS
 10
112.2441765146
 20
106.8918983862
 11
112.2441765146
 21
110.721827104
  0
LINE
  5
298
100
AcDbEntity
  8
INTFCLR_3
100
AcDbLine
 62
7
  6
CONTINUOUS
 10
112.2441765146
 20
113.9268955436
 11
112.2441765146
 21
115.4268208602
  0
LINE
  5
299
100
AcDbEntity
  8
INTFCLR_3
100
AcDbLine
 62
7
  6
CONTINUOUS
 10
126.6191765146
 20
147.7068627451
 11
109.1191765146
 21
144.6168627451
  0
LINE
  5
29A
100
AcDbEntity
  8
INTFCLR_3
100
AcDbLine
 62
7
  6
CONTINUOUS
 10
112.9191765146
 20
130.7068627451
 11
112.9191765146
 21
86.7068627451
  0
LINE
  5
29B
100
AcDbEntity
  8
INTFCLR_3
100
AcDbLine
 62
7
  6
CONTINUOUS
 10
113.3441765146
 20
117.5006660447
 11
113.3441765146
 21
104.4128245192
  0
LINE
  5
29C
100
AcDbEntity
  8
INTFCLR_3
100
AcDbLine
 62
7
  6
CONTINUOUS
 10
113.9191765146
 20
130.7068627451
 11
113.9191765146
 21
86.7068627451
  0
LINE
  5
29D
100
AcDbEntity
  8
INTFCLR_3
100
AcDbLine
 62
7
  6
CONTINUOUS
 10
115.2191765146
 20
130.7068627451
 11
115.2191765146
 21
86.7068627451
  0
LINE
  5
29E
100
AcDbEntity
  8
INTFCLR_3
100
AcDbLine
 62
7
  6
CONTINUOUS
 10
115.4441765146
 20
115.8068627451
 11
115.4441765146
 21
104.0068627451
  0
LINE
  5
29F
100
AcDbEntity
  8
INTFCLR_3
100
AcDbLine
 62
7
  6
CONTINUOUS
 10
115.8441765146
 20
116.8106660447
 11
115.8441765146
 21
102.9570012614
  0
LINE
  5
2A0
100
AcDbEntity
  8
INTFCLR_3
100
AcDbLine
 62
7
  6
CONTINUOUS
 10
117.1191765146
 20
132.2068627451
 11
117.1191765146
 21
97.4068627451
  0
LINE
  5
2A1
100
AcDbEntity
  8
INTFCLR_3
100
AcDbLine
 62
7
  6
CONTINUOUS
 10
117.1191765146
 20
90.7068627451
 11
117.1191765146
 21
80.7068627451
  0
LINE
  5
2A2
100
AcDbEntity
  8
INTFCLR_3
100
AcDbLine
 62
7
  6
CONTINUOUS
 10
127.8191765146
 20
142.7068627451
 11
118.1191765146
 21
142.7068627451
  0
LINE
  5
2A3
100
AcDbEntity
  8
INTFCLR_3
100
AcDbLine
 62
7
  6
CONTINUOUS
 10
127.8191765146
 20
143.0068428631
 11
129.1191765146
 21
143.0068428631
  0
LINE
  5
2A4
100
AcDbEntity
  8
INTFCLR_3
100
AcDbLine
 62
7
  6
CONTINUOUS
 10
129.1191765146
 20
143.8415050385
 11
127.8191765146
 21
143.8415050385
  0
LINE
  5
2A5
100
AcDbEntity
  8
INTFCLR_3
100
AcDbLine
 62
7
  6
CONTINUOUS
 10
117.9441765146
 20
108.3568627451
 11
117.9441765146
 21
111.4569282089
  0
LINE
  5
2A6
100
AcDbEntity
  8
INTFCLR_3
100
AcDbLine
 62
7
  6
CONTINUOUS
 10
118.1191765146
 20
142.7068627451
 11
118.1191765146
 21
132.2068627451
  0
LINE
  5
2A7
100
AcDbEntity
  8
INTFCLR_3
100
AcDbLine
 62
7
  6
CONTINUOUS
 10
118.7191765146
 20
104.006914687
 11
118.7191765146
 21
115.8068108032
  0
LINE
  5
2A8
100
AcDbEntity
  8
INTFCLR_3
100
AcDbLine
 62
7
  6
CONTINUOUS
 10
119.8441765146
 20
129.6568627451
 11
119.8441765146
 21
91.2068627451
  0
LINE
  5
2A9
100
AcDbEntity
  8
INTFCLR_3
100
AcDbLine
 62
7
  6
CONTINUOUS
 10
120.1191765146
 20
132.2068627451
 11
120.1191765146
 21
97.4068627451
  0
LINE
  5
2AA
100
AcDbEntity
  8
INTFCLR_3
100
AcDbLine
 62
7
  6
CONTINUOUS
 10
120.1191765146
 20
91.2068627451
 11
120.1191765146
 21
90.7068627451
  0
LINE
  5
2AB
100
AcDbEntity
  8
INTFCLR_3
100
AcDbLine
 62
7
  6
CONTINUOUS
 10
129.1191765146
 20
146.5721989279
 11
127.8191765146
 21
146.5721989279
  0
LINE
  5
2AC
100
AcDbEntity
  8
INTFCLR_3
100
AcDbLine
 62
7
  6
CONTINUOUS
 10
127.8191765146
 20
147.4068826271
 11
129.1191765146
 21
147.4068826271
  0
LINE
  5
2AD
100
AcDbEntity
  8
INTFCLR_3
100
AcDbLine
 62
7
  6
CONTINUOUS
 10
127.8191765146
 20
147.7068627451
 11
126.6191765146
 21
147.7068627451
  0
LINE
  5
2AE
100
AcDbEntity
  8
INTFCLR_3
100
AcDbLine
 62
7
  6
CONTINUOUS
 10
122.5191765146
 20
97.4068627451
 11
122.5191765146
 21
90.7068627451
  0
LINE
  5
2AF
100
AcDbEntity
  8
INTFCLR_3
100
AcDbLine
 62
7
  6
CONTINUOUS
 10
123.0191765146
 20
130.0068627451
 11
123.0191765146
 21
125.9068627451
  0
LINE
  5
2B0
100
AcDbEntity
  8
INTFCLR_3
100
AcDbLine
 62
7
  6
CONTINUOUS
 10
126.6191765146
 20
147.7068627451
 11
126.6191765146
 21
142.7068627451
  0
LINE
  5
2B1
100
AcDbEntity
  8
INTFCLR_3
100
AcDbLine
 62
7
  6
CONTINUOUS
 10
127.8191765146
 20
147.7068627451
 11
127.8191765146
 21
142.7068627451
  0
LINE
  5
2B2
100
AcDbEntity
  8
INTFCLR_3
100
AcDbLine
 62
7
  6
CONTINUOUS
 10
129.1191765146
 20
143.0072283585
 11
129.1191765146
 21
147.4064971316
  0
CIRCLE
  5
2B3
100
AcDbEntity
  8
INTFCLR_3
100
AcDbCircle
 62
7
  6
CONTINUOUS
 10
121.5691765146
 20
127.9568627451
 40
0.8499525305
  0
CIRCLE
  5
2B4
100
AcDbEntity
  8
INTFCLR_3
100
AcDbCircle
 62
7
  6
CONTINUOUS
 10
121.0691765146
 20
92.1568627451
 40
0.8249539267
  0
SPLINE
  5
2B5
100
AcDbEntity
  8
INTFCLR_3
100
AcDbSpline
 62
7
  6
CONTINUOUS
 70
0
 71
3
 72
15
 73
11
 74
0
 42
0.0000001
 43
0.0000001
 44
0.0000000001
 40
0.0
 40
0.0
 40
0.0
 40
0.0
 40
0.1271651494
 40
0.2516421134
 40
0.3743791938
 40
0.4987444213
 40
0.6230100771
 40
0.7463537061
 40
0.8721420081
 40
1.0
 40
1.0
 40
1.0
 40
1.0
 10
121.0691765146
 20
91.3318627451
 30
0.0
 10
121.1783058647
 20
91.334253514
 30
0.0
 10
121.3968171341
 20
91.3748214278
 30
0.0
 10
121.6693390922
 20
91.5610298346
 30
0.0
 10
121.8506316515
 20
91.8328021218
 30
0.0
 10
121.9153625667
 20
92.1533997528
 30
0.0
 10
121.853151464
 20
92.475009037
 30
0.0
 10
121.6729515913
 20
92.7495403225
 30
0.0
 10
121.399170724
 20
92.9382470521
 30
0.0
 10
121.1789036922
 20
92.979612218
 30
0.0
 10
121.0691765146
 20
92.9818627451
 30
0.0
  0
SPLINE
  5
2B6
100
AcDbEntity
  8
INTFCLR_3
100
AcDbSpline
 62
7
  6
CONTINUOUS
 70
0
 71
3
 72
15
 73
11
 74
0
 42
0.0000001
 43
0.0000001
 44
0.0000000001
 40
0.0
 40
0.0
 40
0.0
 40
0.0
 40
0.1271651494
 40
0.2516421134
 40
0.3743791938
 40
0.4987444213
 40
0.6230100771
 40
0.7463537061
 40
0.8721420081
 40
1.0
 40
1.0
 40
1.0
 40
1.0
 10
121.0691765146
 20
92.9818627451
 30
0.0
 10
120.9600471645
 20
92.9794719762
 30
0.0
 10
120.7415358951
 20
92.9389040624
 30
0.0
 10
120.469013937
 20
92.7526956556
 30
0.0
 10
120.2877213777
 20
92.4809233684
 30
0.0
 10
120.2229904625
 20
92.1603257374
 30
0.0
 10
120.2852015652
 20
91.8387164532
 30
0.0
 10
120.465401438
 20
91.5641851677
 30
0.0
 10
120.7391823052
 20
91.3754784381
 30
0.0
 10
120.959449337
 20
91.3341132722
 30
0.0
 10
121.0691765146
 20
91.3318627451
 30
0.0
  0
SPLINE
  5
2B7
100
AcDbEntity
  8
INTFCLR_3
100
AcDbSpline
 62
7
  6
CONTINUOUS
 70
0
 71
3
 72
15
 73
11
 74
0
 42
0.0000001
 43
0.0000001
 44
0.0000000001
 40
0.0
 40
0.0
 40
0.0
 40
0.0
 40
0.1271651494
 40
0.2516421134
 40
0.3743791938
 40
0.4987444213
 40
0.6230100771
 40
0.7463537061
 40
0.8721420081
 40
1.0
 40
1.0
 40
1.0
 40
1.0
 10
120.7191765146
 20
127.9568627451
 30
0.0
 10
120.721639731
 20
128.0692990452
 30
0.0
 10
120.7634369756
 20
128.2944318682
 30
0.0
 10
120.9552880614
 20
128.5752120674
 30
0.0
 10
121.2352958724
 20
128.7619983407
 30
0.0
 10
121.5656085831
 20
128.8286907987
 30
0.0
 10
121.8969636032
 20
128.7645945112
 30
0.0
 10
122.1798140186
 20
128.5789340362
 30
0.0
 10
122.374239134
 20
128.296856779
 30
0.0
 10
122.4168577897
 20
128.0699149887
 30
0.0
 10
122.4191765146
 20
127.9568627451
 30
0.0
  0
SPLINE
  5
2B8
100
AcDbEntity
  8
INTFCLR_3
100
AcDbSpline
 62
7
  6
CONTINUOUS
 70
0
 71
3
 72
15
 73
11
 74
0
 42
0.0000001
 43
0.0000001
 44
0.0000000001
 40
0.0
 40
0.0
 40
0.0
 40
0.0
 40
0.1271651494
 40
0.2516421134
 40
0.3743791938
 40
0.4987444213
 40
0.6230100771
 40
0.7463537061
 40
0.8721420081
 40
1.0
 40
1.0
 40
1.0
 40
1.0
 10
122.4191765146
 20
127.9568627451
 30
0.0
 10
122.4167132982
 20
127.844426445
 30
0.0
 10
122.3749160536
 20
127.619293622
 30
0.0
 10
122.1830649678
 20
127.3385134228
 30
0.0
 10
121.9030571568
 20
127.1517271495
 30
0.0
 10
121.5727444461
 20
127.0850346914
 30
0.0
 10
121.241389426
 20
127.149130979
 30
0.0
 10
120.9585390106
 20
127.334791454
 30
0.0
 10
120.7641138952
 20
127.6168687112
 30
0.0
 10
120.7214952395
 20
127.8438105015
 30
0.0
 10
120.7191765146
 20
127.9568627451
 30
0.0
  0
ENDSEC
  0
SECTION
  2
OBJECTS
  0
DICTIONARY
  5
C
100
AcDbDictionary
280
0
281
1
  3
ACAD_GROUP
350
D
  3
ACAD_MLINESTYLE
350
17
  3
ACAD_LAYOUT
350
1A
  3
ACAD_PLOTSETTINGS
350
19
  3
ACAD_PLOTSTYLENAME
350
E
  0
DICTIONARY
  5
D
102
{ACAD_REACTORS
330
C
102
}
100
AcDbDictionary
280
0
281
1
  0
ACDBDICTIONARYWDFLT
  5
E
102
{ACAD_REACTORS
330
C
102
}
100
AcDbDictionary
281
1
  3
Normal
350
F
100
AcDbDictionaryWithDefault
340
F
  0
DICTIONARY
  5
17
102
{ACAD_REACTORS
330
C
102
}
100
AcDbDictionary
280
0
281
1
  3
Standard
350
18
  0
DICTIONARY
  5
19
102
{ACAD_REACTORS
330
C
102
}
100
AcDbDictionary
281
1
  0
DICTIONARY
  5
1A
102
{ACAD_REACTORS
330
C
102
}
100
AcDbDictionary
281
1
  3
Model
350
2B9
  3
Layout1
350
2BA
  0
ACDBPLACEHOLDER
  5
F
102
{ACAD_REACTORS
330
E
102
}
  0
MLINESTYLE
  5
18
102
{ACAD_REACTORS
330
17
102
}
100
AcDbMlineStyle
  2
STANDARD
 70
0
  3

 62
256
 51
90.0
 52
90.0
 71
2
 49
0.5
 62
256
  6
BYLAYER
 49
-0.5
 62
256
  6
BYLAYER
  0
LAYOUT
  5
2B9
102
{ACAD_REACTORS
330
1A
102
}
100
AcDbPlotSettings
  1

  2
none_device
  4

  6

 40
0.0
 41
0.0
 42
0.0
 43
0.0
 44
210.0
 45
297.0
 46
0.0
 47
0.0
 48
0.0
 49
0.0
140
0.0
141
0.0
142
1.0
143
1.0
 70
1024
 72
1
 73
0
 74
0
  7

 75
0
147
1.0
148
0.0
149
0.0
100
AcDbLayout
  1
Model
 70
0
 71
0
 10
0.0
 20
0.0
 11
210.0
 21
297.0
 12
0.0
 22
0.0
 32
0.0
 14
0.0
 24
0.0
 34
0.0
 15
0.0
 25
0.0
 35
0.0
146
0.0
 13
0.0
 23
0.0
 33
0.0
 16
1.0
 26
0.0
 36
0.0
 17
0.0
 27
1.0
 37
0.0
 76
0
330
212
345
0
346
0
  0
LAYOUT
  5
2BA
102
{ACAD_REACTORS
330
1A
102
}
100
AcDbPlotSettings
  1

  2
none_device
  4

  6

 40
0.0
 41
0.0
 42
0.0
 43
0.0
 44
210.0
 45
297.0
 46
0.0
 47
0.0
 48
0.0
 49
0.0
140
0.0
141
0.0
142
1.0
143
1.0
 70
0
 72
1
 73
0
 74
0
  7

 75
0
147
1.0
148
0.0
149
0.0
100
AcDbLayout
  1
Layout1
 70
0
 71
1
 10
0.0
 20
0.0
 11
210.0
 21
297.0
 12
0.0
 22
0.0
 32
0.0
 14
0.0
 24
0.0
 34
0.0
 15
0.0
 25
0.0
 35
0.0
146
0.0
 13
0.0
 23
0.0
 33
0.0
 16
1.0
 26
0.0
 36
0.0
 17
0.0
 27
1.0
 37
0.0
 76
0
330
213
345
0
346
0
  0
ENDSEC
  0
EOF
