999
DXF file: C:\2D\Gen2D\CAD\GV3P80_3D-CAD\drw0001_6.dxf
999
Pro/ENGINEER 2019471 by Parametric Technology Corporation
  0
SECTION
  2
HEADER
  9
$ACADVER
  1
AC1024
  9
$DWGCODEPAGE
  3
ANSI_1252
  9
$EXTMAX
 10
172.2032955374
 20
243.5446608315
 30
0.0
  9
$EXTMIN
 10
0.0
 20
0.0
 30
0.0
  9
$LIMMIN
 10
0.0
 20
0.0
  9
$LIMMAX
 10
172.2032955374
 20
243.5446608315
  9
$VIEWCTR
 10
86.1016477687
 20
121.7723304158
  9
$VIEWSIZE
 40
243.5446608315
  9
$CLAYER
  8
0
  9
$LTSCALE
 40
15.8755038172
  9
$CELTYPE
  6
BYLAYER
  9
$DIMSCALE
 40
1.0
  9
$DIMASZ
 40
2.0500392326
  9
$DIMEXO
 40
1.0
  9
$DIMDLI
 40
10.96852991
  9
$DIMEXE
 40
1.0
  9
$DIMCEN
 40
2.5978097155
  9
$DIMLFAC
 40
1.0
  9
$DIMBLK
  1
_FILLED
  9
$DIMALT
 70
0
  9
$DIMALTF
 40
0.0393700787
  9
$DIMTXT
 40
2.8700549256
  9
$DIMTOL
 70
1
  9
$DIMLIM
 70
0
  9
$DIMTFAC
 40
1.0
  9
$DIMTP
 40
0.01
  9
$DIMTM
 40
0.01
  9
$DIMGAP
 40
0.625
  9
$DIMDSEP
 70
46
  9
$AUNITS
 70
0
  9
$PDMODE
 70
3
  9
$PDSIZE
 40
0.3125
  9
$HANDSEED
  5
2CC
  9
$TILEMODE
 70
1
  9
$MEASUREMENT
 70
1
  9
$INSUNITS
 70
4
  0
ENDSEC
  0
SECTION
  2
CLASSES
  0
CLASS
  1
ACDBDICTIONARYWDFLT
  2
AcDbDictionaryWithDefault
  3
AutoCAD 2000
 90
0
 91
1
280
0
281
0
  0
CLASS
  1
ACDBPLACEHOLDER
  2
AcDbPlaceHolder
  3
AutoCAD 2000
 90
0
 91
1
280
0
281
0
  0
CLASS
  1
LAYOUT
  2
AcDbLayout
  3
AutoCAD 2000
 90
0
 91
0
280
0
281
0
  0
ENDSEC
  0
SECTION
  2
TABLES
  0
TABLE
  2
VPORT
  5
8
100
AcDbSymbolTable
 70
2
  0
VPORT
  5
1F4
100
AcDbSymbolTableRecord
100
AcDbViewportTableRecord
  2
*ACTIVE
 70
0
 10
0.0
 20
0.0
 11
1.0
 21
1.0
 12
86.1016477687
 22
121.7723304158
 13
0.0
 23
0.0
 14
1.0
 24
1.0
 15
0.0
 25
0.0
 16
0.0
 26
0.0
 36
1.0
 17
0.0
 27
0.0
 37
0.0
 40
243.5446608315
 41
0.7070707071
 42
50.0
 43
0.0
 44
0.0
 50
0.0
 51
0.0
 71
0
 72
100
 73
1
 74
1
 75
0
 76
0
 77
0
 78
0
  0
ENDTAB
  0
TABLE
  2
LTYPE
  5
5
100
AcDbSymbolTable
 70
6
  0
LTYPE
  5
14
100
AcDbSymbolTableRecord
100
AcDbLinetypeTableRecord
  2
BYBLOCK
 70
0
  3

 72
65
 73
0
 40
0.0
  0
LTYPE
  5
15
100
AcDbSymbolTableRecord
100
AcDbLinetypeTableRecord
  2
BYLAYER
 70
0
  3

 72
65
 73
0
 40
0.0
  0
LTYPE
  5
16
100
AcDbSymbolTableRecord
100
AcDbLinetypeTableRecord
  2
CONTINUOUS
 70
64
  3
Solid line
 72
65
 73
0
 40
0.0
  0
LTYPE
  5
1F5
100
AcDbSymbolTableRecord
100
AcDbLinetypeTableRecord
  2
CENTER
 70
64
  3
____ _ ____ _ ____ _ ____ _ ____ _ ____ _ ____
 72
65
 73
4
 40
0.6
 49
0.375
 74
0
 49
-0.075
 74
0
 49
0.075
 74
0
 49
-0.075
 74
0
  0
LTYPE
  5
1F6
100
AcDbSymbolTableRecord
100
AcDbLinetypeTableRecord
  2
HIDDEN
 70
64
  3
- - - - - - - - - - - - - - - - - - - -
 72
65
 73
2
 40
0.2
 49
0.1
 74
0
 49
-0.1
 74
0
  0
LTYPE
  5
1F7
100
AcDbSymbolTableRecord
100
AcDbLinetypeTableRecord
  2
PHANTOM
 70
64
  3
_____ _ _ _____ _ _ _____ _ _ _____
 72
65
 73
6
 40
0.8
 49
0.45
 74
0
 49
-0.05
 74
0
 49
0.1
 74
0
 49
-0.05
 74
0
 49
0.1
 74
0
 49
-0.05
 74
0
  0
LTYPE
  5
1F8
100
AcDbSymbolTableRecord
100
AcDbLinetypeTableRecord
  2
DOT
 70
64
  3
. . . . . . . . . . . . . . . . . . . .
 72
65
 73
2
 40
0.2
 49
0.1
 74
0
 49
-0.1
 74
0
  0
LTYPE
  5
1F9
100
AcDbSymbolTableRecord
100
AcDbLinetypeTableRecord
  2
DASHED
 70
64
  3
- - - - - - - - - - - - - - - - - - - -
 72
65
 73
2
 40
0.2
 49
0.1
 74
0
 49
-0.1
 74
0
  0
ENDTAB
  0
TABLE
  2
LAYER
  5
2
100
AcDbSymbolTable
 70
36
  0
LAYER
  5
10
100
AcDbSymbolTableRecord
100
AcDbLayerTableRecord
  2
0
 70
0
 62
7
  6
CONTINUOUS
370
-3
390
F
  0
LAYER
  5
1FA
100
AcDbSymbolTableRecord
100
AcDbLayerTableRecord
  2
DEFAULT_1
 70
0
 62
7
  6
CENTER
370
-3
390
F
  0
LAYER
  5
1FB
100
AcDbSymbolTableRecord
100
AcDbLayerTableRecord
  2
DEFAULT_2
 70
0
 62
8
  6
HIDDEN
370
-3
390
F
  0
LAYER
  5
1FC
100
AcDbSymbolTableRecord
100
AcDbLayerTableRecord
  2
DEFAULT_3
 70
0
 62
7
  6
PHANTOM
370
-3
390
F
  0
LAYER
  5
1FD
100
AcDbSymbolTableRecord
100
AcDbLayerTableRecord
  2
00_COMPONENTS
 70
0
 62
7
  6
CONTINUOUS
370
-3
390
F
  0
LAYER
  5
1FE
100
AcDbSymbolTableRecord
100
AcDbLayerTableRecord
  2
00_COMPONENTS_1
 70
0
 62
7
  6
CONTINUOUS
370
-3
390
F
  0
LAYER
  5
1FF
100
AcDbSymbolTableRecord
100
AcDbLayerTableRecord
  2
01_1_DEFAULT_DATUMS
 70
0
 62
7
  6
CONTINUOUS
370
-3
390
F
  0
LAYER
  5
200
100
AcDbSymbolTableRecord
100
AcDbLayerTableRecord
  2
01_PLANES
 70
0
 62
7
  6
CONTINUOUS
370
-3
390
F
  0
LAYER
  5
201
100
AcDbSymbolTableRecord
100
AcDbLayerTableRecord
  2
02_COORD_SYS
 70
0
 62
7
  6
CONTINUOUS
370
-3
390
F
  0
LAYER
  5
202
100
AcDbSymbolTableRecord
100
AcDbLayerTableRecord
  2
03_AXES
 70
0
 62
7
  6
CONTINUOUS
370
-3
390
F
  0
LAYER
  5
203
100
AcDbSymbolTableRecord
100
AcDbLayerTableRecord
  2
04_POINTS
 70
0
 62
7
  6
CONTINUOUS
370
-3
390
F
  0
LAYER
  5
204
100
AcDbSymbolTableRecord
100
AcDbLayerTableRecord
  2
05_CURVES
 70
0
 62
7
  6
CONTINUOUS
370
-3
390
F
  0
LAYER
  5
205
100
AcDbSymbolTableRecord
100
AcDbLayerTableRecord
  2
06_SURFS
 70
0
 62
7
  6
CONTINUOUS
370
-3
390
F
  0
LAYER
  5
206
100
AcDbSymbolTableRecord
100
AcDbLayerTableRecord
  2
07_COSMETICS
 70
0
 62
7
  6
CONTINUOUS
370
-3
390
F
  0
LAYER
  5
207
100
AcDbSymbolTableRecord
100
AcDbLayerTableRecord
  2
10_NOTES
 70
0
 62
7
  6
CONTINUOUS
370
-3
390
F
  0
LAYER
  5
208
100
AcDbSymbolTableRecord
100
AcDbLayerTableRecord
  2
11_NOTES_PUB
 70
0
 62
7
  6
CONTINUOUS
370
-3
390
F
  0
LAYER
  5
209
100
AcDbSymbolTableRecord
100
AcDbLayerTableRecord
  2
13_REF_GTOL
 70
0
 62
7
  6
CONTINUOUS
370
-3
390
F
  0
LAYER
  5
20A
100
AcDbSymbolTableRecord
100
AcDbLayerTableRecord
  2
16_MISC
 70
0
 62
7
  6
CONTINUOUS
370
-3
390
F
  0
LAYER
  5
20B
100
AcDbSymbolTableRecord
100
AcDbLayerTableRecord
  2
17_NO_PRINT
 70
0
 62
7
  6
CONTINUOUS
370
-3
390
F
  0
LAYER
  5
20C
100
AcDbSymbolTableRecord
100
AcDbLayerTableRecord
  2
18_DATUM_CAMS_JOINTS
 70
0
 62
7
  6
CONTINUOUS
370
-3
390
F
  0
LAYER
  5
20D
100
AcDbSymbolTableRecord
100
AcDbLayerTableRecord
  2
19_DATUM_FUNCTIONAL
 70
0
 62
7
  6
CONTINUOUS
370
-3
390
F
  0
LAYER
  5
20E
100
AcDbSymbolTableRecord
100
AcDbLayerTableRecord
  2
20_DATUM_KINEMATIC_SCHEME
 70
0
 62
7
  6
CONTINUOUS
370
-3
390
F
  0
LAYER
  5
20F
100
AcDbSymbolTableRecord
100
AcDbLayerTableRecord
  2
INTFCLR_5
 70
0
 62
7
  6
CONTINUOUS
370
-3
390
F
  0
ENDTAB
  0
TABLE
  2
STYLE
  5
3
100
AcDbSymbolTable
 70
1
  0
STYLE
  5
11
100
AcDbSymbolTableRecord
100
AcDbTextStyleTableRecord
  2
STANDARD
 70
0
 40
0.0
 41
0.8
 50
0.0
 71
0
 42
0.2
  3
txt
  4

  0
STYLE
  5
210
100
AcDbSymbolTableRecord
100
AcDbTextStyleTableRecord
  2
TEXTSTYLE_1
 70
0
 40
0.0
 41
0.8
 50
0.0
 71
0
 42
0.2
  3
gdt
  4

  0
ENDTAB
  0
TABLE
  2
VIEW
  5
6
100
AcDbSymbolTable
 70
0
  0
ENDTAB
  0
TABLE
  2
UCS
  5
7
100
AcDbSymbolTable
 70
0
  0
ENDTAB
  0
TABLE
  2
APPID
  5
9
100
AcDbSymbolTable
 70
1
  0
APPID
  5
211
100
AcDbSymbolTableRecord
100
AcDbRegAppTableRecord
  2
ACAD
 70
0
  0
ENDTAB
  0
TABLE
  2
BLOCK_RECORD
  5
1
100
AcDbSymbolTable
 70
0
  0
BLOCK_RECORD
  5
212
100
AcDbSymbolTableRecord
100
AcDbBlockTableRecord
  2
*Model_Space
  0
BLOCK_RECORD
  5
213
100
AcDbSymbolTableRecord
100
AcDbBlockTableRecord
  2
*Paper_Space
  0
BLOCK_RECORD
  5
214
100
AcDbSymbolTableRecord
100
AcDbBlockTableRecord
  2
_FILLED
  0
ENDTAB
  0
TABLE
  2
DIMSTYLE
  5
A
100
AcDbSymbolTable
 70
1
100
AcDbDimStyleTable
 71
0
  0
DIMSTYLE
105
215
100
AcDbSymbolTableRecord
100
AcDbDimStyleTableRecord
  2
STANDARD
 70
0
  3

  4

 40
1.0
 41
2.0500392326
 42
1.0
 43
0.38
 44
1.0
 45
0.0
 46
0.0
 47
0.01
 48
0.01
140
2.8700549256
141
0.09
142
0.0
143
25.4
144
1.0
145
0.0
146
1.0
147
0.625
 71
1
 72
0
 73
0
 74
0
 75
0
 76
0
 77
1
 78
8
 79
2
170
0
171
1
172
0
173
0
174
0
175
0
176
0
177
0
178
0
270
2
179
2
271
2
272
2
273
2
274
2
275
0
280
0
281
0
282
0
283
1
284
8
285
0
286
0
287
3
288
0
340
11
278
46
341
214
342
214
343
214
344
214
  0
ENDTAB
  0
ENDSEC
  0
SECTION
  2
BLOCKS
  0
BLOCK
  5
20
100
AcDbEntity
  8
0
100
AcDbBlockBegin
  2
*Model_Space
 70
0
 10
0.0
 20
0.0
 30
0.0
  3
*Model_Space
  1

  0
ENDBLK
  5
21
100
AcDbEntity
  8
0
100
AcDbBlockEnd
  0
BLOCK
  5
1C
100
AcDbEntity
  8
0
100
AcDbBlockBegin
  2
*Paper_Space
 70
0
 10
0.0
 20
0.0
 30
0.0
  3
*Paper_Space
  1

  0
ENDBLK
  5
1D
100
AcDbEntity
  8
0
100
AcDbBlockEnd
  0
BLOCK
  5
216
100
AcDbEntity
  8
0
100
AcDbBlockBegin
  2
_FILLED
 70
64
 10
0.0
 20
0.0
  3
_FILLED
  1

  0
SOLID
  5
217
100
AcDbEntity
  8
0
  6
BYBLOCK
 62
0
100
AcDbTrace
 10
0.0
 20
0.0
 11
-1.0
 21
0.25
 12
-1.0
 22
-0.25
 13
-1.0
 23
-0.25
  0
ENDBLK
  5
218
100
AcDbEntity
  8
0
  6
BYBLOCK
 62
0
100
AcDbBlockEnd
  0
ENDSEC
  0
SECTION
  2
ENTITIES
  0
LINE
  5
219
100
AcDbEntity
  8
00_COMPONENTS_1
100
AcDbLine
 62
7
  6
CONTINUOUS
 10
19.4771291692
 20
123.6473304158
 11
19.4771291692
 21
116.4973304158
  0
LINE
  5
21A
100
AcDbEntity
  8
00_COMPONENTS_1
100
AcDbLine
 62
7
  6
CONTINUOUS
 10
20.7771291692
 20
116.4973304158
 11
20.7771291692
 21
116.6256382189
  0
LINE
  5
21B
100
AcDbEntity
  8
00_COMPONENTS_1
100
AcDbLine
 62
7
  6
CONTINUOUS
 10
20.7771291692
 20
118.9723304158
 11
20.7771291692
 21
121.1723304115
  0
LINE
  5
21C
100
AcDbEntity
  8
00_COMPONENTS_1
100
AcDbLine
 62
7
  6
CONTINUOUS
 10
20.7771291692
 20
123.5190226084
 11
20.7771291692
 21
123.6473304158
  0
LINE
  5
21D
100
AcDbEntity
  8
00_COMPONENTS_1
100
AcDbLine
 62
7
  6
CONTINUOUS
 10
20.9771291692
 20
121.1723304115
 11
20.9771291692
 21
118.9723304158
  0
LINE
  5
21E
100
AcDbEntity
  8
00_COMPONENTS_1
100
AcDbLine
 62
7
  6
CONTINUOUS
 10
64.9071298721
 20
55.6223304158
 11
126.1571291692
 21
55.6223304158
  0
LINE
  5
21F
100
AcDbEntity
  8
00_COMPONENTS_1
100
AcDbLine
 62
7
  6
CONTINUOUS
 10
61.4071299081
 20
57.1223304158
 11
66.9453448481
 21
57.1223304158
  0
LINE
  5
220
100
AcDbEntity
  8
00_COMPONENTS_1
100
AcDbLine
 62
7
  6
CONTINUOUS
 10
148.8071291692
 20
57.1422021657
 11
144.5071291692
 21
57.1422021657
  0
LINE
  5
221
100
AcDbEntity
  8
00_COMPONENTS_1
100
AcDbLine
 62
7
  6
CONTINUOUS
 10
155.7071291692
 20
57.2532120052
 11
150.8071291692
 21
57.2532120052
  0
LINE
  5
222
100
AcDbEntity
  8
00_COMPONENTS_1
100
AcDbLine
 62
7
  6
CONTINUOUS
 10
126.1571291692
 20
57.2591797447
 11
123.4071291692
 21
57.2591797447
  0
LINE
  5
223
100
AcDbEntity
  8
00_COMPONENTS_1
100
AcDbLine
 62
7
  6
CONTINUOUS
 10
150.691592119
 20
57.2686767758
 11
149.0071291692
 21
57.2686767758
  0
LINE
  5
224
100
AcDbEntity
  8
00_COMPONENTS_1
100
AcDbLine
 62
7
  6
CONTINUOUS
 10
150.3071291692
 20
57.6760182448
 11
148.8071291692
 21
57.6760182448
  0
LINE
  5
225
100
AcDbEntity
  8
00_COMPONENTS_1
100
AcDbLine
 62
7
  6
CONTINUOUS
 10
144.5071291692
 20
57.9158891222
 11
155.7071291692
 21
57.9158891222
  0
LINE
  5
226
100
AcDbEntity
  8
00_COMPONENTS_1
100
AcDbLine
 62
7
  6
CONTINUOUS
 10
61.7731025654
 20
58.1961490994
 11
61.4948709974
 21
58.1961491003
  0
LINE
  5
227
100
AcDbEntity
  8
00_COMPONENTS_1
100
AcDbLine
 62
7
  6
CONTINUOUS
 10
29.7771291692
 20
116.4973304158
 11
29.7771291692
 21
116.6256382189
  0
LINE
  5
228
100
AcDbEntity
  8
00_COMPONENTS_1
100
AcDbLine
 62
7
  6
CONTINUOUS
 10
29.7771291692
 20
123.5190226084
 11
29.7771291692
 21
123.6473304158
  0
LINE
  5
229
100
AcDbEntity
  8
00_COMPONENTS_1
100
AcDbLine
 62
7
  6
CONTINUOUS
 10
30.0771291692
 20
134.2395573358
 11
30.0771291692
 21
105.9051551244
  0
LINE
  5
22A
100
AcDbEntity
  8
00_COMPONENTS_1
100
AcDbLine
 62
7
  6
CONTINUOUS
 10
126.1571291692
 20
62.3502594141
 11
123.4071291692
 21
62.3502594141
  0
LINE
  5
22B
100
AcDbEntity
  8
00_COMPONENTS_1
100
AcDbLine
 62
7
  6
CONTINUOUS
 10
123.4071291692
 20
64.0223304158
 11
143.7071291692
 21
64.0223304158
  0
LINE
  5
22C
100
AcDbEntity
  8
00_COMPONENTS_1
100
AcDbLine
 62
7
  6
CONTINUOUS
 10
35.2071291692
 20
142.5723304158
 11
35.2071291692
 21
97.5723304158
  0
LINE
  5
22D
100
AcDbEntity
  8
00_COMPONENTS_1
100
AcDbLine
 62
7
  6
CONTINUOUS
 10
143.7071291692
 20
65.7355047521
 11
144.5071291692
 21
65.7355047521
  0
LINE
  5
22E
100
AcDbEntity
  8
00_COMPONENTS_1
100
AcDbLine
 62
7
  6
CONTINUOUS
 10
143.7071291692
 20
66.0223304158
 11
155.7071291692
 21
66.0223304158
  0
LINE
  5
22F
100
AcDbEntity
  8
00_COMPONENTS_1
100
AcDbLine
 62
7
  6
CONTINUOUS
 10
39.2071291692
 20
101.5723304158
 11
39.2071291692
 21
77.8723304158
  0
LINE
  5
230
100
AcDbEntity
  8
00_COMPONENTS_1
100
AcDbLine
 62
7
  6
CONTINUOUS
 10
39.2071291692
 20
138.5723304158
 11
39.2071291692
 21
158.0723304158
  0
LINE
  5
231
100
AcDbEntity
  8
00_COMPONENTS_1
100
AcDbLine
 62
7
  6
CONTINUOUS
 10
43.2114545254
 20
77.8723304158
 11
43.2114545254
 21
98.7731427047
  0
LINE
  5
232
100
AcDbEntity
  8
00_COMPONENTS_1
100
AcDbLine
 62
7
  6
CONTINUOUS
 10
43.2114545254
 20
141.3715181268
 11
43.2114545254
 21
150.1223304158
  0
LINE
  5
233
100
AcDbEntity
  8
00_COMPONENTS_1
100
AcDbLine
 62
7
  6
CONTINUOUS
 10
63.4071291692
 20
77.8723304158
 11
39.2071291692
 21
77.8723304158
  0
LINE
  5
234
100
AcDbEntity
  8
00_COMPONENTS_1
100
AcDbLine
 62
7
  6
CONTINUOUS
 10
47.472803813
 20
150.1223304158
 11
47.472803813
 21
141.3731975
  0
LINE
  5
235
100
AcDbEntity
  8
00_COMPONENTS_1
100
AcDbLine
 62
7
  6
CONTINUOUS
 10
47.472803813
 20
98.7714633315
 11
47.472803813
 21
77.8723304158
  0
LINE
  5
236
100
AcDbEntity
  8
00_COMPONENTS_1
100
AcDbLine
 62
7
  6
CONTINUOUS
 10
52.4771291692
 20
158.0723304158
 11
52.4771291692
 21
150.1223304158
  0
LINE
  5
237
100
AcDbEntity
  8
00_COMPONENTS_1
100
AcDbLine
 62
7
  6
CONTINUOUS
 10
61.7797326554
 20
57.1223304158
 11
61.7731025654
 21
58.1961490932
  0
LINE
  5
238
100
AcDbEntity
  8
00_COMPONENTS_1
100
AcDbLine
 62
7
  6
CONTINUOUS
 10
59.2916725136
 20
186.4223304158
 11
59.2948709688
 21
185.348511949
  0
LINE
  5
239
100
AcDbEntity
  8
00_COMPONENTS_1
100
AcDbLine
 62
7
  6
CONTINUOUS
 10
62.788820051
 20
187.9223304158
 11
62.793271078
 21
186.4223304158
  0
LINE
  5
23A
100
AcDbEntity
  8
00_COMPONENTS_1
100
AcDbLine
 62
7
  6
CONTINUOUS
 10
59.2071291692
 20
158.0723304158
 11
59.2071291692
 21
174.5223304158
  0
LINE
  5
23B
100
AcDbEntity
  8
00_COMPONENTS_1
100
AcDbLine
 62
7
  6
CONTINUOUS
 10
59.2071291692
 20
182.3223304158
 11
59.2071291692
 21
186.4223304158
  0
LINE
  5
23C
100
AcDbEntity
  8
00_COMPONENTS_1
100
AcDbLine
 62
7
  6
CONTINUOUS
 10
61.2071291692
 20
186.4223304158
 11
61.2071291692
 21
158.0723304158
  0
LINE
  5
23D
100
AcDbEntity
  8
00_COMPONENTS_1
100
AcDbLine
 62
7
  6
CONTINUOUS
 10
61.4071291692
 20
77.8723304158
 11
61.4071291692
 21
69.0223304158
  0
LINE
  5
23E
100
AcDbEntity
  8
00_COMPONENTS_1
100
AcDbLine
 62
7
  6
CONTINUOUS
 10
61.4071291692
 20
61.2223304158
 11
61.4071291692
 21
57.1223304158
  0
LINE
  5
23F
100
AcDbEntity
  8
00_COMPONENTS_1
100
AcDbLine
 62
7
  6
CONTINUOUS
 10
62.7071291692
 20
186.4223304158
 11
62.7071291692
 21
187.9223304158
  0
LINE
  5
240
100
AcDbEntity
  8
00_COMPONENTS_1
100
AcDbLine
 62
7
  6
CONTINUOUS
 10
61.4948709974
 20
58.1961491003
 11
61.4916725301
 21
57.1223304158
  0
LINE
  5
241
100
AcDbEntity
  8
00_COMPONENTS_1
100
AcDbLine
 62
7
  6
CONTINUOUS
 10
59.5731025591
 20
185.3485117391
 11
59.579732649
 21
186.4223304158
  0
LINE
  5
242
100
AcDbEntity
  8
00_COMPONENTS_1
100
AcDbLine
 62
7
  6
CONTINUOUS
 10
63.0867890035
 20
186.4223304158
 11
63.096328064
 21
187.9223304158
  0
LINE
  5
243
100
AcDbEntity
  8
00_COMPONENTS_1
100
AcDbLine
 62
7
  6
CONTINUOUS
 10
150.4518122146
 20
106.5453025786
 11
150.9590954204
 21
106.6544166654
  0
LINE
  5
244
100
AcDbEntity
  8
00_COMPONENTS_1
100
AcDbLine
 62
7
  6
CONTINUOUS
 10
65.2963280706
 20
55.6223304158
 11
65.2867890101
 21
57.1223304158
  0
LINE
  5
245
100
AcDbEntity
  8
00_COMPONENTS_1
100
AcDbLine
 62
7
  6
CONTINUOUS
 10
63.4071291692
 20
77.8723304158
 11
63.4071291692
 21
57.1223304158
  0
LINE
  5
246
100
AcDbEntity
  8
00_COMPONENTS_1
100
AcDbLine
 62
7
  6
CONTINUOUS
 10
64.7453448481
 20
187.9223304158
 11
64.7453448481
 21
186.4223304158
  0
LINE
  5
247
100
AcDbEntity
  8
00_COMPONENTS_1
100
AcDbLine
 62
7
  6
CONTINUOUS
 10
64.9071291692
 20
57.1223304158
 11
64.9071291692
 21
55.6223304158
  0
LINE
  5
248
100
AcDbEntity
  8
00_COMPONENTS_1
100
AcDbLine
 62
7
  6
CONTINUOUS
 10
66.9453448481
 20
57.1223304158
 11
66.9453448481
 21
55.6223304158
  0
LINE
  5
249
100
AcDbEntity
  8
00_COMPONENTS_1
100
AcDbLine
 62
7
  6
CONTINUOUS
 10
64.9932710948
 20
57.1223304158
 11
64.9888200522
 21
55.6223304158
  0
LINE
  5
24A
100
AcDbEntity
  8
00_COMPONENTS_1
100
AcDbLine
 62
7
  6
CONTINUOUS
 10
39.2071291692
 20
97.5723304158
 11
35.2071291692
 21
97.5723304158
  0
LINE
  5
24B
100
AcDbEntity
  8
00_COMPONENTS_1
100
AcDbLine
 62
7
  6
CONTINUOUS
 10
155.6071291692
 20
99.3726767758
 11
154.9067828091
 21
99.3726767758
  0
LINE
  5
24C
100
AcDbEntity
  8
00_COMPONENTS_1
100
AcDbLine
 62
7
  6
CONTINUOUS
 10
154.2071291692
 20
100.0723304158
 11
150.2597831306
 21
100.0723304158
  0
LINE
  5
24D
100
AcDbEntity
  8
00_COMPONENTS_1
100
AcDbLine
 62
7
  6
CONTINUOUS
 10
155.3071291692
 20
101.0723304158
 11
153.8071291692
 21
101.0723304158
  0
LINE
  5
24E
100
AcDbEntity
  8
00_COMPONENTS_1
100
AcDbLine
 62
7
  6
CONTINUOUS
 10
150.0834561499
 20
101.0723304158
 11
150.460719008
 21
101.0723304158
  0
LINE
  5
24F
100
AcDbEntity
  8
00_COMPONENTS_1
100
AcDbLine
 62
7
  6
CONTINUOUS
 10
35.2071291692
 20
101.5723304158
 11
39.2071291692
 21
101.5723304158
  0
LINE
  5
250
100
AcDbEntity
  8
00_COMPONENTS_1
100
AcDbLine
 62
7
  6
CONTINUOUS
 10
148.9071291692
 20
102.0723304158
 11
149.9071291692
 21
102.0723304158
  0
LINE
  5
251
100
AcDbEntity
  8
00_COMPONENTS_1
100
AcDbLine
 62
7
  6
CONTINUOUS
 10
154.943435708
 20
102.2723304158
 11
155.6071291692
 21
102.2723304158
  0
LINE
  5
252
100
AcDbEntity
  8
00_COMPONENTS_1
100
AcDbLine
 62
7
  6
CONTINUOUS
 10
35.2071291692
 20
105.9048324416
 11
30.0771291692
 21
105.9048324416
  0
LINE
  5
253
100
AcDbEntity
  8
00_COMPONENTS_1
100
AcDbLine
 62
7
  6
CONTINUOUS
 10
29.7771291692
 20
116.4973304158
 11
19.4771291692
 21
116.4973304158
  0
LINE
  5
254
100
AcDbEntity
  8
00_COMPONENTS_1
100
AcDbLine
 62
7
  6
CONTINUOUS
 10
30.0771291692
 20
116.6256382189
 11
19.4771291692
 21
116.6256382189
  0
LINE
  5
255
100
AcDbEntity
  8
00_COMPONENTS_1
100
AcDbLine
 62
7
  6
CONTINUOUS
 10
19.4771291692
 20
118.9723304158
 11
20.9771291692
 21
118.9723304158
  0
LINE
  5
256
100
AcDbEntity
  8
00_COMPONENTS_1
100
AcDbLine
 62
7
  6
CONTINUOUS
 10
19.4771291692
 20
119.0723304158
 11
20.9771291692
 21
119.0723304158
  0
LINE
  5
257
100
AcDbEntity
  8
00_COMPONENTS_1
100
AcDbLine
 62
7
  6
CONTINUOUS
 10
19.4771291692
 20
121.0723304158
 11
20.9771291692
 21
121.0723304158
  0
LINE
  5
258
100
AcDbEntity
  8
00_COMPONENTS_1
100
AcDbLine
 62
7
  6
CONTINUOUS
 10
20.9771291692
 20
121.1723304115
 11
19.4771291692
 21
121.1723304115
  0
LINE
  5
259
100
AcDbEntity
  8
00_COMPONENTS_1
100
AcDbLine
 62
7
  6
CONTINUOUS
 10
19.4771291692
 20
123.5190226084
 11
30.0771291692
 21
123.5190226084
  0
LINE
  5
25A
100
AcDbEntity
  8
00_COMPONENTS_1
100
AcDbLine
 62
7
  6
CONTINUOUS
 10
29.7771291692
 20
123.6473304158
 11
19.4771291692
 21
123.6473304158
  0
LINE
  5
25B
100
AcDbEntity
  8
00_COMPONENTS_1
100
AcDbLine
 62
7
  6
CONTINUOUS
 10
35.2071291692
 20
134.2398283899
 11
30.0771291692
 21
134.2398283899
  0
LINE
  5
25C
100
AcDbEntity
  8
00_COMPONENTS_1
100
AcDbLine
 62
7
  6
CONTINUOUS
 10
150.8071291692
 20
100.8723304159
 11
150.0406968763
 21
101.3148303066
  0
LINE
  5
25D
100
AcDbEntity
  8
00_COMPONENTS_1
100
AcDbLine
 62
7
  6
CONTINUOUS
 10
155.7071291692
 20
153.8223304158
 11
152.2350696377
 21
151.3223304158
  0
LINE
  5
25E
100
AcDbEntity
  8
00_COMPONENTS_1
100
AcDbLine
 62
7
  6
CONTINUOUS
 10
150.941932437
 20
135.5676383386
 11
151.4359660276
 21
135.5676383386
  0
LINE
  5
25F
100
AcDbEntity
  8
00_COMPONENTS_1
100
AcDbLine
 62
7
  6
CONTINUOUS
 10
148.9071291692
 20
137.5676383386
 11
150.0071291692
 21
137.5676383386
  0
LINE
  5
260
100
AcDbEntity
  8
00_COMPONENTS_1
100
AcDbLine
 62
7
  6
CONTINUOUS
 10
39.2071291692
 20
138.5723304158
 11
35.2071291692
 21
138.5723304158
  0
LINE
  5
261
100
AcDbEntity
  8
00_COMPONENTS_1
100
AcDbLine
 62
7
  6
CONTINUOUS
 10
154.5071291692
 20
137.5723304158
 11
151.4359660276
 21
135.5676383386
  0
LINE
  5
262
100
AcDbEntity
  8
00_COMPONENTS_1
100
AcDbLine
 62
7
  6
CONTINUOUS
 10
35.2071291692
 20
142.5723304158
 11
39.2071291692
 21
142.5723304158
  0
LINE
  5
263
100
AcDbEntity
  8
00_COMPONENTS_1
100
AcDbLine
 62
7
  6
CONTINUOUS
 10
150.8199734264
 20
140.4949147439
 11
152.6814406546
 21
140.3320574639
  0
LINE
  5
264
100
AcDbEntity
  8
00_COMPONENTS_1
100
AcDbLine
 62
7
  6
CONTINUOUS
 10
52.4771291692
 20
150.1223304158
 11
39.2071291692
 21
150.1223304158
  0
LINE
  5
265
100
AcDbEntity
  8
00_COMPONENTS_1
100
AcDbLine
 62
7
  6
CONTINUOUS
 10
151.7350696377
 20
151.3223304158
 11
152.2350696377
 21
151.3223304158
  0
LINE
  5
266
100
AcDbEntity
  8
00_COMPONENTS_1
100
AcDbLine
 62
7
  6
CONTINUOUS
 10
149.9071291692
 20
153.3223304158
 11
151.0071291692
 21
153.3223304158
  0
LINE
  5
267
100
AcDbEntity
  8
00_COMPONENTS_1
100
AcDbLine
 62
7
  6
CONTINUOUS
 10
154.2071291692
 20
100.0723304158
 11
155.7071291692
 21
98.5723304158
  0
LINE
  5
268
100
AcDbEntity
  8
00_COMPONENTS_1
100
AcDbLine
 62
7
  6
CONTINUOUS
 10
123.4071291692
 20
64.0223304158
 11
123.4071291692
 21
55.6223304158
  0
LINE
  5
269
100
AcDbEntity
  8
00_COMPONENTS_1
100
AcDbLine
 62
7
  6
CONTINUOUS
 10
124.6071291692
 20
182.6223304158
 11
124.6071291692
 21
187.9223304158
  0
LINE
  5
26A
100
AcDbEntity
  8
00_COMPONENTS_1
100
AcDbLine
 62
7
  6
CONTINUOUS
 10
126.1571291692
 20
55.6223304158
 11
126.1571291692
 21
64.0223304158
  0
LINE
  5
26B
100
AcDbEntity
  8
00_COMPONENTS_1
100
AcDbLine
 62
7
  6
CONTINUOUS
 10
61.2071291692
 20
158.0723304158
 11
39.2071291692
 21
158.0723304158
  0
LINE
  5
26C
100
AcDbEntity
  8
00_COMPONENTS_1
100
AcDbLine
 62
7
  6
CONTINUOUS
 10
150.9590954204
 20
106.6544166654
 11
155.3071291692
 21
101.8723304158
  0
LINE
  5
26D
100
AcDbEntity
  8
00_COMPONENTS_1
100
AcDbLine
 62
7
  6
CONTINUOUS
 10
127.1071291692
 20
183.2153143284
 11
127.1071291692
 21
183.8796740605
  0
LINE
  5
26E
100
AcDbEntity
  8
00_COMPONENTS_1
100
AcDbLine
 62
7
  6
CONTINUOUS
 10
128.1071291692
 20
183.8796740605
 11
128.1071291692
 21
183.2153143284
  0
LINE
  5
26F
100
AcDbEntity
  8
00_COMPONENTS_1
100
AcDbLine
 62
7
  6
CONTINUOUS
 10
130.1071291692
 20
183.2153143284
 11
130.1071291692
 21
183.8796740605
  0
LINE
  5
270
100
AcDbEntity
  8
00_COMPONENTS_1
100
AcDbLine
 62
7
  6
CONTINUOUS
 10
131.1071291692
 20
183.8796740605
 11
131.1071291692
 21
183.2153143284
  0
LINE
  5
271
100
AcDbEntity
  8
00_COMPONENTS_1
100
AcDbLine
 62
7
  6
CONTINUOUS
 10
133.1071291692
 20
183.2153143284
 11
133.1071291692
 21
183.8796740605
  0
LINE
  5
272
100
AcDbEntity
  8
00_COMPONENTS_1
100
AcDbLine
 62
7
  6
CONTINUOUS
 10
134.1071291692
 20
183.8796740605
 11
134.1071291692
 21
183.2153143284
  0
LINE
  5
273
100
AcDbEntity
  8
00_COMPONENTS_1
100
AcDbLine
 62
7
  6
CONTINUOUS
 10
136.1071291692
 20
183.2153143284
 11
136.1071291692
 21
183.8796740605
  0
LINE
  5
274
100
AcDbEntity
  8
00_COMPONENTS_1
100
AcDbLine
 62
7
  6
CONTINUOUS
 10
137.1071291692
 20
183.8796740605
 11
137.1071291692
 21
183.2153143284
  0
LINE
  5
275
100
AcDbEntity
  8
00_COMPONENTS_1
100
AcDbLine
 62
7
  6
CONTINUOUS
 10
148.4570467594
 20
183.6884317569
 11
148.3571291691
 21
183.6710542036
  0
LINE
  5
276
100
AcDbEntity
  8
00_COMPONENTS_1
100
AcDbLine
 62
7
  6
CONTINUOUS
 10
139.1071291692
 20
183.2153143284
 11
139.1071291692
 21
183.8796740605
  0
LINE
  5
277
100
AcDbEntity
  8
00_COMPONENTS_1
100
AcDbLine
 62
7
  6
CONTINUOUS
 10
140.1071291692
 20
183.8796740605
 11
140.1071291692
 21
183.2153143284
  0
LINE
  5
278
100
AcDbEntity
  8
00_COMPONENTS_1
100
AcDbLine
 62
7
  6
CONTINUOUS
 10
143.7071291692
 20
66.0223304158
 11
143.7071291692
 21
64.0223304158
  0
LINE
  5
279
100
AcDbEntity
  8
00_COMPONENTS_1
100
AcDbLine
 62
7
  6
CONTINUOUS
 10
144.5071291692
 20
57.1422021657
 11
144.5071291692
 21
65.7355047521
  0
LINE
  5
27A
100
AcDbEntity
  8
00_COMPONENTS_1
100
AcDbLine
 62
7
  6
CONTINUOUS
 10
145.8811291692
 20
184.6223297518
 11
145.8811291692
 21
184.5421554514
  0
LINE
  5
27B
100
AcDbEntity
  8
00_COMPONENTS_1
100
AcDbLine
 62
7
  6
CONTINUOUS
 10
145.8811291692
 20
184.4631066832
 11
145.8811291692
 21
184.3702607801
  0
LINE
  5
27C
100
AcDbEntity
  8
00_COMPONENTS_1
100
AcDbLine
 62
7
  6
CONTINUOUS
 10
145.8811291692
 20
184.2403655983
 11
145.8811291692
 21
183.2153142786
  0
LINE
  5
27D
100
AcDbEntity
  8
00_COMPONENTS_1
100
AcDbLine
 62
7
  6
CONTINUOUS
 10
148.1071291692
 20
182.9655189145
 11
148.1071291692
 21
183.6564495837
  0
LINE
  5
27E
100
AcDbEntity
  8
00_COMPONENTS_1
100
AcDbLine
 62
7
  6
CONTINUOUS
 10
148.1071291692
 20
183.7198715786
 11
148.1071291692
 21
184.2045099857
  0
LINE
  5
27F
100
AcDbEntity
  8
00_COMPONENTS_1
100
AcDbLine
 62
7
  6
CONTINUOUS
 10
148.3571291691
 20
182.9655189145
 11
148.3571291691
 21
183.6710542036
  0
LINE
  5
280
100
AcDbEntity
  8
00_COMPONENTS_1
100
AcDbLine
 62
7
  6
CONTINUOUS
 10
148.4571291691
 20
183.6884317813
 11
148.4571291691
 21
182.9655189145
  0
LINE
  5
281
100
AcDbEntity
  8
00_COMPONENTS_1
100
AcDbLine
 62
7
  6
CONTINUOUS
 10
148.8071291692
 20
57.1422021657
 11
148.8071291692
 21
57.6760182449
  0
LINE
  5
282
100
AcDbEntity
  8
00_COMPONENTS_1
100
AcDbLine
 62
7
  6
CONTINUOUS
 10
148.9071291692
 20
137.57076639
 11
148.9071291692
 21
102.0723304158
  0
LINE
  5
283
100
AcDbEntity
  8
00_COMPONENTS_1
100
AcDbLine
 62
7
  6
CONTINUOUS
 10
149.0071291692
 20
57.2686767758
 11
149.0071291692
 21
57.6760182448
  0
LINE
  5
284
100
AcDbEntity
  8
00_COMPONENTS_1
100
AcDbLine
 62
7
  6
CONTINUOUS
 10
149.3071291697
 20
102.0723304158
 11
149.3071291697
 21
103.0223304161
  0
LINE
  5
285
100
AcDbEntity
  8
00_COMPONENTS_1
100
AcDbLine
 62
7
  6
CONTINUOUS
 10
149.9071291692
 20
141.491109442
 11
149.9071291692
 21
153.3223304158
  0
LINE
  5
286
100
AcDbEntity
  8
00_COMPONENTS_1
100
AcDbLine
 62
7
  6
CONTINUOUS
 10
149.9071291692
 20
182.9655189145
 11
149.9071291692
 21
184.2045099857
  0
LINE
  5
287
100
AcDbEntity
  8
00_COMPONENTS_1
100
AcDbLine
 62
7
  6
CONTINUOUS
 10
150.2071291692
 20
57.2686767758
 11
150.2071291692
 21
57.6760182449
  0
LINE
  5
288
100
AcDbEntity
  8
00_COMPONENTS_1
100
AcDbLine
 62
7
  6
CONTINUOUS
 10
150.3071291692
 20
57.6760182449
 11
150.3071291692
 21
57.3218506201
  0
LINE
  5
289
100
AcDbEntity
  8
00_COMPONENTS_1
100
AcDbLine
 62
7
  6
CONTINUOUS
 10
150.8071291692
 20
100.0723304158
 11
150.8071291692
 21
100.8723304159
  0
LINE
  5
28A
100
AcDbEntity
  8
00_COMPONENTS_1
100
AcDbLine
 62
7
  6
CONTINUOUS
 10
148.3571291691
 20
183.6710542036
 11
148.1071291692
 21
183.6564495837
  0
LINE
  5
28B
100
AcDbEntity
  8
00_COMPONENTS_1
100
AcDbLine
 62
7
  6
CONTINUOUS
 10
155.7071291692
 20
182.6223304158
 11
124.6071291692
 21
182.6223304158
  0
LINE
  5
28C
100
AcDbEntity
  8
00_COMPONENTS_1
100
AcDbLine
 62
7
  6
CONTINUOUS
 10
153.9071291692
 20
182.8981390547
 11
155.7071291692
 21
182.8981390547
  0
LINE
  5
28D
100
AcDbEntity
  8
00_COMPONENTS_1
100
AcDbLine
 62
7
  6
CONTINUOUS
 10
148.1071291692
 20
182.9655189145
 11
149.9071291692
 21
182.9655189145
  0
LINE
  5
28E
100
AcDbEntity
  8
00_COMPONENTS_1
100
AcDbLine
 62
7
  6
CONTINUOUS
 10
145.8811291692
 20
183.2153143284
 11
124.6071291692
 21
183.2153143284
  0
LINE
  5
28F
100
AcDbEntity
  8
00_COMPONENTS_1
100
AcDbLine
 62
7
  6
CONTINUOUS
 10
151.1940446161
 20
183.3354149689
 11
153.9071291692
 21
183.3354149689
  0
LINE
  5
290
100
AcDbEntity
  8
00_COMPONENTS_1
100
AcDbLine
 62
7
  6
CONTINUOUS
 10
155.5071291692
 20
183.6236828204
 11
154.0071291692
 21
183.6236828204
  0
LINE
  5
291
100
AcDbEntity
  8
00_COMPONENTS_1
100
AcDbLine
 62
7
  6
CONTINUOUS
 10
153.9071291692
 20
183.9846265996
 11
150.5448329854
 21
183.9846265996
  0
LINE
  5
292
100
AcDbEntity
  8
00_COMPONENTS_1
100
AcDbLine
 62
7
  6
CONTINUOUS
 10
149.9071291692
 20
184.2045099857
 11
148.1071291692
 21
184.2045099857
  0
LINE
  5
293
100
AcDbEntity
  8
00_COMPONENTS_1
100
AcDbLine
 62
7
  6
CONTINUOUS
 10
155.7071291692
 20
184.2371726265
 11
155.5071291692
 21
184.2371726265
  0
LINE
  5
294
100
AcDbEntity
  8
00_COMPONENTS_1
100
AcDbLine
 62
7
  6
CONTINUOUS
 10
154.0071291692
 20
184.2371726265
 11
153.9071291692
 21
184.2371726265
  0
LINE
  5
295
100
AcDbEntity
  8
00_COMPONENTS_1
100
AcDbLine
 62
7
  6
CONTINUOUS
 10
145.8811291692
 20
184.2403655513
 11
124.6071291692
 21
184.2403655513
  0
LINE
  5
296
100
AcDbEntity
  8
00_COMPONENTS_1
100
AcDbLine
 62
7
  6
CONTINUOUS
 10
124.6071291692
 20
184.3702607801
 11
145.8811291692
 21
184.3702607801
  0
LINE
  5
297
100
AcDbEntity
  8
00_COMPONENTS_1
100
AcDbLine
 62
7
  6
CONTINUOUS
 10
145.8811291692
 20
184.4631066832
 11
124.6071291692
 21
184.4631066832
  0
LINE
  5
298
100
AcDbEntity
  8
00_COMPONENTS_1
100
AcDbLine
 62
7
  6
CONTINUOUS
 10
145.8811291692
 20
184.5421554431
 11
124.6071291692
 21
184.5421554431
  0
LINE
  5
299
100
AcDbEntity
  8
00_COMPONENTS_1
100
AcDbLine
 62
7
  6
CONTINUOUS
 10
145.8811291692
 20
184.6223304158
 11
155.7071291692
 21
184.6223304158
  0
LINE
  5
29A
100
AcDbEntity
  8
00_COMPONENTS_1
100
AcDbLine
 62
7
  6
CONTINUOUS
 10
59.5731025591
 20
185.3485119353
 11
59.2948709688
 21
185.348511949
  0
LINE
  5
29B
100
AcDbEntity
  8
00_COMPONENTS_1
100
AcDbLine
 62
7
  6
CONTINUOUS
 10
149.9071291692
 20
141.491109442
 11
150.8199734264
 21
140.4949147439
  0
LINE
  5
29C
100
AcDbEntity
  8
00_COMPONENTS_1
100
AcDbLine
 62
7
  6
CONTINUOUS
 10
152.6814406546
 20
140.3320574639
 11
154.5071291692
 21
138.3396680677
  0
LINE
  5
29D
100
AcDbEntity
  8
00_COMPONENTS_1
100
AcDbLine
 62
7
  6
CONTINUOUS
 10
150.941932437
 20
135.5676383386
 11
150.0071291692
 21
137.57076639
  0
LINE
  5
29E
100
AcDbEntity
  8
00_COMPONENTS_1
100
AcDbLine
 62
7
  6
CONTINUOUS
 10
149.9071291692
 20
102.0723304158
 11
150.2597831306
 21
100.0723304158
  0
LINE
  5
29F
100
AcDbEntity
  8
00_COMPONENTS_1
100
AcDbLine
 62
7
  6
CONTINUOUS
 10
153.8071291692
 20
101.0723304158
 11
153.8071291692
 21
100.0723304158
  0
LINE
  5
2A0
100
AcDbEntity
  8
00_COMPONENTS_1
100
AcDbLine
 62
7
  6
CONTINUOUS
 10
153.9071291692
 20
182.8981390547
 11
153.9071291692
 21
184.2371726265
  0
LINE
  5
2A1
100
AcDbEntity
  8
00_COMPONENTS_1
100
AcDbLine
 62
7
  6
CONTINUOUS
 10
154.0071291692
 20
184.6223148786
 11
154.0071291692
 21
182.8981390547
  0
LINE
  5
2A2
100
AcDbEntity
  8
00_COMPONENTS_1
100
AcDbLine
 62
7
  6
CONTINUOUS
 10
154.4071291692
 20
99.8723304158
 11
154.4071291692
 21
101.0723304158
  0
LINE
  5
2A3
100
AcDbEntity
  8
00_COMPONENTS_1
100
AcDbLine
 62
7
  6
CONTINUOUS
 10
154.5071291692
 20
137.5723304158
 11
154.5071291692
 21
138.3396680677
  0
LINE
  5
2A4
100
AcDbEntity
  8
00_COMPONENTS_1
100
AcDbLine
 62
7
  6
CONTINUOUS
 10
155.3071291692
 20
101.8723304158
 11
155.3071291692
 21
101.0723304158
  0
LINE
  5
2A5
100
AcDbEntity
  8
00_COMPONENTS_1
100
AcDbLine
 62
7
  6
CONTINUOUS
 10
155.5071291692
 20
182.8981390547
 11
155.5071291692
 21
184.6223148786
  0
LINE
  5
2A6
100
AcDbEntity
  8
00_COMPONENTS_1
100
AcDbLine
 62
7
  6
CONTINUOUS
 10
155.6071291692
 20
98.6723304158
 11
155.6071291692
 21
102.2723304158
  0
LINE
  5
2A7
100
AcDbEntity
  8
00_COMPONENTS_1
100
AcDbLine
 62
7
  6
CONTINUOUS
 10
155.7071291692
 20
57.2532120052
 11
155.7071291692
 21
98.5723304158
  0
LINE
  5
2A8
100
AcDbEntity
  8
00_COMPONENTS_1
100
AcDbLine
 62
7
  6
CONTINUOUS
 10
155.7071291692
 20
153.8223304158
 11
155.7071291692
 21
184.6223150724
  0
LINE
  5
2A9
100
AcDbEntity
  8
00_COMPONENTS_1
100
AcDbLine
 62
7
  6
CONTINUOUS
 10
149.3071291697
 20
103.0223304161
 11
150.4518122146
 21
106.5453025786
  0
LINE
  5
2AA
100
AcDbEntity
  8
00_COMPONENTS_1
100
AcDbLine
 62
7
  6
CONTINUOUS
 10
59.2071299081
 20
186.4223304158
 11
64.7453448481
 21
186.4223304158
  0
LINE
  5
2AB
100
AcDbEntity
  8
00_COMPONENTS_1
100
AcDbLine
 62
7
  6
CONTINUOUS
 10
62.7071298721
 20
187.9223304158
 11
124.6071291692
 21
187.9223304158
  0
LINE
  5
2AC
100
AcDbEntity
  8
00_COMPONENTS_1
100
AcDbLine
 62
7
  6
CONTINUOUS
 10
148.1071291692
 20
183.7198715786
 11
148.3571291691
 21
183.7056479839
  0
LINE
  5
2AD
100
AcDbEntity
  8
00_COMPONENTS_1
100
AcDbLine
 62
7
  6
CONTINUOUS
 10
151.7350696377
 20
151.3223304158
 11
151.0071291692
 21
153.3223304158
  0
LINE
  5
2AE
100
AcDbEntity
  8
00_COMPONENTS_1
100
AcDbLine
 62
7
  6
CONTINUOUS
 10
148.3571291691
 20
183.7056479838
 11
148.4570467594
 21
183.6884317569
  0
LINE
  5
2AF
100
AcDbEntity
  8
00_COMPONENTS_1
100
AcDbLine
 62
7
  6
CONTINUOUS
 10
151.1940446161
 20
183.3354149688
 11
150.5448329854
 21
183.9846265996
  0
ARC
  5
2B0
100
AcDbEntity
  8
00_COMPONENTS_1
100
AcDbCircle
 62
7
  6
CONTINUOUS
 10
-132.8821332942
 20
178.3874038467
 40
192.1295741461
100
AcDbArc
 50
0.0104156011
 51
1.1737174688
  0
ARC
  5
2B1
100
AcDbEntity
  8
00_COMPONENTS_1
100
AcDbCircle
 62
7
  6
CONTINUOUS
 10
97.9183791692
 20
120.0723304158
 40
58.7069246438
100
AcDbArc
 50
158.7274161134
 51
201.2725838867
  0
ARC
  5
2B2
100
AcDbEntity
  8
00_COMPONENTS_1
100
AcDbCircle
 62
7
  6
CONTINUOUS
 10
98.4674219092
 20
120.0723304158
 40
55.2646180963
100
AcDbArc
 50
157.3293090458
 51
202.6706909542
  0
ARC
  5
2B3
100
AcDbEntity
  8
00_COMPONENTS_1
100
AcDbCircle
 62
7
  6
CONTINUOUS
 10
149.9181061981
 20
156.554049407
 40
27.3672552272
100
AcDbArc
 50
88.5364717863
 51
90.0229813857
  0
SPLINE
  5
2B4
100
AcDbEntity
  8
00_COMPONENTS_1
100
AcDbSpline
 62
7
  6
CONTINUOUS
 70
0
 71
3
 72
16
 73
12
 74
0
 42
0.0000001
 43
0.0000001
 44
0.0000000001
 40
0.0
 40
0.0
 40
0.0
 40
0.0
 40
0.0102826101
 40
0.0272615421
 40
0.0859760815
 40
0.1782502573
 40
0.3016711052
 40
0.4513837146
 40
0.6220621679
 40
0.8074279924
 40
1.0
 40
1.0
 40
1.0
 40
1.0
 10
62.220398033
 20
61.221723401
 30
0.0
 10
62.2339682929
 20
61.2217515846
 30
0.0
 10
62.2666250748
 20
61.2456476457
 30
0.0
 10
62.3190529726
 20
61.345339146
 30
0.0
 10
62.3803978743
 20
61.5611840569
 30
0.0
 10
62.444539414
 20
61.9167323525
 30
0.0
 10
62.5043124456
 20
62.395873828
 30
0.0
 10
62.5555626131
 20
62.979269704
 30
0.0
 10
62.5945790931
 20
63.64572797
 30
0.0
 10
62.618992876
 20
64.3693881134
 30
0.0
 10
62.6245815788
 20
64.8681869839
 30
0.0
 10
62.6245815788
 20
65.1223304158
 30
0.0
  0
SPLINE
  5
2B5
100
AcDbEntity
  8
00_COMPONENTS_1
100
AcDbSpline
 62
7
  6
CONTINUOUS
 70
0
 71
3
 72
16
 73
12
 74
0
 42
0.0000001
 43
0.0000001
 44
0.0000000001
 40
0.0
 40
0.0
 40
0.0
 40
0.0
 40
0.0102826101
 40
0.0272615421
 40
0.0859760815
 40
0.1782502573
 40
0.3016711052
 40
0.4513837147
 40
0.622062168
 40
0.8074279924
 40
1.0
 40
1.0
 40
1.0
 40
1.0
 10
60.020398033
 20
174.521723401
 30
0.0
 10
60.0339682929
 20
174.5217515846
 30
0.0
 10
60.0666250748
 20
174.5456476457
 30
0.0
 10
60.1190529726
 20
174.645339146
 30
0.0
 10
60.1803978743
 20
174.861184057
 30
0.0
 10
60.2445394141
 20
175.2167323528
 30
0.0
 10
60.3043124456
 20
175.6958738286
 30
0.0
 10
60.3555626131
 20
176.2792697047
 30
0.0
 10
60.3945790931
 20
176.945727971
 30
0.0
 10
60.418992876
 20
177.6693881147
 30
0.0
 10
60.4245815788
 20
178.1681869853
 30
0.0
 10
60.4245815788
 20
178.4223304173
 30
0.0
  0
SPLINE
  5
2B6
100
AcDbEntity
  8
00_COMPONENTS_1
100
AcDbSpline
 62
7
  6
CONTINUOUS
 70
0
 71
3
 72
14
 73
10
 74
0
 42
0.0000001
 43
0.0000001
 44
0.0000000001
 40
0.0
 40
0.0
 40
0.0
 40
0.0
 40
0.0185610452
 40
0.0564742052
 40
0.1182699575
 40
0.207634058
 40
0.3300933404
 40
0.4949394349
 40
1.0
 40
1.0
 40
1.0
 40
1.0
 10
59.4101173972
 20
183.9223299693
 30
0.0
 10
59.4190838627
 20
183.9223298554
 30
0.0
 10
59.4396065196
 20
183.9477768077
 30
0.0
 10
59.4572828432
 20
183.9989778976
 30
0.0
 10
59.480608547
 20
184.0890794368
 30
0.0
 10
59.5027710175
 20
184.2187312903
 30
0.0
 10
59.5261812988
 20
184.3995246879
 30
0.0
 10
59.560435556
 20
184.7806562022
 30
0.0
 10
59.5716029325
 20
185.104531805
 30
0.0
 10
59.5731025591
 20
185.3485117391
 30
0.0
  0
SPLINE
  5
2B7
100
AcDbEntity
  8
00_COMPONENTS_1
100
AcDbSpline
 62
7
  6
CONTINUOUS
 70
0
 71
3
 72
13
 73
9
 74
0
 42
0.0000001
 43
0.0000001
 44
0.0000000001
 40
0.0
 40
0.0
 40
0.0
 40
0.0
 40
0.0194812288
 40
0.0763216055
 40
0.1685769646
 40
0.2930669828
 40
0.6173322294
 40
1.0
 40
1.0
 40
1.0
 40
1.0
 10
59.2071291707
 20
174.5217166784
 30
0.0
 10
59.2072841369
 20
174.5470475477
 30
0.0
 10
59.2101485537
 20
174.6462565415
 30
0.0
 10
59.2136888667
 20
174.8654238709
 30
0.0
 10
59.2205781074
 20
175.2211020651
 30
0.0
 10
59.2314869613
 20
175.9244908424
 30
0.0
 10
59.2438583293
 20
177.0055229382
 30
0.0
 10
59.2474376772
 20
177.9247494512
 30
0.0
 10
59.2474376772
 20
178.4223304158
 30
0.0
  0
SPLINE
  5
2B8
100
AcDbEntity
  8
00_COMPONENTS_1
100
AcDbSpline
 62
7
  6
CONTINUOUS
 70
0
 71
3
 72
16
 73
12
 74
0
 42
0.0000001
 43
0.0000001
 44
0.0000000001
 40
0.0
 40
0.0
 40
0.0
 40
0.0
 40
0.0048270971
 40
0.0192255851
 40
0.0430700162
 40
0.0761459156
 40
0.1685575551
 40
0.29292222
 40
0.4444727725
 40
0.617317134
 40
1.0
 40
1.0
 40
1.0
 40
1.0
 10
61.4071330876
 20
69.0223304156
 30
0.0
 10
61.4075756653
 20
69.0160703755
 30
0.0
 10
61.4073383734
 20
68.9910461505
 30
0.0
 10
61.4092036507
 20
68.9350960263
 30
0.0
 10
61.4106515877
 20
68.8423749802
 30
0.0
 10
61.4146728485
 20
68.6482777075
 30
0.0
 10
61.4203826295
 20
68.3234921727
 30
0.0
 10
61.4280804601
 20
67.8446975274
 30
0.0
 10
61.4356607889
 20
67.2613164432
 30
0.0
 10
61.444584256
 20
66.3420935569
 30
0.0
 10
61.4474376772
 20
65.6198529652
 30
0.0
 10
61.4474376772
 20
65.1223304158
 30
0.0
  0
SPLINE
  5
2B9
100
AcDbEntity
  8
00_COMPONENTS_1
100
AcDbSpline
 62
7
  6
CONTINUOUS
 70
0
 71
3
 72
9
 73
5
 74
0
 42
0.0000001
 43
0.0000001
 44
0.0000000001
 40
0.0
 40
0.0
 40
0.0
 40
0.0
 40
0.2594507959
 40
1.0
 40
1.0
 40
1.0
 40
1.0
 10
149.9071291692
 20
183.4219397278
 30
0.0
 10
150.0081721177
 20
183.4219397278
 30
0.0
 10
150.3976102679
 20
183.4246547706
 30
0.0
 10
150.7870276022
 20
183.4375258779
 30
0.0
 10
151.0749324847
 20
183.4545271002
 30
0.0
  0
SPLINE
  5
2BA
100
AcDbEntity
  8
00_COMPONENTS_1
100
AcDbSpline
 62
7
  6
CONTINUOUS
 70
0
 71
3
 72
16
 73
12
 74
0
 42
0.0000001
 43
0.0000001
 44
0.0000000001
 40
0.0
 40
0.0
 40
0.0
 40
0.0
 40
0.3826814339
 40
0.5555256211
 40
0.7070765706
 40
0.8314419007
 40
0.9238539328
 40
0.9569299354
 40
0.9807743418
 40
0.995172915
 40
1.0
 40
1.0
 40
1.0
 40
1.0
 10
61.4474376772
 20
65.1223304158
 30
0.0
 10
61.4474376772
 20
64.6248097281
 30
0.0
 10
61.4445700366
 20
63.9023682623
 30
0.0
 10
61.4356810384
 20
62.9836386394
 30
0.0
 10
61.4280189308
 20
62.3990893903
 30
0.0
 10
61.4205485484
 20
61.9235340576
 30
0.0
 10
61.4143431568
 20
61.5916863441
 30
0.0
 10
61.4110074944
 20
61.4073561954
 30
0.0
 10
61.4084091893
 20
61.2982464335
 30
0.0
 10
61.4085922376
 20
61.2714775043
 30
0.0
 10
61.4066967669
 20
61.2160699508
 30
0.0
 10
61.4071330642
 20
61.2223304159
 30
0.0
  0
SPLINE
  5
2BB
100
AcDbEntity
  8
00_COMPONENTS_1
100
AcDbSpline
 62
7
  6
CONTINUOUS
 70
0
 71
3
 72
18
 73
14
 74
0
 42
0.0000001
 43
0.0000001
 44
0.0000000001
 40
0.0
 40
0.0
 40
0.0
 40
0.0
 40
0.1925653316
 40
0.3779244194
 40
0.5485801758
 40
0.6982593867
 40
0.8216449532
 40
0.8719057559
 40
0.9139219423
 40
0.9475497885
 40
0.9727482672
 40
0.9897284314
 40
1.0
 40
1.0
 40
1.0
 40
1.0
 10
60.4245815788
 20
178.4223304173
 30
0.0
 10
60.4245815788
 20
178.6764905977
 30
0.0
 10
60.4189872754
 20
179.1753186471
 30
0.0
 10
60.3945672594
 20
179.899017565
 30
0.0
 10
60.355587632
 20
180.5654165606
 30
0.0
 10
60.3042487752
 20
181.1488846467
 30
0.0
 10
60.2515780703
 20
181.5725592207
 30
0.0
 10
60.2037382599
 20
181.8531967319
 30
0.0
 10
60.169013383
 20
182.0158031929
 30
0.0
 10
60.1344782551
 20
182.1443237579
 30
0.0
 10
60.0986067046
 20
182.2383643683
 30
0.0
 10
60.0666633313
 20
182.2990823753
 30
0.0
 10
60.0339551723
 20
182.3229640225
 30
0.0
 10
60.0203981131
 20
182.3229399534
 30
0.0
  0
SPLINE
  5
2BC
100
AcDbEntity
  8
00_COMPONENTS_1
100
AcDbSpline
 62
7
  6
CONTINUOUS
 70
0
 71
3
 72
18
 73
14
 74
0
 42
0.0000001
 43
0.0000001
 44
0.0000000001
 40
0.0
 40
0.0
 40
0.0
 40
0.0
 40
0.1926066759
 40
0.3779276801
 40
0.5486071246
 40
0.6983853696
 40
0.8216496331
 40
0.8719394338
 40
0.9140722516
 40
0.9477798642
 40
0.9729147451
 40
0.989763282
 40
1.0
 40
1.0
 40
1.0
 40
1.0
 10
62.6245815788
 20
65.1223304158
 30
0.0
 10
62.6245815788
 20
65.3765207549
 30
0.0
 10
62.6190396554
 20
65.8753056138
 30
0.0
 10
62.5945690918
 20
66.5989708138
 30
0.0
 10
62.5555088886
 20
67.2654092975
 30
0.0
 10
62.5043679874
 20
67.8488434634
 30
0.0
 10
62.4515267176
 20
68.2724636279
 30
0.0
 10
62.4036587714
 20
68.5531032697
 30
0.0
 10
62.3689940245
 20
68.7159992128
 30
0.0
 10
62.3345543704
 20
68.8447391224
 30
0.0
 10
62.2987542271
 20
68.9385780875
 30
0.0
 10
62.2666025519
 20
68.9990086331
 30
0.0
 10
62.2339078334
 20
69.022288118
 30
0.0
 10
62.2203980495
 20
69.0222821537
 30
0.0
  0
SPLINE
  5
2BD
100
AcDbEntity
  8
00_COMPONENTS_1
100
AcDbSpline
 62
7
  6
CONTINUOUS
 70
0
 71
3
 72
14
 73
10
 74
0
 42
0.0000001
 43
0.0000001
 44
0.0000000001
 40
0.0
 40
0.0
 40
0.0
 40
0.0
 40
0.5050605987
 40
0.6699067407
 40
0.7923661
 40
0.8817302491
 40
0.9435257144
 40
0.981439111
 40
1.0
 40
1.0
 40
1.0
 40
1.0
 10
61.7731025654
 20
58.1961490932
 30
0.0
 10
61.7716029389
 20
58.4401290199
 30
0.0
 10
61.7604355381
 20
58.7640046199
 30
0.0
 10
61.726181318
 20
59.1451361942
 30
0.0
 10
61.7027709221
 20
59.325929619
 30
0.0
 10
61.6806087298
 20
59.4555814755
 30
0.0
 10
61.6572824328
 20
59.5456827966
 30
0.0
 10
61.6396068388
 20
59.5968840507
 30
0.0
 10
61.6190838116
 20
59.6223309056
 30
0.0
 10
61.6101174224
 20
59.6223306389
 30
0.0
  0
SPLINE
  5
2BE
100
AcDbEntity
  8
00_COMPONENTS_1
100
AcDbSpline
 62
7
  6
CONTINUOUS
 70
0
 71
3
 72
14
 73
10
 74
0
 42
0.0000001
 43
0.0000001
 44
0.0000000001
 40
0.0
 40
0.0
 40
0.0
 40
0.0
 40
0.0180645736
 40
0.0553056477
 40
0.11654598
 40
0.2055578688
 40
0.3279428909
 40
0.4930792618
 40
1.0
 40
1.0
 40
1.0
 40
1.0
 10
61.6101174224
 20
59.6223306389
 30
0.0
 10
61.6014282347
 20
59.6223303804
 30
0.0
 10
61.5818562756
 20
59.5966951122
 30
0.0
 10
61.5678906959
 20
59.5454563158
 30
0.0
 10
61.5496344982
 20
59.4553854771
 30
0.0
 10
61.5346882692
 20
59.3257527375
 30
0.0
 10
61.5199353229
 20
59.1449177833
 30
0.0
 10
61.500682017
 20
58.7634038719
 30
0.0
 10
61.4956040182
 20
58.4399804607
 30
0.0
 10
61.4948709974
 20
58.1961491003
 30
0.0
  0
SPLINE
  5
2BF
100
AcDbEntity
  8
00_COMPONENTS_1
100
AcDbSpline
 62
7
  6
CONTINUOUS
 70
0
 71
3
 72
19
 73
15
 74
0
 42
0.0000001
 43
0.0000001
 44
0.0000000001
 40
0.0
 40
0.0
 40
0.0
 40
0.0
 40
0.1929190855
 40
0.3786234102
 40
0.5495780645
 40
0.6994367854
 40
0.8227995048
 40
0.8729532779
 40
0.9147996837
 40
0.9482015696
 40
0.9731318228
 40
0.9824868868
 40
0.9898855361
 40
1.0
 40
1.0
 40
1.0
 40
1.0
 10
59.6978834215
 20
178.4223304158
 30
0.0
 10
59.6978834215
 20
178.1683778244
 30
0.0
 10
59.7013999284
 20
177.6699617592
 30
0.0
 10
59.7170436213
 20
176.9466589585
 30
0.0
 10
59.7428909867
 20
176.2803452217
 30
0.0
 10
59.7787358658
 20
175.6967067104
 30
0.0
 10
59.817713829
 20
175.2726601399
 30
0.0
 10
59.8556321061
 20
174.9916655406
 30
0.0
 10
59.883952381
 20
174.8289754919
 30
0.0
 10
59.9140292438
 20
174.7004796989
 30
0.0
 10
59.9415180531
 20
174.6155592538
 30
0.0
 10
59.9662828671
 20
174.5661418477
 30
0.0
 10
59.985678153
 20
174.5372534394
 30
0.0
 10
60.0070837009
 20
174.5216957489
 30
0.0
 10
60.020398033
 20
174.521723401
 30
0.0
  0
SPLINE
  5
2C0
100
AcDbEntity
  8
00_COMPONENTS_1
100
AcDbSpline
 62
7
  6
CONTINUOUS
 70
0
 71
3
 72
14
 73
10
 74
0
 42
0.0000001
 43
0.0000001
 44
0.0000000001
 40
0.0
 40
0.0
 40
0.0
 40
0.0
 40
0.5069207904
 40
0.6720572092
 40
0.7944422987
 40
0.8834542287
 40
0.944694268
 40
0.9819355743
 40
1.0
 40
1.0
 40
1.0
 40
1.0
 10
59.2948709688
 20
185.348511949
 30
0.0
 10
59.2956039885
 20
185.104680477
 30
0.0
 10
59.3006820092
 20
184.7812569101
 30
0.0
 10
59.3199352775
 20
184.3997427689
 30
0.0
 10
59.3346883246
 20
184.2189076994
 30
0.0
 10
59.349634333
 20
184.0892749451
 30
0.0
 10
59.367891022
 20
183.9992042124
 30
0.0
 10
59.381855992
 20
183.9479653361
 30
0.0
 10
59.4014282776
 20
183.9223300798
 30
0.0
 10
59.4101173972
 20
183.9223299693
 30
0.0
  0
SPLINE
  5
2C1
100
AcDbEntity
  8
00_COMPONENTS_1
100
AcDbSpline
 62
7
  6
CONTINUOUS
 70
0
 71
3
 72
19
 73
15
 74
0
 42
0.0000001
 43
0.0000001
 44
0.0000000001
 40
0.0
 40
0.0
 40
0.0
 40
0.0
 40
0.0100818851
 40
0.0174178109
 40
0.0267040192
 40
0.0515677538
 40
0.0850428621
 40
0.1270007522
 40
0.1771843921
 40
0.3004259598
 40
0.4503785472
 40
0.6213576406
 40
0.8070365047
 40
1.0
 40
1.0
 40
1.0
 40
1.0
 10
62.2203980495
 20
69.0222821537
 30
0.0
 10
62.2071279205
 20
69.0222762952
 30
0.0
 10
62.1857369628
 20
69.00710791
 30
0.0
 10
62.1662535418
 20
68.9784832028
 30
0.0
 10
62.1414381747
 20
68.9294056297
 30
0.0
 10
62.1139603034
 20
68.8445486498
 30
0.0
 10
62.083972364
 20
68.7158958336
 30
0.0
 10
62.0556943465
 20
68.5529267092
 30
0.0
 10
62.0177619929
 20
68.2719391223
 30
0.0
 10
61.9786502933
 20
67.8479430035
 30
0.0
 10
61.9429446687
 20
67.264357859
 30
0.0
 10
61.9170449018
 20
66.5979931233
 30
0.0
 10
61.9013675247
 20
65.8747063693
 30
0.0
 10
61.8978834215
 20
65.3763157258
 30
0.0
 10
61.8978834215
 20
65.1223304143
 30
0.0
  0
SPLINE
  5
2C2
100
AcDbEntity
  8
00_COMPONENTS_1
100
AcDbSpline
 62
7
  6
CONTINUOUS
 70
0
 71
3
 72
19
 73
15
 74
0
 42
0.0000001
 43
0.0000001
 44
0.0000000001
 40
0.0
 40
0.0
 40
0.0
 40
0.0
 40
0.0101247002
 40
0.0175248633
 40
0.0268761138
 40
0.0517814314
 40
0.0851511168
 40
0.1269853007
 40
0.1771571712
 40
0.300533852
 40
0.4503918955
 40
0.6213666137
 40
0.8070847294
 40
1.0
 40
1.0
 40
1.0
 40
1.0
 10
60.0203981131
 20
182.3229399534
 30
0.0
 10
60.0070704342
 20
182.3229162916
 30
0.0
 10
59.9856984838
 20
182.3073242235
 30
0.0
 10
59.9662905696
 20
182.2784291299
 30
0.0
 10
59.9415352193
 20
182.2290495165
 30
0.0
 10
59.9140352896
 20
182.1442181808
 30
0.0
 10
59.8839506374
 20
182.0158185118
 30
0.0
 10
59.8556324085
 20
181.8531645968
 30
0.0
 10
59.8177443839
 20
181.5721424462
 30
0.0
 10
59.7787487365
 20
181.1480613569
 30
0.0
 10
59.7428903498
 20
180.5643851165
 30
0.0
 10
59.7170452159
 20
179.898034474
 30
0.0
 10
59.7013998659
 20
179.1746995185
 30
0.0
 10
59.6978834215
 20
178.6762753979
 30
0.0
 10
59.6978834215
 20
178.4223304158
 30
0.0
  0
SPLINE
  5
2C3
100
AcDbEntity
  8
00_COMPONENTS_1
100
AcDbSpline
 62
7
  6
CONTINUOUS
 70
0
 71
3
 72
19
 73
15
 74
0
 42
0.0000001
 43
0.0000001
 44
0.0000000001
 40
0.0
 40
0.0
 40
0.0
 40
0.0
 40
0.1929190856
 40
0.3786234102
 40
0.5495780645
 40
0.6994367854
 40
0.8227995049
 40
0.872953278
 40
0.9147996837
 40
0.9482015696
 40
0.9731318228
 40
0.9824868868
 40
0.9898855361
 40
1.0
 40
1.0
 40
1.0
 40
1.0
 10
61.8978834215
 20
65.1223304143
 30
0.0
 10
61.8978834215
 20
64.868377823
 30
0.0
 10
61.9013999284
 20
64.369961758
 30
0.0
 10
61.9170436213
 20
63.6466589575
 30
0.0
 10
61.9428909867
 20
62.980345221
 30
0.0
 10
61.9787358658
 20
62.3967067098
 30
0.0
 10
62.0177138291
 20
61.9726601396
 30
0.0
 10
62.0556321061
 20
61.6916655404
 30
0.0
 10
62.083952381
 20
61.5289754918
 30
0.0
 10
62.1140292439
 20
61.4004796988
 30
0.0
 10
62.1415180532
 20
61.3155592537
 30
0.0
 10
62.1662828671
 20
61.2661418477
 30
0.0
 10
62.185678153
 20
61.2372534394
 30
0.0
 10
62.2070837009
 20
61.2216957489
 30
0.0
 10
62.220398033
 20
61.221723401
 30
0.0
  0
SPLINE
  5
2C4
100
AcDbEntity
  8
00_COMPONENTS_1
100
AcDbSpline
 62
7
  6
CONTINUOUS
 70
0
 71
3
 72
17
 73
13
 74
0
 42
0.0000001
 43
0.0000001
 44
0.0000000001
 40
0.0
 40
0.0
 40
0.0
 40
0.0
 40
0.0654494854
 40
0.113562309
 40
0.1731629
 40
0.323228977
 40
0.4998604688
 40
0.6765184463
 40
0.8267371348
 40
0.8864225988
 40
0.9345610938
 40
1.0
 40
1.0
 40
1.0
 40
1.0
 10
140.1071291692
 20
183.8796740605
 30
0.0
 10
140.1071291692
 20
183.9039324337
 30
0.0
 10
140.0769188987
 20
183.9423696947
 30
0.0
 10
140.0231748521
 20
183.97526965
 30
0.0
 10
139.9345039281
 20
184.0130883768
 30
0.0
 10
139.7939824226
 20
184.043941804
 30
0.0
 10
139.6072631387
 20
184.0571036086
 30
0.0
 10
139.4204977706
 20
184.0438882888
 30
0.0
 10
139.2798652652
 20
184.0130974404
 30
0.0
 10
139.1910776762
 20
183.975310861
 30
0.0
 10
139.137276917
 20
183.9424080988
 30
0.0
 10
139.1071291692
 20
183.9039285126
 30
0.0
 10
139.1071291692
 20
183.8796740605
 30
0.0
  0
SPLINE
  5
2C5
100
AcDbEntity
  8
00_COMPONENTS_1
100
AcDbSpline
 62
7
  6
CONTINUOUS
 70
0
 71
3
 72
17
 73
13
 74
0
 42
0.0000001
 43
0.0000001
 44
0.0000000001
 40
0.0
 40
0.0
 40
0.0
 40
0.0
 40
0.0654494854
 40
0.113562309
 40
0.1731629
 40
0.323228977
 40
0.4998604688
 40
0.6765184463
 40
0.8267371348
 40
0.8864225988
 40
0.9345610938
 40
1.0
 40
1.0
 40
1.0
 40
1.0
 10
137.1071291692
 20
183.8796740605
 30
0.0
 10
137.1071291692
 20
183.9039324337
 30
0.0
 10
137.0769188987
 20
183.9423696947
 30
0.0
 10
137.0231748521
 20
183.97526965
 30
0.0
 10
136.9345039281
 20
184.0130883768
 30
0.0
 10
136.7939824226
 20
184.043941804
 30
0.0
 10
136.6072631387
 20
184.0571036086
 30
0.0
 10
136.4204977706
 20
184.0438882888
 30
0.0
 10
136.2798652652
 20
184.0130974404
 30
0.0
 10
136.1910776762
 20
183.975310861
 30
0.0
 10
136.137276917
 20
183.9424080988
 30
0.0
 10
136.1071291692
 20
183.9039285126
 30
0.0
 10
136.1071291692
 20
183.8796740605
 30
0.0
  0
SPLINE
  5
2C6
100
AcDbEntity
  8
00_COMPONENTS_1
100
AcDbSpline
 62
7
  6
CONTINUOUS
 70
0
 71
3
 72
17
 73
13
 74
0
 42
0.0000001
 43
0.0000001
 44
0.0000000001
 40
0.0
 40
0.0
 40
0.0
 40
0.0
 40
0.0654494854
 40
0.113562309
 40
0.1731629
 40
0.323228977
 40
0.4998604688
 40
0.6765184463
 40
0.8267371348
 40
0.8864225988
 40
0.9345610938
 40
1.0
 40
1.0
 40
1.0
 40
1.0
 10
134.1071291692
 20
183.8796740605
 30
0.0
 10
134.1071291692
 20
183.9039324337
 30
0.0
 10
134.0769188987
 20
183.9423696947
 30
0.0
 10
134.0231748521
 20
183.97526965
 30
0.0
 10
133.9345039281
 20
184.0130883768
 30
0.0
 10
133.7939824226
 20
184.043941804
 30
0.0
 10
133.6072631387
 20
184.0571036086
 30
0.0
 10
133.4204977706
 20
184.0438882888
 30
0.0
 10
133.2798652652
 20
184.0130974404
 30
0.0
 10
133.1910776762
 20
183.975310861
 30
0.0
 10
133.137276917
 20
183.9424080988
 30
0.0
 10
133.1071291692
 20
183.9039285126
 30
0.0
 10
133.1071291692
 20
183.8796740605
 30
0.0
  0
SPLINE
  5
2C7
100
AcDbEntity
  8
00_COMPONENTS_1
100
AcDbSpline
 62
7
  6
CONTINUOUS
 70
0
 71
3
 72
17
 73
13
 74
0
 42
0.0000001
 43
0.0000001
 44
0.0000000001
 40
0.0
 40
0.0
 40
0.0
 40
0.0
 40
0.0654494854
 40
0.113562309
 40
0.1731629
 40
0.323228977
 40
0.4998604688
 40
0.6765184463
 40
0.8267371348
 40
0.8864225988
 40
0.9345610938
 40
1.0
 40
1.0
 40
1.0
 40
1.0
 10
131.1071291692
 20
183.8796740605
 30
0.0
 10
131.1071291692
 20
183.9039324337
 30
0.0
 10
131.0769188987
 20
183.9423696947
 30
0.0
 10
131.0231748521
 20
183.97526965
 30
0.0
 10
130.9345039281
 20
184.0130883768
 30
0.0
 10
130.7939824226
 20
184.043941804
 30
0.0
 10
130.6072631387
 20
184.0571036086
 30
0.0
 10
130.4204977706
 20
184.0438882888
 30
0.0
 10
130.2798652652
 20
184.0130974404
 30
0.0
 10
130.1910776762
 20
183.975310861
 30
0.0
 10
130.137276917
 20
183.9424080988
 30
0.0
 10
130.1071291692
 20
183.9039285126
 30
0.0
 10
130.1071291692
 20
183.8796740605
 30
0.0
  0
SPLINE
  5
2C8
100
AcDbEntity
  8
00_COMPONENTS_1
100
AcDbSpline
 62
7
  6
CONTINUOUS
 70
0
 71
3
 72
17
 73
13
 74
0
 42
0.0000001
 43
0.0000001
 44
0.0000000001
 40
0.0
 40
0.0
 40
0.0
 40
0.0
 40
0.0654494854
 40
0.113562309
 40
0.1731629
 40
0.323228977
 40
0.4998604688
 40
0.6765184463
 40
0.8267371348
 40
0.8864225988
 40
0.9345610938
 40
1.0
 40
1.0
 40
1.0
 40
1.0
 10
128.1071291692
 20
183.8796740605
 30
0.0
 10
128.1071291692
 20
183.9039324337
 30
0.0
 10
128.0769188987
 20
183.9423696947
 30
0.0
 10
128.0231748521
 20
183.97526965
 30
0.0
 10
127.9345039281
 20
184.0130883768
 30
0.0
 10
127.7939824226
 20
184.043941804
 30
0.0
 10
127.6072631387
 20
184.0571036086
 30
0.0
 10
127.4204977706
 20
184.0438882888
 30
0.0
 10
127.2798652652
 20
184.0130974404
 30
0.0
 10
127.1910776762
 20
183.975310861
 30
0.0
 10
127.137276917
 20
183.9424080988
 30
0.0
 10
127.1071291692
 20
183.9039285126
 30
0.0
 10
127.1071291692
 20
183.8796740605
 30
0.0
  0
ELLIPSE
  5
2C9
100
AcDbEntity
  8
00_COMPONENTS_1
100
AcDbEllipse
 62
7
  6
CONTINUOUS
 10
157.3571291692
 20
106.8223304158
 30
0.0
 11
50.0
 21
0.0
 31
0.0
 40
1.0
 41
-1.7122677603
 42
-1.702173932
  0
ENDSEC
  0
SECTION
  2
OBJECTS
  0
DICTIONARY
  5
C
100
AcDbDictionary
280
0
281
1
  3
ACAD_GROUP
350
D
  3
ACAD_MLINESTYLE
350
17
  3
ACAD_LAYOUT
350
1A
  3
ACAD_PLOTSETTINGS
350
19
  3
ACAD_PLOTSTYLENAME
350
E
  0
DICTIONARY
  5
D
102
{ACAD_REACTORS
330
C
102
}
100
AcDbDictionary
280
0
281
1
  0
ACDBDICTIONARYWDFLT
  5
E
102
{ACAD_REACTORS
330
C
102
}
100
AcDbDictionary
281
1
  3
Normal
350
F
100
AcDbDictionaryWithDefault
340
F
  0
DICTIONARY
  5
17
102
{ACAD_REACTORS
330
C
102
}
100
AcDbDictionary
280
0
281
1
  3
Standard
350
18
  0
DICTIONARY
  5
19
102
{ACAD_REACTORS
330
C
102
}
100
AcDbDictionary
281
1
  0
DICTIONARY
  5
1A
102
{ACAD_REACTORS
330
C
102
}
100
AcDbDictionary
281
1
  3
Model
350
2CA
  3
Layout1
350
2CB
  0
ACDBPLACEHOLDER
  5
F
102
{ACAD_REACTORS
330
E
102
}
  0
MLINESTYLE
  5
18
102
{ACAD_REACTORS
330
17
102
}
100
AcDbMlineStyle
  2
STANDARD
 70
0
  3

 62
256
 51
90.0
 52
90.0
 71
2
 49
0.5
 62
256
  6
BYLAYER
 49
-0.5
 62
256
  6
BYLAYER
  0
LAYOUT
  5
2CA
102
{ACAD_REACTORS
330
1A
102
}
100
AcDbPlotSettings
  1

  2
none_device
  4

  6

 40
0.0
 41
0.0
 42
0.0
 43
0.0
 44
210.0
 45
297.0
 46
0.0
 47
0.0
 48
0.0
 49
0.0
140
0.0
141
0.0
142
1.0
143
1.0
 70
1024
 72
1
 73
0
 74
0
  7

 75
0
147
1.0
148
0.0
149
0.0
100
AcDbLayout
  1
Model
 70
0
 71
0
 10
0.0
 20
0.0
 11
210.0
 21
297.0
 12
0.0
 22
0.0
 32
0.0
 14
0.0
 24
0.0
 34
0.0
 15
0.0
 25
0.0
 35
0.0
146
0.0
 13
0.0
 23
0.0
 33
0.0
 16
1.0
 26
0.0
 36
0.0
 17
0.0
 27
1.0
 37
0.0
 76
0
330
212
345
0
346
0
  0
LAYOUT
  5
2CB
102
{ACAD_REACTORS
330
1A
102
}
100
AcDbPlotSettings
  1

  2
none_device
  4

  6

 40
0.0
 41
0.0
 42
0.0
 43
0.0
 44
210.0
 45
297.0
 46
0.0
 47
0.0
 48
0.0
 49
0.0
140
0.0
141
0.0
142
1.0
143
1.0
 70
0
 72
1
 73
0
 74
0
  7

 75
0
147
1.0
148
0.0
149
0.0
100
AcDbLayout
  1
Layout1
 70
0
 71
1
 10
0.0
 20
0.0
 11
210.0
 21
297.0
 12
0.0
 22
0.0
 32
0.0
 14
0.0
 24
0.0
 34
0.0
 15
0.0
 25
0.0
 35
0.0
146
0.0
 13
0.0
 23
0.0
 33
0.0
 16
1.0
 26
0.0
 36
0.0
 17
0.0
 27
1.0
 37
0.0
 76
0
330
213
345
0
346
0
  0
ENDSEC
  0
EOF
