999
DXF file: C:\Users\sesa63760\Dev\_Creo\CAD\MCADID0004041_3D-CAD\drw0001_3.dxf
999
Pro/ENGINEER 2019471 by Parametric Technology Corporation
  0
SECTION
  2
HEADER
  9
$ACADVER
  1
AC1024
  9
$DWGCODEPAGE
  3
ANSI_1252
  9
$EXTMAX
 10
61.5351339482
 20
87.0282608696
 30
0.0
  9
$EXTMIN
 10
0.0
 20
0.0
 30
0.0
  9
$LIMMIN
 10
0.0
 20
0.0
  9
$LIMMAX
 10
61.5351339482
 20
87.0282608696
  9
$VIEWCTR
 10
30.7675669741
 20
43.5141304348
  9
$VIEWSIZE
 40
87.0282608696
  9
$CLAYER
  8
0
  9
$LTSCALE
 40
5.6729533011
  9
$CELTYPE
  6
BYLAYER
  9
$DIMSCALE
 40
1.0
  9
$DIMASZ
 40
0.7325611184
  9
$DIMEXO
 40
1.0
  9
$DIMDLI
 40
3.9194950081
  9
$DIMEXE
 40
1.0
  9
$DIMCEN
 40
0.9283014493
  9
$DIMLFAC
 40
1.0
  9
$DIMBLK
  1
_FILLED
  9
$DIMALT
 70
0
  9
$DIMALTF
 40
0.0393700787
  9
$DIMTXT
 40
1.0255855658
  9
$DIMTOL
 70
1
  9
$DIMLIM
 70
0
  9
$DIMTFAC
 40
1.0
  9
$DIMTP
 40
0.01
  9
$DIMTM
 40
0.01
  9
$DIMGAP
 40
0.625
  9
$DIMDSEP
 70
46
  9
$AUNITS
 70
0
  9
$PDMODE
 70
3
  9
$PDSIZE
 40
0.3125
  9
$HANDSEED
  5
396
  9
$TILEMODE
 70
1
  9
$MEASUREMENT
 70
1
  9
$INSUNITS
 70
4
  0
ENDSEC
  0
SECTION
  2
CLASSES
  0
CLASS
  1
ACDBDICTIONARYWDFLT
  2
AcDbDictionaryWithDefault
  3
AutoCAD 2000
 90
0
 91
1
280
0
281
0
  0
CLASS
  1
ACDBPLACEHOLDER
  2
AcDbPlaceHolder
  3
AutoCAD 2000
 90
0
 91
1
280
0
281
0
  0
CLASS
  1
LAYOUT
  2
AcDbLayout
  3
AutoCAD 2000
 90
0
 91
0
280
0
281
0
  0
ENDSEC
  0
SECTION
  2
TABLES
  0
TABLE
  2
VPORT
  5
8
100
AcDbSymbolTable
 70
2
  0
VPORT
  5
1F4
100
AcDbSymbolTableRecord
100
AcDbViewportTableRecord
  2
*ACTIVE
 70
0
 10
0.0
 20
0.0
 11
1.0
 21
1.0
 12
30.7675669741
 22
43.5141304348
 13
0.0
 23
0.0
 14
1.0
 24
1.0
 15
0.0
 25
0.0
 16
0.0
 26
0.0
 36
1.0
 17
0.0
 27
0.0
 37
0.0
 40
87.0282608696
 41
0.7070707071
 42
50.0
 43
0.0
 44
0.0
 50
0.0
 51
0.0
 71
0
 72
100
 73
1
 74
1
 75
0
 76
0
 77
0
 78
0
  0
ENDTAB
  0
TABLE
  2
LTYPE
  5
5
100
AcDbSymbolTable
 70
6
  0
LTYPE
  5
14
100
AcDbSymbolTableRecord
100
AcDbLinetypeTableRecord
  2
BYBLOCK
 70
0
  3

 72
65
 73
0
 40
0.0
  0
LTYPE
  5
15
100
AcDbSymbolTableRecord
100
AcDbLinetypeTableRecord
  2
BYLAYER
 70
0
  3

 72
65
 73
0
 40
0.0
  0
LTYPE
  5
16
100
AcDbSymbolTableRecord
100
AcDbLinetypeTableRecord
  2
CONTINUOUS
 70
64
  3
Solid line
 72
65
 73
0
 40
0.0
  0
LTYPE
  5
1F5
100
AcDbSymbolTableRecord
100
AcDbLinetypeTableRecord
  2
CENTER
 70
64
  3
____ _ ____ _ ____ _ ____ _ ____ _ ____ _ ____
 72
65
 73
4
 40
0.6
 49
0.375
 74
0
 49
-0.075
 74
0
 49
0.075
 74
0
 49
-0.075
 74
0
  0
LTYPE
  5
1F6
100
AcDbSymbolTableRecord
100
AcDbLinetypeTableRecord
  2
HIDDEN
 70
64
  3
- - - - - - - - - - - - - - - - - - - -
 72
65
 73
2
 40
0.2
 49
0.1
 74
0
 49
-0.1
 74
0
  0
LTYPE
  5
1F7
100
AcDbSymbolTableRecord
100
AcDbLinetypeTableRecord
  2
PHANTOM
 70
64
  3
_____ _ _ _____ _ _ _____ _ _ _____
 72
65
 73
6
 40
0.8
 49
0.45
 74
0
 49
-0.05
 74
0
 49
0.1
 74
0
 49
-0.05
 74
0
 49
0.1
 74
0
 49
-0.05
 74
0
  0
LTYPE
  5
1F8
100
AcDbSymbolTableRecord
100
AcDbLinetypeTableRecord
  2
DOT
 70
64
  3
. . . . . . . . . . . . . . . . . . . .
 72
65
 73
2
 40
0.2
 49
0.1
 74
0
 49
-0.1
 74
0
  0
LTYPE
  5
1F9
100
AcDbSymbolTableRecord
100
AcDbLinetypeTableRecord
  2
DASHED
 70
64
  3
- - - - - - - - - - - - - - - - - - - -
 72
65
 73
2
 40
0.2
 49
0.1
 74
0
 49
-0.1
 74
0
  0
ENDTAB
  0
TABLE
  2
LAYER
  5
2
100
AcDbSymbolTable
 70
36
  0
LAYER
  5
10
100
AcDbSymbolTableRecord
100
AcDbLayerTableRecord
  2
0
 70
0
 62
7
  6
CONTINUOUS
370
-3
390
F
  0
LAYER
  5
1FA
100
AcDbSymbolTableRecord
100
AcDbLayerTableRecord
  2
DEFAULT_1
 70
0
 62
7
  6
CENTER
370
-3
390
F
  0
LAYER
  5
1FB
100
AcDbSymbolTableRecord
100
AcDbLayerTableRecord
  2
DEFAULT_2
 70
0
 62
7
  6
HIDDEN
370
-3
390
F
  0
LAYER
  5
1FC
100
AcDbSymbolTableRecord
100
AcDbLayerTableRecord
  2
DEFAULT_3
 70
0
 62
7
  6
PHANTOM
370
-3
390
F
  0
LAYER
  5
1FD
100
AcDbSymbolTableRecord
100
AcDbLayerTableRecord
  2
00_COMPONENTS
 70
0
 62
7
  6
CONTINUOUS
370
-3
390
F
  0
LAYER
  5
1FE
100
AcDbSymbolTableRecord
100
AcDbLayerTableRecord
  2
01_1_DEFAULT_DATUMS
 70
0
 62
7
  6
CONTINUOUS
370
-3
390
F
  0
LAYER
  5
1FF
100
AcDbSymbolTableRecord
100
AcDbLayerTableRecord
  2
01_PLANES
 70
0
 62
7
  6
CONTINUOUS
370
-3
390
F
  0
LAYER
  5
200
100
AcDbSymbolTableRecord
100
AcDbLayerTableRecord
  2
02_COORD_SYS
 70
0
 62
7
  6
CONTINUOUS
370
-3
390
F
  0
LAYER
  5
201
100
AcDbSymbolTableRecord
100
AcDbLayerTableRecord
  2
03_AXES
 70
0
 62
7
  6
CONTINUOUS
370
-3
390
F
  0
LAYER
  5
202
100
AcDbSymbolTableRecord
100
AcDbLayerTableRecord
  2
04_POINTS
 70
0
 62
7
  6
CONTINUOUS
370
-3
390
F
  0
LAYER
  5
203
100
AcDbSymbolTableRecord
100
AcDbLayerTableRecord
  2
05_CURVES
 70
0
 62
7
  6
CONTINUOUS
370
-3
390
F
  0
LAYER
  5
204
100
AcDbSymbolTableRecord
100
AcDbLayerTableRecord
  2
06_SURFS
 70
0
 62
7
  6
CONTINUOUS
370
-3
390
F
  0
LAYER
  5
205
100
AcDbSymbolTableRecord
100
AcDbLayerTableRecord
  2
07_COSMETICS
 70
0
 62
7
  6
CONTINUOUS
370
-3
390
F
  0
LAYER
  5
206
100
AcDbSymbolTableRecord
100
AcDbLayerTableRecord
  2
10_NOTES
 70
0
 62
7
  6
CONTINUOUS
370
-3
390
F
  0
LAYER
  5
207
100
AcDbSymbolTableRecord
100
AcDbLayerTableRecord
  2
11_NOTES_PUB
 70
0
 62
7
  6
CONTINUOUS
370
-3
390
F
  0
LAYER
  5
208
100
AcDbSymbolTableRecord
100
AcDbLayerTableRecord
  2
13_REF_GTOL
 70
0
 62
7
  6
CONTINUOUS
370
-3
390
F
  0
LAYER
  5
209
100
AcDbSymbolTableRecord
100
AcDbLayerTableRecord
  2
16_MISC
 70
0
 62
7
  6
CONTINUOUS
370
-3
390
F
  0
LAYER
  5
20A
100
AcDbSymbolTableRecord
100
AcDbLayerTableRecord
  2
17_NO_PRINT
 70
0
 62
7
  6
CONTINUOUS
370
-3
390
F
  0
LAYER
  5
20B
100
AcDbSymbolTableRecord
100
AcDbLayerTableRecord
  2
18_DATUM_CAMS_JOINTS
 70
0
 62
7
  6
CONTINUOUS
370
-3
390
F
  0
LAYER
  5
20C
100
AcDbSymbolTableRecord
100
AcDbLayerTableRecord
  2
19_DATUM_FUNCTIONAL
 70
0
 62
7
  6
CONTINUOUS
370
-3
390
F
  0
LAYER
  5
20D
100
AcDbSymbolTableRecord
100
AcDbLayerTableRecord
  2
20_DATUM_KINEMATIC_SCHEME
 70
0
 62
7
  6
CONTINUOUS
370
-3
390
F
  0
ENDTAB
  0
TABLE
  2
STYLE
  5
3
100
AcDbSymbolTable
 70
1
  0
STYLE
  5
11
100
AcDbSymbolTableRecord
100
AcDbTextStyleTableRecord
  2
STANDARD
 70
0
 40
0.0
 41
1.0
 50
0.0
 71
0
 42
0.2
  3
ARIAL.TTF
  4

  0
STYLE
  5
20E
100
AcDbSymbolTableRecord
100
AcDbTextStyleTableRecord
  2
TEXTSTYLE_1
 70
0
 40
0.0
 41
0.8
 50
0.0
 71
0
 42
0.2
  3
gdt
  4

  0
ENDTAB
  0
TABLE
  2
VIEW
  5
6
100
AcDbSymbolTable
 70
0
  0
ENDTAB
  0
TABLE
  2
UCS
  5
7
100
AcDbSymbolTable
 70
0
  0
ENDTAB
  0
TABLE
  2
APPID
  5
9
100
AcDbSymbolTable
 70
1
  0
APPID
  5
20F
100
AcDbSymbolTableRecord
100
AcDbRegAppTableRecord
  2
ACAD
 70
0
  0
ENDTAB
  0
TABLE
  2
BLOCK_RECORD
  5
1
100
AcDbSymbolTable
 70
0
  0
BLOCK_RECORD
  5
210
100
AcDbSymbolTableRecord
100
AcDbBlockTableRecord
  2
*Model_Space
  0
BLOCK_RECORD
  5
211
100
AcDbSymbolTableRecord
100
AcDbBlockTableRecord
  2
*Paper_Space
  0
BLOCK_RECORD
  5
212
100
AcDbSymbolTableRecord
100
AcDbBlockTableRecord
  2
_FILLED
  0
ENDTAB
  0
TABLE
  2
DIMSTYLE
  5
A
100
AcDbSymbolTable
 70
1
100
AcDbDimStyleTable
 71
0
  0
DIMSTYLE
105
213
100
AcDbSymbolTableRecord
100
AcDbDimStyleTableRecord
  2
STANDARD
 70
0
  3

  4

 40
1.0
 41
0.7325611184
 42
1.0
 43
0.38
 44
1.0
 45
0.0
 46
0.0
 47
0.01
 48
0.01
140
1.0255855658
141
0.09
142
0.0
143
25.4
144
1.0
145
0.0
146
1.0
147
0.625
 71
1
 72
0
 73
0
 74
0
 75
0
 76
0
 77
1
 78
8
 79
2
170
0
171
1
172
0
173
0
174
0
175
0
176
0
177
0
178
0
270
2
179
2
271
2
272
2
273
2
274
2
275
0
280
0
281
0
282
0
283
1
284
8
285
0
286
0
287
3
288
0
340
11
278
46
341
212
342
212
343
212
344
212
  0
ENDTAB
  0
ENDSEC
  0
SECTION
  2
BLOCKS
  0
BLOCK
  5
20
100
AcDbEntity
  8
0
100
AcDbBlockBegin
  2
*Model_Space
 70
0
 10
0.0
 20
0.0
 30
0.0
  3
*Model_Space
  1

  0
ENDBLK
  5
21
100
AcDbEntity
  8
0
100
AcDbBlockEnd
  0
BLOCK
  5
1C
100
AcDbEntity
  8
0
100
AcDbBlockBegin
  2
*Paper_Space
 70
0
 10
0.0
 20
0.0
 30
0.0
  3
*Paper_Space
  1

  0
ENDBLK
  5
1D
100
AcDbEntity
  8
0
100
AcDbBlockEnd
  0
BLOCK
  5
214
100
AcDbEntity
  8
0
100
AcDbBlockBegin
  2
_FILLED
 70
64
 10
0.0
 20
0.0
  3
_FILLED
  1

  0
SOLID
  5
215
100
AcDbEntity
  8
0
  6
BYBLOCK
 62
0
100
AcDbTrace
 10
0.0
 20
0.0
 11
-1.0
 21
0.25
 12
-1.0
 22
-0.25
 13
-1.0
 23
-0.25
  0
ENDBLK
  5
216
100
AcDbEntity
  8
0
  6
BYBLOCK
 62
0
100
AcDbBlockEnd
  0
ENDSEC
  0
SECTION
  2
ENTITIES
  0
LINE
  5
217
100
AcDbEntity
  8
0
100
AcDbLine
 62
7
  6
BYLAYER
 10
45.669731183
 20
6.977173913
 11
17.569742588
 21
6.977173913
  0
LINE
  5
218
100
AcDbEntity
  8
0
100
AcDbLine
 62
7
  6
BYLAYER
 10
45.869742588
 20
7.177173913
 11
32.8124286322
 21
7.177173913
  0
LINE
  5
219
100
AcDbEntity
  8
0
100
AcDbLine
 62
7
  6
BYLAYER
 10
30.4270565439
 20
7.177173913
 11
17.369742588
 21
7.177173913
  0
LINE
  5
21A
100
AcDbEntity
  8
0
100
AcDbLine
 62
7
  6
BYLAYER
 10
46.1196158034
 20
7.377173913
 11
17.119742588
 21
7.377173913
  0
LINE
  5
21B
100
AcDbEntity
  8
0
100
AcDbLine
 62
7
  6
BYLAYER
 10
46.619742588
 20
7.877173913
 11
16.619742588
 21
7.877173913
  0
LINE
  5
21C
100
AcDbEntity
  8
0
100
AcDbLine
 62
7
  6
BYLAYER
 10
17.119742588
 20
7.377173913
 11
16.619742588
 21
7.8771739131
  0
LINE
  5
21D
100
AcDbEntity
  8
0
100
AcDbLine
 62
7
  6
BYLAYER
 10
49.619742588
 20
11.977173913
 11
13.619742588
 21
11.977173913
  0
LINE
  5
21E
100
AcDbEntity
  8
0
100
AcDbLine
 62
7
  6
BYLAYER
 10
13.619742588
 20
15.977173913
 11
49.619742588
 21
15.977173913
  0
LINE
  5
21F
100
AcDbEntity
  8
0
100
AcDbLine
 62
7
  6
BYLAYER
 10
15.5100644658
 20
16.677173913
 11
15.8331722527
 21
16.677173913
  0
LINE
  5
220
100
AcDbEntity
  8
0
100
AcDbLine
 62
7
  6
BYLAYER
 10
15.8416307636
 20
16.677173913
 11
16.0916013645
 21
16.677173913
  0
LINE
  5
221
100
AcDbEntity
  8
0
100
AcDbLine
 62
7
  6
BYLAYER
 10
16.1883979591
 20
16.677173913
 11
16.4682090072
 21
16.677173913
  0
LINE
  5
222
100
AcDbEntity
  8
0
100
AcDbLine
 62
7
  6
BYLAYER
 10
16.652607005
 20
16.677173913
 11
16.9601289692
 21
16.677173913
  0
LINE
  5
223
100
AcDbEntity
  8
0
100
AcDbLine
 62
7
  6
BYLAYER
 10
17.2307249901
 20
16.677173913
 11
17.5636174425
 21
16.677173913
  0
LINE
  5
224
100
AcDbEntity
  8
0
100
AcDbLine
 62
7
  6
BYLAYER
 10
17.9183520874
 20
16.677173913
 11
18.2740815155
 21
16.677173913
  0
LINE
  5
225
100
AcDbEntity
  8
0
100
AcDbLine
 62
7
  6
BYLAYER
 10
18.7102550396
 20
16.677173913
 11
19.0861141276
 21
16.677173913
  0
LINE
  5
226
100
AcDbEntity
  8
0
100
AcDbLine
 62
7
  6
BYLAYER
 10
19.6004069869
 20
16.677173913
 11
19.9935352202
 21
16.677173913
  0
LINE
  5
227
100
AcDbEntity
  8
0
100
AcDbLine
 62
7
  6
BYLAYER
 10
20.5820333357
 20
16.677173913
 11
20.9894387711
 21
16.677173913
  0
LINE
  5
228
100
AcDbEntity
  8
0
100
AcDbLine
 62
7
  6
BYLAYER
 10
21.6476633166
 20
16.677173913
 11
22.0662453527
 21
16.677173913
  0
LINE
  5
229
100
AcDbEntity
  8
0
100
AcDbLine
 62
7
  6
BYLAYER
 10
22.7891868421
 20
16.677173913
 11
23.2157598169
 21
16.677173913
  0
LINE
  5
22A
100
AcDbEntity
  8
0
100
AcDbLine
 62
7
  6
BYLAYER
 10
23.9979162288
 20
16.677173913
 11
24.4292336644
 21
16.677173913
  0
LINE
  5
22B
100
AcDbEntity
  8
0
100
AcDbLine
 62
7
  6
BYLAYER
 10
25.2646523163
 20
16.677173913
 11
25.6974316266
 21
16.677173913
  0
LINE
  5
22C
100
AcDbEntity
  8
0
100
AcDbLine
 62
7
  6
BYLAYER
 10
26.5797544781
 20
16.677173913
 11
27.0107019512
 21
16.677173913
  0
LINE
  5
22D
100
AcDbEntity
  8
0
100
AcDbLine
 62
7
  6
BYLAYER
 10
27.9332139927
 20
16.677173913
 11
28.359049858
 21
16.677173913
  0
LINE
  5
22E
100
AcDbEntity
  8
0
100
AcDbLine
 62
7
  6
BYLAYER
 10
29.3147302158
 20
16.677173913
 11
29.7322136054
 21
16.677173913
  0
LINE
  5
22F
100
AcDbEntity
  8
0
100
AcDbLine
 62
7
  6
BYLAYER
 10
30.7137889749
 20
16.677173913
 11
31.119742588
 21
16.677173913
  0
LINE
  5
230
100
AcDbEntity
  8
0
100
AcDbLine
 62
7
  6
BYLAYER
 10
32.119742588
 20
16.677173913
 11
32.5256962012
 21
16.677173913
  0
LINE
  5
231
100
AcDbEntity
  8
0
100
AcDbLine
 62
7
  6
BYLAYER
 10
33.5072715707
 20
16.677173913
 11
33.9247549603
 21
16.677173913
  0
LINE
  5
232
100
AcDbEntity
  8
0
100
AcDbLine
 62
7
  6
BYLAYER
 10
34.8804353181
 20
16.677173913
 11
35.3062711834
 21
16.677173913
  0
LINE
  5
233
100
AcDbEntity
  8
0
100
AcDbLine
 62
7
  6
BYLAYER
 10
36.2287832249
 20
16.677173913
 11
36.6597306979
 21
16.677173913
  0
LINE
  5
234
100
AcDbEntity
  8
0
100
AcDbLine
 62
7
  6
BYLAYER
 10
37.5420535495
 20
16.677173913
 11
37.9748328597
 21
16.677173913
  0
LINE
  5
235
100
AcDbEntity
  8
0
100
AcDbLine
 62
7
  6
BYLAYER
 10
38.8102515117
 20
16.677173913
 11
39.2415689473
 21
16.677173913
  0
LINE
  5
236
100
AcDbEntity
  8
0
100
AcDbLine
 62
7
  6
BYLAYER
 10
40.0237253592
 20
16.677173913
 11
40.450298334
 21
16.677173913
  0
LINE
  5
237
100
AcDbEntity
  8
0
100
AcDbLine
 62
7
  6
BYLAYER
 10
41.1732398234
 20
16.677173913
 11
41.5918218595
 21
16.677173913
  0
LINE
  5
238
100
AcDbEntity
  8
0
100
AcDbLine
 62
7
  6
BYLAYER
 10
42.250046405
 20
16.677173913
 11
42.6574518404
 21
16.677173913
  0
LINE
  5
239
100
AcDbEntity
  8
0
100
AcDbLine
 62
7
  6
BYLAYER
 10
43.2459499559
 20
16.677173913
 11
43.6390781892
 21
16.677173913
  0
LINE
  5
23A
100
AcDbEntity
  8
0
100
AcDbLine
 62
7
  6
BYLAYER
 10
44.1533710485
 20
16.677173913
 11
44.5292301365
 21
16.677173913
  0
LINE
  5
23B
100
AcDbEntity
  8
0
100
AcDbLine
 62
7
  6
BYLAYER
 10
44.9654036606
 20
16.677173913
 11
45.3211330887
 21
16.677173913
  0
LINE
  5
23C
100
AcDbEntity
  8
0
100
AcDbLine
 62
7
  6
BYLAYER
 10
45.6758677336
 20
16.677173913
 11
46.0087592515
 21
16.677173913
  0
LINE
  5
23D
100
AcDbEntity
  8
0
100
AcDbLine
 62
7
  6
BYLAYER
 10
46.2793562069
 20
16.677173913
 11
46.5868781711
 21
16.677173913
  0
LINE
  5
23E
100
AcDbEntity
  8
0
100
AcDbLine
 62
7
  6
BYLAYER
 10
46.7712761689
 20
16.677173913
 11
47.0510872169
 21
16.677173913
  0
LINE
  5
23F
100
AcDbEntity
  8
0
100
AcDbLine
 62
7
  6
BYLAYER
 10
47.1478838116
 20
16.677173913
 11
47.3978544125
 21
16.677173913
  0
LINE
  5
240
100
AcDbEntity
  8
0
100
AcDbLine
 62
7
  6
BYLAYER
 10
47.4063129234
 20
16.677173913
 11
47.7294207103
 21
16.677173913
  0
LINE
  5
241
100
AcDbEntity
  8
0
100
AcDbLine
 62
7
  6
BYLAYER
 10
47.7294207103
 20
21.277173913
 11
47.4063129234
 21
21.277173913
  0
LINE
  5
242
100
AcDbEntity
  8
0
100
AcDbLine
 62
7
  6
BYLAYER
 10
47.3978544125
 20
21.277173913
 11
47.1478838116
 21
21.277173913
  0
LINE
  5
243
100
AcDbEntity
  8
0
100
AcDbLine
 62
7
  6
BYLAYER
 10
47.0510872169
 20
21.277173913
 11
46.7712761689
 21
21.277173913
  0
LINE
  5
244
100
AcDbEntity
  8
0
100
AcDbLine
 62
7
  6
BYLAYER
 10
46.5868781711
 20
21.277173913
 11
46.2793562069
 21
21.277173913
  0
LINE
  5
245
100
AcDbEntity
  8
0
100
AcDbLine
 62
7
  6
BYLAYER
 10
46.0087592515
 20
21.277173913
 11
45.6758677336
 21
21.277173913
  0
LINE
  5
246
100
AcDbEntity
  8
0
100
AcDbLine
 62
7
  6
BYLAYER
 10
45.3211330887
 20
21.277173913
 11
44.9654036606
 21
21.277173913
  0
LINE
  5
247
100
AcDbEntity
  8
0
100
AcDbLine
 62
7
  6
BYLAYER
 10
44.5292301365
 20
21.277173913
 11
44.1533710485
 21
21.277173913
  0
LINE
  5
248
100
AcDbEntity
  8
0
100
AcDbLine
 62
7
  6
BYLAYER
 10
43.6390781892
 20
21.277173913
 11
43.2459499559
 21
21.277173913
  0
LINE
  5
249
100
AcDbEntity
  8
0
100
AcDbLine
 62
7
  6
BYLAYER
 10
42.6574518404
 20
21.277173913
 11
42.250046405
 21
21.277173913
  0
LINE
  5
24A
100
AcDbEntity
  8
0
100
AcDbLine
 62
7
  6
BYLAYER
 10
41.5918218595
 20
21.277173913
 11
41.1732398234
 21
21.277173913
  0
LINE
  5
24B
100
AcDbEntity
  8
0
100
AcDbLine
 62
7
  6
BYLAYER
 10
40.450298334
 20
21.277173913
 11
40.0237253592
 21
21.277173913
  0
LINE
  5
24C
100
AcDbEntity
  8
0
100
AcDbLine
 62
7
  6
BYLAYER
 10
39.2415689473
 20
21.277173913
 11
38.8102515117
 21
21.277173913
  0
LINE
  5
24D
100
AcDbEntity
  8
0
100
AcDbLine
 62
7
  6
BYLAYER
 10
37.9748328597
 20
21.277173913
 11
37.5420535495
 21
21.277173913
  0
LINE
  5
24E
100
AcDbEntity
  8
0
100
AcDbLine
 62
7
  6
BYLAYER
 10
36.6597306979
 20
21.277173913
 11
36.2287832249
 21
21.277173913
  0
LINE
  5
24F
100
AcDbEntity
  8
0
100
AcDbLine
 62
7
  6
BYLAYER
 10
35.3062711834
 20
21.277173913
 11
34.8804353181
 21
21.277173913
  0
LINE
  5
250
100
AcDbEntity
  8
0
100
AcDbLine
 62
7
  6
BYLAYER
 10
33.9247549603
 20
21.277173913
 11
33.5072715707
 21
21.277173913
  0
LINE
  5
251
100
AcDbEntity
  8
0
100
AcDbLine
 62
7
  6
BYLAYER
 10
32.5256962012
 20
21.277173913
 11
32.119742588
 21
21.277173913
  0
LINE
  5
252
100
AcDbEntity
  8
0
100
AcDbLine
 62
7
  6
BYLAYER
 10
31.119742588
 20
21.277173913
 11
30.7137889749
 21
21.277173913
  0
LINE
  5
253
100
AcDbEntity
  8
0
100
AcDbLine
 62
7
  6
BYLAYER
 10
29.7322136054
 20
21.277173913
 11
29.3147302158
 21
21.277173913
  0
LINE
  5
254
100
AcDbEntity
  8
0
100
AcDbLine
 62
7
  6
BYLAYER
 10
28.359049858
 20
21.277173913
 11
27.9332139927
 21
21.277173913
  0
LINE
  5
255
100
AcDbEntity
  8
0
100
AcDbLine
 62
7
  6
BYLAYER
 10
27.0107019512
 20
21.277173913
 11
26.5797544781
 21
21.277173913
  0
LINE
  5
256
100
AcDbEntity
  8
0
100
AcDbLine
 62
7
  6
BYLAYER
 10
25.6974316266
 20
21.277173913
 11
25.2646523163
 21
21.277173913
  0
LINE
  5
257
100
AcDbEntity
  8
0
100
AcDbLine
 62
7
  6
BYLAYER
 10
24.4292336644
 20
21.277173913
 11
23.9979162288
 21
21.277173913
  0
LINE
  5
258
100
AcDbEntity
  8
0
100
AcDbLine
 62
7
  6
BYLAYER
 10
23.2157598169
 20
21.277173913
 11
22.7891868421
 21
21.277173913
  0
LINE
  5
259
100
AcDbEntity
  8
0
100
AcDbLine
 62
7
  6
BYLAYER
 10
22.0662453527
 20
21.277173913
 11
21.6476633166
 21
21.277173913
  0
LINE
  5
25A
100
AcDbEntity
  8
0
100
AcDbLine
 62
7
  6
BYLAYER
 10
20.9894387711
 20
21.277173913
 11
20.5820333357
 21
21.277173913
  0
LINE
  5
25B
100
AcDbEntity
  8
0
100
AcDbLine
 62
7
  6
BYLAYER
 10
19.9935352202
 20
21.277173913
 11
19.6004069869
 21
21.277173913
  0
LINE
  5
25C
100
AcDbEntity
  8
0
100
AcDbLine
 62
7
  6
BYLAYER
 10
19.0861141276
 20
21.277173913
 11
18.7102550396
 21
21.277173913
  0
LINE
  5
25D
100
AcDbEntity
  8
0
100
AcDbLine
 62
7
  6
BYLAYER
 10
18.2740815155
 20
21.277173913
 11
17.9183520874
 21
21.277173913
  0
LINE
  5
25E
100
AcDbEntity
  8
0
100
AcDbLine
 62
7
  6
BYLAYER
 10
17.5636174425
 20
21.277173913
 11
17.2307249901
 21
21.277173913
  0
LINE
  5
25F
100
AcDbEntity
  8
0
100
AcDbLine
 62
7
  6
BYLAYER
 10
16.9601289692
 20
21.277173913
 11
16.652607005
 21
21.277173913
  0
LINE
  5
260
100
AcDbEntity
  8
0
100
AcDbLine
 62
7
  6
BYLAYER
 10
16.4682090072
 20
21.277173913
 11
16.1883979591
 21
21.277173913
  0
LINE
  5
261
100
AcDbEntity
  8
0
100
AcDbLine
 62
7
  6
BYLAYER
 10
16.0916013645
 20
21.277173913
 11
15.8416307636
 21
21.277173913
  0
LINE
  5
262
100
AcDbEntity
  8
0
100
AcDbLine
 62
7
  6
BYLAYER
 10
15.8331722527
 20
21.277173913
 11
15.5100644658
 21
21.277173913
  0
LINE
  5
263
100
AcDbEntity
  8
0
100
AcDbLine
 62
7
  6
BYLAYER
 10
49.619742588
 20
21.977173913
 11
13.619742588
 21
21.977173913
  0
LINE
  5
264
100
AcDbEntity
  8
0
100
AcDbLine
 62
7
  6
BYLAYER
 10
17.369742588
 20
58.477173913
 11
16.619742588
 21
57.727173913
  0
LINE
  5
265
100
AcDbEntity
  8
0
100
AcDbLine
 62
7
  6
BYLAYER
 10
31.119742588
 20
16.677173913
 11
31.619742588
 21
16.177173913
  0
LINE
  5
266
100
AcDbEntity
  8
0
100
AcDbLine
 62
7
  6
BYLAYER
 10
15.3683324265
 20
21.777173913
 11
15.314742588
 21
21.977173913
  0
LINE
  5
267
100
AcDbEntity
  8
0
100
AcDbLine
 62
7
  6
BYLAYER
 10
13.619742588
 20
15.977173913
 11
13.619742588
 21
11.977173913
  0
LINE
  5
268
100
AcDbEntity
  8
0
100
AcDbLine
 62
7
  6
BYLAYER
 10
13.619742588
 20
21.977173913
 11
13.619742588
 21
25.977173913
  0
LINE
  5
269
100
AcDbEntity
  8
0
100
AcDbLine
 62
7
  6
BYLAYER
 10
14.2259603707
 20
15.3224133412
 11
14.2259603707
 21
12.6319344277
  0
LINE
  5
26A
100
AcDbEntity
  8
0
100
AcDbLine
 62
7
  6
BYLAYER
 10
14.2259603707
 20
22.6319344353
 11
14.2259603707
 21
25.3224133908
  0
LINE
  5
26B
100
AcDbEntity
  8
0
100
AcDbLine
 62
7
  6
BYLAYER
 10
13.619742588
 20
25.977173913
 11
49.619742588
 21
25.977173913
  0
LINE
  5
26C
100
AcDbEntity
  8
0
100
AcDbLine
 62
7
  6
BYLAYER
 10
16.619742588
 20
7.8771739131
 11
16.619742588
 21
11.977173913
  0
LINE
  5
26D
100
AcDbEntity
  8
0
100
AcDbLine
 62
7
  6
BYLAYER
 10
16.619742588
 20
16.6240110558
 11
16.619742588
 21
21.3303384118
  0
LINE
  5
26E
100
AcDbEntity
  8
0
100
AcDbLine
 62
7
  6
BYLAYER
 10
16.619742588
 20
25.977173913
 11
16.619742588
 21
57.727173913
  0
LINE
  5
26F
100
AcDbEntity
  8
0
100
AcDbLine
 62
7
  6
BYLAYER
 10
17.369742588
 20
7.177173913
 11
17.369742588
 21
7.377173913
  0
LINE
  5
270
100
AcDbEntity
  8
0
100
AcDbLine
 62
7
  6
BYLAYER
 10
17.369742588
 20
58.477173913
 11
17.369742588
 21
62.177173913
  0
LINE
  5
271
100
AcDbEntity
  8
0
100
AcDbLine
 62
7
  6
BYLAYER
 10
17.369742588
 20
62.277173913
 11
17.369742588
 21
65.077173913
  0
LINE
  5
272
100
AcDbEntity
  8
0
100
AcDbLine
 62
7
  6
BYLAYER
 10
17.419742588
 20
62.177173913
 11
17.419742588
 21
62.277173913
  0
LINE
  5
273
100
AcDbEntity
  8
0
100
AcDbLine
 62
7
  6
BYLAYER
 10
32.119742588
 20
21.277173913
 11
31.619742588
 21
21.777173913
  0
LINE
  5
274
100
AcDbEntity
  8
0
100
AcDbLine
 62
7
  6
BYLAYER
 10
25.4048473019
 20
68.3119035485
 11
24.8988842124
 21
65.4424442775
  0
LINE
  5
275
100
AcDbEntity
  8
0
100
AcDbLine
 62
7
  6
BYLAYER
 10
15.3683324265
 20
16.177173913
 11
15.314742588
 21
15.977173913
  0
LINE
  5
276
100
AcDbEntity
  8
0
100
AcDbLine
 62
7
  6
BYLAYER
 10
30.4270565439
 20
7.177173913
 11
30.4270565439
 21
7.377173913
  0
LINE
  5
277
100
AcDbEntity
  8
0
100
AcDbLine
 62
7
  6
BYLAYER
 10
31.0135248054
 20
15.3224133309
 11
31.0135248054
 21
12.6319344951
  0
LINE
  5
278
100
AcDbEntity
  8
0
100
AcDbLine
 62
7
  6
BYLAYER
 10
31.0135248054
 20
22.6319345034
 11
31.0135248054
 21
25.3224133321
  0
LINE
  5
279
100
AcDbEntity
  8
0
100
AcDbLine
 62
7
  6
BYLAYER
 10
32.314625153
 20
70.2876411042
 11
32.2296755817
 21
68.6667067218
  0
LINE
  5
27A
100
AcDbEntity
  8
0
100
AcDbLine
 62
7
  6
BYLAYER
 10
32.0527552899
 20
15.2968041266
 11
32.0527552899
 21
12.6575436754
  0
LINE
  5
27B
100
AcDbEntity
  8
0
100
AcDbLine
 62
7
  6
BYLAYER
 10
32.0527552899
 20
22.6575436707
 11
32.0527552899
 21
25.2968041554
  0
LINE
  5
27C
100
AcDbEntity
  8
0
100
AcDbLine
 62
7
  6
BYLAYER
 10
32.719742588
 20
80.477173913
 11
32.719742588
 21
70.477173913
  0
LINE
  5
27D
100
AcDbEntity
  8
0
100
AcDbLine
 62
7
  6
BYLAYER
 10
32.8124286322
 20
7.377173913
 11
32.8124286322
 21
7.177173913
  0
LINE
  5
27E
100
AcDbEntity
  8
0
100
AcDbLine
 62
7
  6
BYLAYER
 10
35.1248600231
 20
70.2876411042
 11
35.2098095944
 21
68.6667067218
  0
LINE
  5
27F
100
AcDbEntity
  8
0
100
AcDbLine
 62
7
  6
BYLAYER
 10
34.719742588
 20
80.477173913
 11
34.719742588
 21
70.477173913
  0
LINE
  5
280
100
AcDbEntity
  8
0
100
AcDbLine
 62
7
  6
BYLAYER
 10
47.8711527496
 20
16.177173913
 11
47.924742588
 21
15.977173913
  0
LINE
  5
281
100
AcDbEntity
  8
0
100
AcDbLine
 62
7
  6
BYLAYER
 10
37.8346378742
 20
68.3119035485
 11
38.3406009637
 21
65.4424442775
  0
LINE
  5
282
100
AcDbEntity
  8
0
100
AcDbLine
 62
7
  6
BYLAYER
 10
16.619742588
 20
57.727173913
 11
46.619742588
 21
57.727173913
  0
LINE
  5
283
100
AcDbEntity
  8
0
100
AcDbLine
 62
7
  6
BYLAYER
 10
45.819742588
 20
62.177173913
 11
45.819742588
 21
62.277173913
  0
LINE
  5
284
100
AcDbEntity
  8
0
100
AcDbLine
 62
7
  6
BYLAYER
 10
45.869742588
 20
7.177173913
 11
45.869742588
 21
7.377173913
  0
LINE
  5
285
100
AcDbEntity
  8
0
100
AcDbLine
 62
7
  6
BYLAYER
 10
45.869742588
 20
58.477173913
 11
45.869742588
 21
62.177173913
  0
LINE
  5
286
100
AcDbEntity
  8
0
100
AcDbLine
 62
7
  6
BYLAYER
 10
45.869742588
 20
62.277173913
 11
45.869742588
 21
65.077173913
  0
LINE
  5
287
100
AcDbEntity
  8
0
100
AcDbLine
 62
7
  6
BYLAYER
 10
46.619742588
 20
7.8771739131
 11
46.619742588
 21
11.977173913
  0
LINE
  5
288
100
AcDbEntity
  8
0
100
AcDbLine
 62
7
  6
BYLAYER
 10
46.619742588
 20
16.6240094143
 11
46.619742588
 21
21.3303367703
  0
LINE
  5
289
100
AcDbEntity
  8
0
100
AcDbLine
 62
7
  6
BYLAYER
 10
46.619742588
 20
25.977173913
 11
46.619742588
 21
57.727173913
  0
LINE
  5
28A
100
AcDbEntity
  8
0
100
AcDbLine
 62
7
  6
BYLAYER
 10
31.119742588
 20
21.277173913
 11
31.619742588
 21
21.777173913
  0
LINE
  5
28B
100
AcDbEntity
  8
0
100
AcDbLine
 62
7
  6
BYLAYER
 10
45.869742588
 20
58.477173913
 11
17.369742588
 21
58.477173913
  0
LINE
  5
28C
100
AcDbEntity
  8
0
100
AcDbLine
 62
7
  6
BYLAYER
 10
49.1867298861
 20
15.2968041248
 11
49.1867298861
 21
12.6575437013
  0
LINE
  5
28D
100
AcDbEntity
  8
0
100
AcDbLine
 62
7
  6
BYLAYER
 10
49.1867298861
 20
22.6575437066
 11
49.1867298861
 21
25.2968041239
  0
LINE
  5
28E
100
AcDbEntity
  8
0
100
AcDbLine
 62
7
  6
BYLAYER
 10
49.619742588
 20
11.977173913
 11
49.619742588
 21
15.977173913
  0
LINE
  5
28F
100
AcDbEntity
  8
0
100
AcDbLine
 62
7
  6
BYLAYER
 10
49.619742588
 20
21.977173913
 11
49.619742588
 21
25.977173913
  0
LINE
  5
290
100
AcDbEntity
  8
0
100
AcDbLine
 62
7
  6
BYLAYER
 10
17.3699524315
 20
62.177173913
 11
45.8695327446
 21
62.177173913
  0
LINE
  5
291
100
AcDbEntity
  8
0
100
AcDbLine
 62
7
  6
BYLAYER
 10
45.8694826489
 20
62.277173913
 11
17.369742588
 21
62.277173913
  0
LINE
  5
292
100
AcDbEntity
  8
0
100
AcDbLine
 62
7
  6
BYLAYER
 10
47.8711527496
 20
21.777173913
 11
47.924742588
 21
21.977173913
  0
LINE
  5
293
100
AcDbEntity
  8
0
100
AcDbLine
 62
7
  6
BYLAYER
 10
32.119742588
 20
16.677173913
 11
31.619742588
 21
16.177173913
  0
LINE
  5
294
100
AcDbEntity
  8
0
100
AcDbLine
 62
7
  6
BYLAYER
 10
17.369742588
 20
65.077173913
 11
45.869742588
 21
65.077173913
  0
LINE
  5
295
100
AcDbEntity
  8
0
100
AcDbLine
 62
7
  6
BYLAYER
 10
17.5699503161
 20
65.277173913
 11
45.6695348599
 21
65.277173913
  0
LINE
  5
296
100
AcDbEntity
  8
0
100
AcDbLine
 62
7
  6
BYLAYER
 10
38.3406009637
 20
65.4424442775
 11
24.8988842124
 21
65.4424442775
  0
LINE
  5
297
100
AcDbEntity
  8
0
100
AcDbLine
 62
7
  6
BYLAYER
 10
45.869742588
 20
58.477173913
 11
46.619742588
 21
57.727173913
  0
LINE
  5
298
100
AcDbEntity
  8
0
100
AcDbLine
 62
7
  6
BYLAYER
 10
25.4048473019
 20
68.3119035485
 11
37.8346378742
 21
68.3119035485
  0
LINE
  5
299
100
AcDbEntity
  8
0
100
AcDbLine
 62
7
  6
BYLAYER
 10
25.6018088525
 20
68.477173913
 11
37.6376389777
 21
68.477173913
  0
LINE
  5
29A
100
AcDbEntity
  8
0
100
AcDbLine
 62
7
  6
BYLAYER
 10
35.2098095944
 20
68.6667067218
 11
32.2296755817
 21
68.6667067218
  0
LINE
  5
29B
100
AcDbEntity
  8
0
100
AcDbLine
 62
7
  6
BYLAYER
 10
32.314625153
 20
70.2876411042
 11
35.1248600231
 21
70.2876411042
  0
LINE
  5
29C
100
AcDbEntity
  8
0
100
AcDbLine
 62
7
  6
BYLAYER
 10
32.5143510599
 20
70.477173913
 11
34.9251340991
 21
70.477173913
  0
LINE
  5
29D
100
AcDbEntity
  8
0
100
AcDbLine
 62
7
  6
BYLAYER
 10
46.119742588
 20
7.3771739131
 11
46.619742588
 21
7.8771739131
  0
LINE
  5
29E
100
AcDbEntity
  8
0
100
AcDbLine
 62
7
  6
BYLAYER
 10
32.719742588
 20
80.477173913
 11
34.719742588
 21
80.477173913
  0
ARC
  5
29F
100
AcDbEntity
  8
0
100
AcDbCircle
 62
7
  6
BYLAYER
 10
29.648967831
 20
99.1051938331
 40
76.4854326621
100
AcDbArc
 50
271.0222535316
 51
271.8009907792
  0
ARC
  5
2A0
100
AcDbEntity
  8
0
100
AcDbCircle
 62
7
  6
BYLAYER
 10
29.6489678346
 20
-61.1508460071
 40
76.4854326621
100
AcDbArc
 50
88.1990092235
 51
88.9777464711
  0
ARC
  5
2A1
100
AcDbEntity
  8
0
100
AcDbCircle
 62
7
  6
BYLAYER
 10
29.6489680594
 20
-51.1508367354
 40
76.4854233879
100
AcDbArc
 50
88.1990091736
 51
88.9777465156
  0
ARC
  5
2A2
100
AcDbEntity
  8
0
100
AcDbCircle
 62
7
  6
BYLAYER
 10
29.6489680631
 20
89.1051845615
 40
76.4854233878
100
AcDbArc
 50
271.0222534817
 51
271.8009908237
  0
ARC
  5
2A3
100
AcDbEntity
  8
0
100
AcDbCircle
 62
7
  6
BYLAYER
 10
15.0232709471
 20
48.6936751189
 40
26.0739339497
100
AcDbArc
 50
266.9143460613
 51
268.2476885371
  0
ARC
  5
2A4
100
AcDbEntity
  8
0
100
AcDbCircle
 62
7
  6
BYLAYER
 10
15.0232709501
 20
-10.7393272928
 40
26.0739339498
100
AcDbArc
 50
91.7523114695
 51
93.0856539453
  0
ARC
  5
2A5
100
AcDbEntity
  8
0
100
AcDbCircle
 62
7
  6
BYLAYER
 10
15.0232706396
 20
38.6936677706
 40
26.0739265955
100
AcDbArc
 50
266.9143458666
 51
268.2476887185
  0
ARC
  5
2A6
100
AcDbEntity
  8
0
100
AcDbCircle
 62
7
  6
BYLAYER
 10
15.0232706366
 20
-0.7393199443
 40
26.0739265952
100
AcDbArc
 50
91.7523112749
 51
93.0856541268
  0
ARC
  5
2A7
100
AcDbEntity
  8
0
100
AcDbCircle
 62
7
  6
BYLAYER
 10
50.1916976563
 20
1.9779370537
 40
13.3567279031
100
AcDbArc
 50
92.454241423
 51
94.315044789
  0
ARC
  5
2A8
100
AcDbEntity
  8
0
100
AcDbCircle
 62
7
  6
BYLAYER
 10
50.1916976523
 20
25.9764107053
 40
13.3567278359
100
AcDbArc
 50
265.6849552063
 51
267.5457585817
  0
ARC
  5
2A9
100
AcDbEntity
  8
0
100
AcDbCircle
 62
7
  6
BYLAYER
 10
50.1911033167
 20
35.9663613928
 40
13.3466622919
100
AcDbArc
 50
265.6842534684
 51
267.5464603143
  0
ARC
  5
2AA
100
AcDbEntity
  8
0
100
AcDbCircle
 62
7
  6
BYLAYER
 10
50.1911033128
 20
11.9879865002
 40
13.3466622248
100
AcDbArc
 50
92.453539681
 51
94.3157465363
  0
ARC
  5
2AB
100
AcDbEntity
  8
0
100
AcDbCircle
 62
7
  6
BYLAYER
 10
45.669742588
 20
7.177173913
 40
0.2
100
AcDbArc
 50
270.0
 51
360.0
  0
ARC
  5
2AC
100
AcDbEntity
  8
0
100
AcDbCircle
 62
7
  6
BYLAYER
 10
17.569742588
 20
7.177173913
 40
0.2
100
AcDbArc
 50
180.0
 51
270.0
  0
ARC
  5
2AD
100
AcDbEntity
  8
0
100
AcDbCircle
 62
7
  6
BYLAYER
 10
37.6376763235
 20
68.277173913
 40
0.2
100
AcDbArc
 50
10.0
 51
90.0
  0
ARC
  5
2AE
100
AcDbEntity
  8
0
100
AcDbCircle
 62
7
  6
BYLAYER
 10
25.6018088525
 20
68.277173913
 40
0.2
100
AcDbArc
 50
90.0
 51
170.0
  0
ARC
  5
2AF
100
AcDbEntity
  8
0
100
AcDbCircle
 62
7
  6
BYLAYER
 10
38.5375625143
 20
65.477173913
 40
0.2
100
AcDbArc
 50
190.0
 51
270.0
  0
ARC
  5
2B0
100
AcDbEntity
  8
0
100
AcDbCircle
 62
7
  6
BYLAYER
 10
32.0299496747
 20
68.677173913
 40
0.2
100
AcDbArc
 50
270.0
 51
357.0000000139
  0
ARC
  5
2B1
100
AcDbEntity
  8
0
100
AcDbCircle
 62
7
  6
BYLAYER
 10
35.4095355014
 20
68.677173913
 40
0.2
100
AcDbArc
 50
182.9999999861
 51
270.0
  0
ARC
  5
2B2
100
AcDbEntity
  8
0
100
AcDbCircle
 62
7
  6
BYLAYER
 10
17.569742588
 20
65.077173913
 40
0.2
100
AcDbArc
 50
90.0
 51
180.0
  0
ARC
  5
2B3
100
AcDbEntity
  8
0
100
AcDbCircle
 62
7
  6
BYLAYER
 10
32.51435106
 20
70.277173913
 40
0.2
100
AcDbArc
 50
90.0
 51
177.0000000139
  0
ARC
  5
2B4
100
AcDbEntity
  8
0
100
AcDbCircle
 62
7
  6
BYLAYER
 10
45.669742588
 20
65.077173913
 40
0.2
100
AcDbArc
 50
0.0
 51
90.0
  0
ARC
  5
2B5
100
AcDbEntity
  8
0
100
AcDbCircle
 62
7
  6
BYLAYER
 10
34.9251341161
 20
70.277173913
 40
0.2
100
AcDbArc
 50
2.9999999861
 51
89.9999999984
  0
ARC
  5
2B6
100
AcDbEntity
  8
0
100
AcDbCircle
 62
7
  6
BYLAYER
 10
24.7019226618
 20
65.477173913
 40
0.2
100
AcDbArc
 50
270.0
 51
350.0
  0
SPLINE
  5
2B7
100
AcDbEntity
  8
0
100
AcDbSpline
 62
7
  6
BYLAYER
 70
0
 71
3
 72
10
 73
6
 74
0
 42
0.0000001
 43
0.0000001
 44
0.0000000001
 40
0.0
 40
0.0
 40
0.0
 40
0.0
 40
0.2497808676
 40
0.4996693907
 40
1.0
 40
1.0
 40
1.0
 40
1.0
 10
40.6197469125
 20
21.977173939
 30
0.0
 10
39.903633769
 20
21.9771738601
 30
0.0
 10
38.4708983445
 20
22.0078973625
 30
0.0
 10
35.6090081481
 20
22.1883461943
 30
0.0
 10
33.4715197804
 20
22.4461234272
 30
0.0
 10
32.0527552899
 20
22.6575436995
 30
0.0
  0
SPLINE
  5
2B8
100
AcDbEntity
  8
0
100
AcDbSpline
 62
7
  6
BYLAYER
 70
0
 71
3
 72
10
 73
6
 74
0
 42
0.0000001
 43
0.0000001
 44
0.0000000001
 40
0.0
 40
0.0
 40
0.0
 40
0.0
 40
0.5003195007
 40
0.7502115219
 40
1.0
 40
1.0
 40
1.0
 40
1.0
 10
31.0135248054
 20
22.6319345034
 30
0.0
 10
29.623197356
 20
22.4279915944
 30
0.0
 10
27.5287454807
 20
22.1799472833
 30
0.0
 10
24.7249074349
 20
22.0066534509
 30
0.0
 10
23.3213070132
 20
21.9771739818
 30
0.0
 10
22.6197469125
 20
21.9771739391
 30
0.0
  0
SPLINE
  5
2B9
100
AcDbEntity
  8
0
100
AcDbSpline
 62
7
  6
BYLAYER
 70
0
 71
3
 72
10
 73
6
 74
0
 42
0.0000001
 43
0.0000001
 44
0.0000000001
 40
0.0
 40
0.0
 40
0.0
 40
0.0
 40
0.5003306153
 40
0.7502191272
 40
1.0
 40
1.0
 40
1.0
 40
1.0
 10
32.0527552899
 20
25.2968041506
 30
0.0
 10
33.4715197603
 20
25.5082244187
 30
0.0
 10
35.6090075792
 20
25.7660087115
 30
0.0
 10
38.4708985403
 20
25.9464423945
 30
0.0
 10
39.9036336521
 20
25.9771739456
 30
0.0
 10
40.6197467918
 20
25.9771738845
 30
0.0
  0
SPLINE
  5
2BA
100
AcDbEntity
  8
0
100
AcDbSpline
 62
7
  6
BYLAYER
 70
0
 71
3
 72
10
 73
6
 74
0
 42
0.0000001
 43
0.0000001
 44
0.0000000001
 40
0.0
 40
0.0
 40
0.0
 40
0.0
 40
0.2497884532
 40
0.4996804584
 40
1.0
 40
1.0
 40
1.0
 40
1.0
 10
22.6197467917
 20
25.9771738845
 30
0.0
 10
23.3213068545
 20
25.9771738273
 30
0.0
 10
24.7249070859
 20
25.9476922625
 30
0.0
 10
27.5287460915
 20
25.7744108213
 30
0.0
 10
29.6231971786
 20
25.526356266
 30
0.0
 10
31.0135248054
 20
25.3224133321
 30
0.0
  0
SPLINE
  5
2BB
100
AcDbEntity
  8
0
100
AcDbSpline
 62
7
  6
BYLAYER
 70
0
 71
3
 72
10
 73
6
 74
0
 42
0.0000001
 43
0.0000001
 44
0.0000000001
 40
0.0
 40
0.0
 40
0.0
 40
0.0
 40
0.5003195042
 40
0.7502115143
 40
1.0
 40
1.0
 40
1.0
 40
1.0
 10
14.2259603707
 20
25.3224133983
 30
0.0
 10
15.6162892055
 20
25.5263564994
 30
0.0
 10
17.7107426916
 20
25.7744086098
 30
0.0
 10
20.5145844888
 20
25.9476840909
 30
0.0
 10
21.9181859763
 20
25.9771739444
 30
0.0
 10
22.6197467917
 20
25.9771738845
 30
0.0
  0
SPLINE
  5
2BC
100
AcDbEntity
  8
0
100
AcDbSpline
 62
7
  6
BYLAYER
 70
0
 71
3
 72
10
 73
6
 74
0
 42
0.0000001
 43
0.0000001
 44
0.0000000001
 40
0.0
 40
0.0
 40
0.0
 40
0.0
 40
0.2497884794
 40
0.4996805005
 40
1.0
 40
1.0
 40
1.0
 40
1.0
 10
22.6197469125
 20
21.9771739391
 30
0.0
 10
21.9181860929
 20
21.9771738614
 30
0.0
 10
20.5145842771
 20
22.0066548595
 30
0.0
 10
17.7107432408
 20
22.1799462286
 30
0.0
 10
15.6162892355
 20
22.4279913748
 30
0.0
 10
14.2259603707
 20
22.6319344849
 30
0.0
  0
SPLINE
  5
2BD
100
AcDbEntity
  8
0
100
AcDbSpline
 62
7
  6
BYLAYER
 70
0
 71
3
 72
10
 73
6
 74
0
 42
0.0000001
 43
0.0000001
 44
0.0000000001
 40
0.0
 40
0.0
 40
0.0
 40
0.0
 40
0.2497808372
 40
0.4996693425
 40
1.0
 40
1.0
 40
1.0
 40
1.0
 10
40.6197467918
 20
25.9771738845
 30
0.0
 10
41.335859168
 20
25.9771738261
 30
0.0
 10
42.7685929902
 20
25.9464499322
 30
0.0
 10
45.630481229
 20
25.7660115765
 30
0.0
 10
47.7679666069
 20
25.5082242181
 30
0.0
 10
49.1867298861
 20
25.2968041239
 30
0.0
  0
SPLINE
  5
2BE
100
AcDbEntity
  8
0
100
AcDbSpline
 62
7
  6
BYLAYER
 70
0
 71
3
 72
10
 73
6
 74
0
 42
0.0000001
 43
0.0000001
 44
0.0000000001
 40
0.0
 40
0.0
 40
0.0
 40
0.0
 40
0.5003306106
 40
0.7502191338
 40
1.0
 40
1.0
 40
1.0
 40
1.0
 10
49.1867298861
 20
22.6575437066
 30
0.0
 10
47.7679668101
 20
22.4461236424
 30
0.0
 10
45.6304805628
 20
22.1883473497
 30
0.0
 10
42.7685933689
 20
22.0078959188
 30
0.0
 10
41.3358593365
 20
21.977173983
 30
0.0
 10
40.6197469125
 20
21.977173939
 30
0.0
  0
SPLINE
  5
2BF
100
AcDbEntity
  8
0
100
AcDbSpline
 62
7
  6
BYLAYER
 70
0
 71
3
 72
10
 73
6
 74
0
 42
0.0000001
 43
0.0000001
 44
0.0000000001
 40
0.0
 40
0.0
 40
0.0
 40
0.0
 40
0.5003306608
 40
0.750219165
 40
1.0
 40
1.0
 40
1.0
 40
1.0
 10
49.1867298861
 20
12.6575437021
 30
0.0
 10
47.7679665977
 20
12.4461236066
 30
0.0
 10
45.6304812133
 20
12.1883362484
 30
0.0
 10
42.7685929744
 20
12.0078978919
 30
0.0
 10
41.3358591615
 20
11.977174
 30
0.0
 10
40.6197467918
 20
11.9771739415
 30
0.0
  0
SPLINE
  5
2C0
100
AcDbEntity
  8
0
100
AcDbSpline
 62
7
  6
BYLAYER
 70
0
 71
3
 72
10
 73
6
 74
0
 42
0.0000001
 43
0.0000001
 44
0.0000000001
 40
0.0
 40
0.0
 40
0.0
 40
0.0
 40
0.2497884873
 40
0.4996804982
 40
1.0
 40
1.0
 40
1.0
 40
1.0
 10
22.6197467917
 20
11.9771739415
 30
0.0
 10
21.9181859718
 20
11.9771738817
 30
0.0
 10
20.5145844776
 20
12.0066637317
 30
0.0
 10
17.7107426806
 20
12.1799392178
 30
0.0
 10
15.616289199
 20
12.4279913276
 30
0.0
 10
14.2259603707
 20
12.6319344277
 30
0.0
  0
SPLINE
  5
2C1
100
AcDbEntity
  8
0
100
AcDbSpline
 62
7
  6
BYLAYER
 70
0
 71
3
 72
10
 73
6
 74
0
 42
0.0000001
 43
0.0000001
 44
0.0000000001
 40
0.0
 40
0.0
 40
0.0
 40
0.0
 40
0.500330612
 40
0.7502191342
 40
1.0
 40
1.0
 40
1.0
 40
1.0
 10
32.0527552899
 20
15.2968041266
 30
0.0
 10
33.471519788
 20
15.5082244001
 30
0.0
 10
35.6090081608
 20
15.7660016354
 30
0.0
 10
38.4708983576
 20
15.9464504588
 30
0.0
 10
39.9036337743
 20
15.977173966
 30
0.0
 10
40.6197469125
 20
15.9771738871
 30
0.0
  0
SPLINE
  5
2C2
100
AcDbEntity
  8
0
100
AcDbSpline
 62
7
  6
BYLAYER
 70
0
 71
3
 72
10
 73
6
 74
0
 42
0.0000001
 43
0.0000001
 44
0.0000000001
 40
0.0
 40
0.0
 40
0.0
 40
0.0
 40
0.2497884797
 40
0.4996805017
 40
1.0
 40
1.0
 40
1.0
 40
1.0
 10
22.6197469125
 20
15.977173887
 30
0.0
 10
23.3213070176
 20
15.9771738443
 30
0.0
 10
24.724907446
 20
15.9476943787
 30
0.0
 10
27.5287454915
 20
15.7744005407
 30
0.0
 10
29.6231973624
 20
15.5263562307
 30
0.0
 10
31.0135248054
 20
15.3224133227
 30
0.0
  0
SPLINE
  5
2C3
100
AcDbEntity
  8
0
100
AcDbSpline
 62
7
  6
BYLAYER
 70
0
 71
3
 72
10
 73
6
 74
0
 42
0.0000001
 43
0.0000001
 44
0.0000000001
 40
0.0
 40
0.0
 40
0.0
 40
0.0
 40
0.2497808747
 40
0.4996693873
 40
1.0
 40
1.0
 40
1.0
 40
1.0
 10
40.6197467918
 20
11.9771739415
 30
0.0
 10
39.9036336469
 20
11.9771738805
 30
0.0
 10
38.4708985272
 20
12.0079054273
 30
0.0
 10
35.6090075665
 20
12.1883391171
 30
0.0
 10
33.4715197528
 20
12.4461234084
 30
0.0
 10
32.0527552899
 20
12.6575436754
 30
0.0
  0
SPLINE
  5
2C4
100
AcDbEntity
  8
0
100
AcDbSpline
 62
7
  6
BYLAYER
 70
0
 71
3
 72
10
 73
6
 74
0
 42
0.0000001
 43
0.0000001
 44
0.0000000001
 40
0.0
 40
0.0
 40
0.0
 40
0.0
 40
0.5003195444
 40
0.7502115487
 40
1.0
 40
1.0
 40
1.0
 40
1.0
 10
31.0135248054
 20
12.6319344939
 30
0.0
 10
29.6231971707
 20
12.4279915589
 30
0.0
 10
27.5287460781
 20
12.179937004
 30
0.0
 10
24.7249070725
 20
12.0066555619
 30
0.0
 10
23.321306849
 20
11.9771739988
 30
0.0
 10
22.6197467917
 20
11.9771739415
 30
0.0
  0
SPLINE
  5
2C5
100
AcDbEntity
  8
0
100
AcDbSpline
 62
7
  6
BYLAYER
 70
0
 71
3
 72
10
 73
6
 74
0
 42
0.0000001
 43
0.0000001
 44
0.0000000001
 40
0.0
 40
0.0
 40
0.0
 40
0.0
 40
0.2497808681
 40
0.499669392
 40
1.0
 40
1.0
 40
1.0
 40
1.0
 10
40.6197469125
 20
15.9771738871
 30
0.0
 10
41.3358593418
 20
15.9771738431
 30
0.0
 10
42.7685933818
 20
15.9464519116
 30
0.0
 10
45.6304805755
 20
15.7660004734
 30
0.0
 10
47.7679668175
 20
15.5082241826
 30
0.0
 10
49.1867298861
 20
15.2968041195
 30
0.0
  0
SPLINE
  5
2C6
100
AcDbEntity
  8
0
100
AcDbSpline
 62
7
  6
BYLAYER
 70
0
 71
3
 72
10
 73
6
 74
0
 42
0.0000001
 43
0.0000001
 44
0.0000000001
 40
0.0
 40
0.0
 40
0.0
 40
0.0
 40
0.5003195018
 40
0.7502115222
 40
1.0
 40
1.0
 40
1.0
 40
1.0
 10
14.2259603707
 20
15.3224133412
 30
0.0
 10
15.616289242
 20
15.5263564523
 30
0.0
 10
17.7107432517
 20
15.7744016002
 30
0.0
 10
20.5145842883
 20
15.9476929628
 30
0.0
 10
21.9181860975
 20
15.9771739647
 30
0.0
 10
22.6197469125
 20
15.977173887
 30
0.0
  0
SPLINE
  5
2C7
100
AcDbEntity
  8
0
100
AcDbSpline
 62
7
  6
BYLAYER
 70
0
 71
3
 72
43
 73
39
 74
0
 42
0.0000001
 43
0.0000001
 44
0.0000000001
 40
0.0
 40
0.0
 40
0.0
 40
0.0
 40
0.0077731413
 40
0.0116805965
 40
0.0155841699
 40
0.0233991564
 40
0.0312131289
 40
0.0468370334
 40
0.0624627613
 40
0.0780890218
 40
0.0937153551
 40
0.1249671037
 40
0.1562195822
 40
0.1874722725
 40
0.218725096
 40
0.2499779959
 40
0.312483182
 40
0.3749886485
 40
0.4374942877
 40
0.4999999916
 40
0.5625056628
 40
0.6250112927
 40
0.6875167995
 40
0.7500219636
 40
0.7812748544
 40
0.8125276882
 40
0.8437803827
 40
0.8750328481
 40
0.9062846392
 40
0.9375338914
 40
0.9531598017
 40
0.9609732308
 40
0.968787121
 40
0.9765996492
 40
0.9844166405
 40
0.9883189463
 40
0.9922265295
 40
1.0
 40
1.0
 40
1.0
 40
1.0
 10
30.4270565439
 20
7.177173913
 30
0.0
 10
30.4270565439
 20
7.1708696047
 30
0.0
 10
30.4329686238
 20
7.1618385155
 30
0.0
 10
30.4427563424
 20
7.1540933879
 30
0.0
 10
30.4535614675
 20
7.1473542667
 30
0.0
 10
30.4677649806
 20
7.1403027207
 30
0.0
 10
30.4915057461
 20
7.1313454039
 30
0.0
 10
30.5218327464
 20
7.1220982483
 30
0.0
 10
30.5588097844
 20
7.1131982408
 30
0.0
 10
30.5960866352
 20
7.1056910322
 30
0.0
 10
30.646028446
 20
7.0969694718
 30
0.0
 10
30.7087708213
 20
7.0879966424
 30
0.0
 10
30.7843166018
 20
7.0792895707
 30
0.0
 10
30.8600208799
 20
7.0720928485
 30
0.0
 10
30.9358326274
 20
7.0661513929
 30
0.0
 10
31.0370052263
 20
7.0595065086
 30
0.0
 10
31.1635952611
 20
7.0532573097
 30
0.0
 10
31.3156022521
 20
7.0482854045
 30
0.0
 10
31.4676645619
 20
7.0455155118
 30
0.0
 10
31.6197481912
 20
7.0445453256
 30
0.0
 10
31.7718329729
 20
7.0454483166
 30
0.0
 10
31.9238931984
 20
7.0483279462
 30
0.0
 10
32.0759011957
 20
7.053255817
 30
0.0
 10
32.202491482
 20
7.0595047006
 30
0.0
 10
32.3036643308
 20
7.0661463268
 30
0.0
 10
32.3794739868
 20
7.0721156325
 30
0.0
 10
32.4551798707
 20
7.0792865487
 30
0.0
 10
32.5307285906
 20
7.0879932838
 30
0.0
 10
32.6060037939
 20
7.098786217
 30
0.0
 10
32.6683681915
 20
7.1102195564
 30
0.0
 10
32.7114802952
 20
7.1207027525
 30
0.0
 10
32.7358967527
 20
7.1275224888
 30
0.0
 10
32.7539929989
 20
7.1333699979
 30
0.0
 10
32.7717005032
 20
7.1403554535
 30
0.0
 10
32.7859071704
 20
7.1473785455
 30
0.0
 10
32.7967369524
 20
7.1540833344
 30
0.0
 10
32.8065130134
 20
7.1618430691
 30
0.0
 10
32.8124286322
 20
7.1708693377
 30
0.0
 10
32.8124286322
 20
7.177173913
 30
0.0
  0
ELLIPSE
  5
2C8
100
AcDbEntity
  8
0
100
AcDbEllipse
 62
7
  6
BYLAYER
 10
25.0295410029
 20
15.1617988284
 30
0.0
 11
18.1514209571
 21
18.1605909673
 31
0.0
 40
0.0406765142
 41
1.2401461389
 42
1.2682738639
  0
ELLIPSE
  5
2C9
100
AcDbEntity
  8
0
100
AcDbEllipse
 62
7
  6
BYLAYER
 10
30.47099476
 20
15.1617988285
 30
0.0
 11
10.9958379272
 21
15.791979517
 31
0.0
 40
0.818317629
 41
-4.5381463488
 42
-4.5376361753
  0
ELLIPSE
  5
2CA
100
AcDbEntity
  8
0
100
AcDbEllipse
 62
7
  6
BYLAYER
 10
29.9075575257
 20
15.1617988285
 30
0.0
 11
12.3580633753
 21
15.6563003942
 31
0.0
 40
0.7470541823
 41
1.755413405
 42
1.7604339261
  0
ELLIPSE
  5
2CB
100
AcDbEntity
  8
0
100
AcDbEllipse
 62
7
  6
BYLAYER
 10
29.3571510535
 20
15.1617988284
 30
0.0
 11
13.3023954138
 21
15.7703479229
 31
0.0
 40
0.6792721423
 41
1.7395026584
 42
1.7479481052
  0
ELLIPSE
  5
2CC
100
AcDbEntity
  8
0
100
AcDbEllipse
 62
7
  6
BYLAYER
 10
28.823964269
 20
15.1617988284
 30
0.0
 11
14.0585338956
 21
15.9844133441
 31
0.0
 40
0.6154007239
 41
-4.5706155829
 42
-4.5594411901
  0
ELLIPSE
  5
2CD
100
AcDbEntity
  8
0
100
AcDbEllipse
 62
7
  6
BYLAYER
 10
28.3120550457
 20
15.1617988285
 30
0.0
 11
14.7051040421
 21
16.2385436118
 31
0.0
 40
0.5552272381
 41
-4.6030939231
 42
-4.5896631569
  0
ELLIPSE
  5
2CE
100
AcDbEntity
  8
0
100
AcDbEllipse
 62
7
  6
BYLAYER
 10
27.8253193219
 20
15.1617988284
 30
0.0
 11
15.274965845
 21
16.5043969512
 31
0.0
 40
0.4983942514
 41
-4.63871335
 42
-4.6233600039
  0
ELLIPSE
  5
2CF
100
AcDbEntity
  8
0
100
AcDbEllipse
 62
7
  6
BYLAYER
 10
27.3674614502
 20
15.1617988284
 30
0.0
 11
15.7835371161
 21
16.766803626
 31
0.0
 40
0.4445239339
 41
-4.6762656208
 42
-4.6592307362
  0
ELLIPSE
  5
2D0
100
AcDbEntity
  8
0
100
AcDbEllipse
 62
7
  6
BYLAYER
 10
26.9419660056
 20
15.1617988285
 30
0.0
 11
16.2384907108
 21
17.0168501026
 31
0.0
 40
0.3932536107
 41
1.5681045669
 42
1.5866441138
  0
ELLIPSE
  5
2D1
100
AcDbEntity
  8
0
100
AcDbEllipse
 62
7
  6
BYLAYER
 10
26.5520712653
 20
15.1617988284
 30
0.0
 11
16.6436838349
 21
17.2489119491
 31
0.0
 40
0.3442450777
 41
1.5284256265
 42
1.5483400703
  0
ELLIPSE
  5
2D2
100
AcDbEntity
  8
0
100
AcDbEllipse
 62
7
  6
BYLAYER
 10
26.2007445638
 20
15.1617988284
 30
0.0
 11
17.0009614673
 21
17.4592414022
 31
0.0
 40
0.2971852239
 41
1.4881351505
 42
1.5093298802
  0
ELLIPSE
  5
2D3
100
AcDbEntity
  8
0
100
AcDbEllipse
 62
7
  6
BYLAYER
 10
25.8906597092
 20
15.1617988285
 30
0.0
 11
17.311068251
 21
17.6452378715
 31
0.0
 40
0.2517837063
 41
1.447560264
 42
1.4698078979
  0
ELLIPSE
  5
2D4
100
AcDbEntity
  8
0
100
AcDbEllipse
 62
7
  6
BYLAYER
 10
25.6241766347
 20
15.1617988284
 30
0.0
 11
17.5741469284
 21
17.8050458869
 31
0.0
 40
0.2077697388
 41
1.4065581876
 42
1.4299111685
  0
ELLIPSE
  5
2D5
100
AcDbEntity
  8
0
100
AcDbEllipse
 62
7
  6
BYLAYER
 10
25.4033234373
 20
15.1617988284
 30
0.0
 11
17.7900285404
 21
17.9373217495
 31
0.0
 40
0.1648887629
 41
1.3652388603
 42
1.3897401552
  0
ELLIPSE
  5
2D6
100
AcDbEntity
  8
0
100
AcDbEllipse
 62
7
  6
BYLAYER
 10
25.2297809432
 20
15.1617988285
 30
0.0
 11
17.9584099181
 21
18.0410926156
 31
0.0
 40
0.1228992729
 41
1.3236867023
 42
1.3493714145
  0
ELLIPSE
  5
2D7
100
AcDbEntity
  8
0
100
AcDbEllipse
 62
7
  6
BYLAYER
 10
25.1048699156
 20
15.1617988285
 30
0.0
 11
18.0789658936
 21
18.1156691418
 31
0.0
 40
0.0815698667
 41
1.2819697374
 42
1.3088657657
  0
ELLIPSE
  5
2D8
100
AcDbEntity
  8
0
100
AcDbEllipse
 62
7
  6
BYLAYER
 10
26.9996371458
 20
26.4685519288
 30
0.0
 11
-17.4274961419
 21
17.4466624083
 31
0.0
 40
0.0843354388
 41
-4.5251695758
 42
-4.4954004319
  0
ELLIPSE
  5
2D9
100
AcDbEntity
  8
0
100
AcDbEllipse
 62
7
  6
BYLAYER
 10
27.0882194018
 20
26.4685519288
 30
0.0
 11
-17.326459176
 21
17.3696482286
 31
0.0
 40
0.1269935126
 41
-4.5671318146
 42
-4.5373626707
  0
ELLIPSE
  5
2DA
100
AcDbEntity
  8
0
100
AcDbEllipse
 62
7
  6
BYLAYER
 10
27.2112892853
 20
26.4685519288
 30
0.0
 11
-17.185307668
 21
17.2622772411
 31
0.0
 40
0.1702469903
 41
-4.6090176139
 42
-4.57924847
  0
ELLIPSE
  5
2DB
100
AcDbEntity
  8
0
100
AcDbEllipse
 62
7
  6
BYLAYER
 10
27.3679101605
 20
26.4685519288
 30
0.0
 11
-17.0043043001
 21
17.1250267564
 31
0.0
 40
0.2143062114
 41
-4.650793302
 42
-4.6210241581
  0
ELLIPSE
  5
2DC
100
AcDbEntity
  8
0
100
AcDbEllipse
 62
7
  6
BYLAYER
 10
27.5568900477
 20
26.4685519288
 30
0.0
 11
-16.7837266909
 21
16.9585571531
 31
0.0
 40
0.2593921815
 41
-4.6924166842
 42
-4.6626475403
  0
ELLIPSE
  5
2DD
100
AcDbEntity
  8
0
100
AcDbEllipse
 62
7
  6
BYLAYER
 10
27.7767906959
 20
26.4685519288
 30
0.0
 11
-16.523808647
 21
16.7637596114
 31
0.0
 40
0.3057398728
 41
1.5493527354
 42
1.5791218793
  0
ELLIPSE
  5
2DE
100
AcDbEntity
  8
0
100
AcDbEllipse
 62
7
  6
BYLAYER
 10
28.0259385285
 20
26.4685519288
 30
0.0
 11
-16.2246471729
 21
16.5418339295
 31
0.0
 40
0.3536019736
 41
1.5082194939
 42
1.5379886378
  0
ELLIPSE
  5
2DF
100
AcDbEntity
  8
0
100
AcDbEllipse
 62
7
  6
BYLAYER
 10
28.30243738
 20
26.4685519288
 30
0.0
 11
-15.8860502942
 21
16.2944188981
 31
0.0
 40
0.4032531911
 41
1.4674754626
 42
1.4972446065
  0
ELLIPSE
  5
2E0
100
AcDbEntity
  8
0
100
AcDbEllipse
 62
7
  6
BYLAYER
 10
28.6041829272
 20
26.4685519288
 30
0.0
 11
-15.507275323
 21
16.023819938
 31
0.0
 40
0.4549951859
 41
1.4272784908
 42
1.4570476347
  0
ELLIPSE
  5
2E1
100
AcDbEntity
  8
0
100
AcDbEllipse
 62
7
  6
BYLAYER
 10
28.9288787042
 20
26.4685519288
 30
0.0
 11
-15.0865489373
 21
15.7334287619
 31
0.0
 40
0.5091621171
 41
1.3878744092
 42
1.4176435531
  0
ELLIPSE
  5
2E2
100
AcDbEntity
  8
0
100
AcDbEllipse
 62
7
  6
BYLAYER
 10
29.2740535802
 20
26.4685519288
 30
0.0
 11
-14.6201143459
 21
15.4285527016
 31
0.0
 40
0.5661264515
 41
1.349670045
 42
1.3794391888
  0
ELLIPSE
  5
2E3
100
AcDbEntity
  8
0
100
AcDbEllipse
 62
7
  6
BYLAYER
 10
29.6370805659
 20
26.4685519288
 30
0.0
 11
-14.1001405585
 21
15.1182070608
 31
0.0
 40
0.6263036642
 41
1.3133928442
 42
1.3431619881
  0
ELLIPSE
  5
2E4
100
AcDbEntity
  8
0
100
AcDbEllipse
 62
7
  6
BYLAYER
 10
30.0151968067
 20
26.4685519288
 30
0.0
 11
-13.5094930283
 21
14.8194770471
 31
0.0
 40
0.6901509118
 41
1.2804861718
 42
1.3102553157
  0
ELLIPSE
  5
2E5
100
AcDbEntity
  8
0
100
AcDbEllipse
 62
7
  6
BYLAYER
 10
30.4055246098
 20
26.4685519288
 30
0.0
 11
-12.8060309747
 21
14.5700382847
 31
0.0
 40
0.7581403628
 41
1.2542756011
 42
1.2840447449
  0
ELLIPSE
  5
2E6
100
AcDbEntity
  8
0
100
AcDbEllipse
 62
7
  6
BYLAYER
 10
30.8050933449
 20
26.4685519288
 30
0.0
 11
-11.8601695234
 21
14.4741311195
 31
0.0
 40
0.8306103506
 41
1.2444691952
 42
1.2742383391
  0
ELLIPSE
  5
2E7
100
AcDbEntity
  8
0
100
AcDbEllipse
 62
7
  6
BYLAYER
 10
31.2108620526
 20
26.4685519288
 30
0.0
 11
-10.0427045149
 21
14.9543464083
 31
0.0
 40
0.9066977799
 41
1.2951223273
 42
1.3248914712
  0
ELLIPSE
  5
2E8
100
AcDbEntity
  8
0
100
AcDbEllipse
 62
7
  6
BYLAYER
 10
31.619742588
 20
26.4685519288
 30
0.0
 11
-0.0
 21
17.5084611122
 31
0.0
 40
0.963433044
 41
-4.4411252267
 42
-4.4113560828
  0
ELLIPSE
  5
2E9
100
AcDbEntity
  8
0
100
AcDbEllipse
 62
7
  6
BYLAYER
 10
36.2932684941
 20
26.4685519288
 30
0.0
 11
17.4882083164
 21
17.4929960222
 31
0.0
 40
0.0420701413
 41
-1.8297953707
 42
-1.8000262268
  0
ELLIPSE
  5
2EA
100
AcDbEntity
  8
0
100
AcDbEllipse
 62
7
  6
BYLAYER
 10
31.619742588
 20
26.4685519288
 30
0.0
 11
-0.0
 21
17.5084611122
 31
0.0
 40
0.963433044
 41
4.4113560828
 42
4.4411252267
  0
ELLIPSE
  5
2EB
100
AcDbEntity
  8
0
100
AcDbEllipse
 62
7
  6
BYLAYER
 10
32.0286231235
 20
26.4685519288
 30
0.0
 11
10.0427045149
 21
14.9543464083
 31
0.0
 40
0.9066977799
 41
-1.3248914712
 42
-1.2951223273
  0
ELLIPSE
  5
2EC
100
AcDbEntity
  8
0
100
AcDbEllipse
 62
7
  6
BYLAYER
 10
32.4343918312
 20
26.4685519288
 30
0.0
 11
11.8601695234
 21
14.4741311195
 31
0.0
 40
0.8306103506
 41
-1.2742383391
 42
-1.2444691952
  0
ELLIPSE
  5
2ED
100
AcDbEntity
  8
0
100
AcDbEllipse
 62
7
  6
BYLAYER
 10
32.8339605663
 20
26.4685519288
 30
0.0
 11
12.8060309747
 21
14.5700382847
 31
0.0
 40
0.7581403628
 41
-1.2840447449
 42
-1.2542756011
  0
ELLIPSE
  5
2EE
100
AcDbEntity
  8
0
100
AcDbEllipse
 62
7
  6
BYLAYER
 10
33.2242883694
 20
26.4685519288
 30
0.0
 11
13.5094930283
 21
14.8194770471
 31
0.0
 40
0.6901509118
 41
-1.3102553157
 42
-1.2804861718
  0
ELLIPSE
  5
2EF
100
AcDbEntity
  8
0
100
AcDbEllipse
 62
7
  6
BYLAYER
 10
33.6024046102
 20
26.4685519288
 30
0.0
 11
14.1001405585
 21
15.1182070608
 31
0.0
 40
0.6263036642
 41
-1.3431619881
 42
-1.3133928442
  0
ELLIPSE
  5
2F0
100
AcDbEntity
  8
0
100
AcDbEllipse
 62
7
  6
BYLAYER
 10
33.9654315959
 20
26.4685519288
 30
0.0
 11
14.6201143459
 21
15.4285527016
 31
0.0
 40
0.5661264515
 41
-1.3794391888
 42
-1.349670045
  0
ELLIPSE
  5
2F1
100
AcDbEntity
  8
0
100
AcDbEllipse
 62
7
  6
BYLAYER
 10
34.3106064719
 20
26.4685519288
 30
0.0
 11
15.0865489373
 21
15.7334287619
 31
0.0
 40
0.5091621171
 41
-1.4176435531
 42
-1.3878744092
  0
ELLIPSE
  5
2F2
100
AcDbEntity
  8
0
100
AcDbEllipse
 62
7
  6
BYLAYER
 10
34.6353022489
 20
26.4685519288
 30
0.0
 11
15.507275323
 21
16.023819938
 31
0.0
 40
0.4549951859
 41
-1.4570476347
 42
-1.4272784908
  0
ELLIPSE
  5
2F3
100
AcDbEntity
  8
0
100
AcDbEllipse
 62
7
  6
BYLAYER
 10
34.9370477961
 20
26.4685519288
 30
0.0
 11
15.8860502942
 21
16.2944188981
 31
0.0
 40
0.4032531911
 41
-1.4972446065
 42
-1.4674754626
  0
ELLIPSE
  5
2F4
100
AcDbEntity
  8
0
100
AcDbEllipse
 62
7
  6
BYLAYER
 10
35.2135466476
 20
26.4685519288
 30
0.0
 11
16.2246471729
 21
16.5418339295
 31
0.0
 40
0.3536019736
 41
-1.5379886378
 42
-1.5082194939
  0
ELLIPSE
  5
2F5
100
AcDbEntity
  8
0
100
AcDbEllipse
 62
7
  6
BYLAYER
 10
35.4626944802
 20
26.4685519288
 30
0.0
 11
16.523808647
 21
16.7637596114
 31
0.0
 40
0.3057398728
 41
-1.5791218793
 42
-1.5493527354
  0
ELLIPSE
  5
2F6
100
AcDbEntity
  8
0
100
AcDbEllipse
 62
7
  6
BYLAYER
 10
35.6825951284
 20
26.4685519288
 30
0.0
 11
16.7837266909
 21
16.9585571531
 31
0.0
 40
0.2593921815
 41
-1.6205377669
 42
-1.590768623
  0
ELLIPSE
  5
2F7
100
AcDbEntity
  8
0
100
AcDbEllipse
 62
7
  6
BYLAYER
 10
35.8715750156
 20
26.4685519288
 30
0.0
 11
17.0043043001
 21
17.1250267564
 31
0.0
 40
0.2143062114
 41
-1.6621611491
 42
-1.6323920052
  0
ELLIPSE
  5
2F8
100
AcDbEntity
  8
0
100
AcDbEllipse
 62
7
  6
BYLAYER
 10
36.0281958907
 20
26.4685519288
 30
0.0
 11
17.185307668
 21
17.2622772411
 31
0.0
 40
0.1702469903
 41
-1.7039368372
 42
-1.6741676933
  0
ELLIPSE
  5
2F9
100
AcDbEntity
  8
0
100
AcDbEllipse
 62
7
  6
BYLAYER
 10
36.1512657743
 20
26.4685519288
 30
0.0
 11
17.326459176
 21
17.3696482286
 31
0.0
 40
0.1269935126
 41
-1.7458226364
 42
-1.7160534926
  0
ELLIPSE
  5
2FA
100
AcDbEntity
  8
0
100
AcDbEllipse
 62
7
  6
BYLAYER
 10
36.2398480302
 20
26.4685519288
 30
0.0
 11
17.4274961419
 21
17.4466624083
 31
0.0
 40
0.0843354388
 41
-1.7877848753
 42
-1.7580157314
  0
ELLIPSE
  5
2FB
100
AcDbEntity
  8
0
100
AcDbEllipse
 62
7
  6
BYLAYER
 10
38.1346152604
 20
15.1617988285
 30
0.0
 11
-18.0789658936
 21
18.1156691418
 31
0.0
 40
0.0815698667
 41
-1.3088657657
 42
-1.2819697269
  0
ELLIPSE
  5
2FC
100
AcDbEntity
  8
0
100
AcDbEllipse
 62
7
  6
BYLAYER
 10
38.0097042328
 20
15.1617988285
 30
0.0
 11
-17.9584099181
 21
18.0410926156
 31
0.0
 40
0.1228992729
 41
-1.3493714145
 42
-1.3236866873
  0
ELLIPSE
  5
2FD
100
AcDbEntity
  8
0
100
AcDbEllipse
 62
7
  6
BYLAYER
 10
37.8361617388
 20
15.1617988284
 30
0.0
 11
-17.7900285404
 21
17.9373217495
 31
0.0
 40
0.1648887629
 41
-1.3897401552
 42
-1.3652388413
  0
ELLIPSE
  5
2FE
100
AcDbEntity
  8
0
100
AcDbEllipse
 62
7
  6
BYLAYER
 10
37.6153085414
 20
15.1617988284
 30
0.0
 11
-17.5741469284
 21
17.8050458869
 31
0.0
 40
0.2077697388
 41
-1.4299111685
 42
-1.4065581646
  0
ELLIPSE
  5
2FF
100
AcDbEntity
  8
0
100
AcDbEllipse
 62
7
  6
BYLAYER
 10
37.3488254669
 20
15.1617988285
 30
0.0
 11
-17.311068251
 21
17.6452378715
 31
0.0
 40
0.2517837063
 41
-1.4698078979
 42
-1.4475602366
  0
ELLIPSE
  5
300
100
AcDbEntity
  8
0
100
AcDbEllipse
 62
7
  6
BYLAYER
 10
37.0387406123
 20
15.1617988284
 30
0.0
 11
-17.0009614673
 21
17.4592414022
 31
0.0
 40
0.2971852239
 41
-1.5093298802
 42
-1.4881351175
  0
ELLIPSE
  5
301
100
AcDbEntity
  8
0
100
AcDbEllipse
 62
7
  6
BYLAYER
 10
36.6874139107
 20
15.1617988284
 30
0.0
 11
-16.6436838349
 21
17.2489119491
 31
0.0
 40
0.3442450777
 41
-1.5483400703
 42
-1.5284256044
  0
ELLIPSE
  5
302
100
AcDbEntity
  8
0
100
AcDbEllipse
 62
7
  6
BYLAYER
 10
36.2975191705
 20
15.1617988285
 30
0.0
 11
-16.2384907108
 21
17.0168501026
 31
0.0
 40
0.3932536107
 41
-1.5866441138
 42
-1.5681045703
  0
ELLIPSE
  5
303
100
AcDbEntity
  8
0
100
AcDbEllipse
 62
7
  6
BYLAYER
 10
35.8720237258
 20
15.1617988284
 30
0.0
 11
-15.7835371161
 21
16.766803626
 31
0.0
 40
0.4445239339
 41
-1.623954571
 42
-1.6069196881
  0
ELLIPSE
  5
304
100
AcDbEntity
  8
0
100
AcDbEllipse
 62
7
  6
BYLAYER
 10
35.4141658542
 20
15.1617988284
 30
0.0
 11
-15.274965845
 21
16.5043969512
 31
0.0
 40
0.4983942514
 41
-1.6598253033
 42
-1.6444719578
  0
ELLIPSE
  5
305
100
AcDbEntity
  8
0
100
AcDbEllipse
 62
7
  6
BYLAYER
 10
34.9274301303
 20
15.1617988285
 30
0.0
 11
-14.7051040421
 21
16.2385436118
 31
0.0
 40
0.5552272381
 41
-1.6935221503
 42
-1.6800913845
  0
ELLIPSE
  5
306
100
AcDbEntity
  8
0
100
AcDbEllipse
 62
7
  6
BYLAYER
 10
34.4155209071
 20
15.1617988284
 30
0.0
 11
-14.0585338956
 21
15.9844133441
 31
0.0
 40
0.6154007239
 41
-1.7237441171
 42
-1.7125697259
  0
ELLIPSE
  5
307
100
AcDbEntity
  8
0
100
AcDbEllipse
 62
7
  6
BYLAYER
 10
33.8823341226
 20
15.1617988284
 30
0.0
 11
-13.3023954138
 21
15.7703479229
 31
0.0
 40
0.6792721423
 41
-1.7479481052
 42
-1.7395026589
  0
ELLIPSE
  5
308
100
AcDbEntity
  8
0
100
AcDbEllipse
 62
7
  6
BYLAYER
 10
33.3319276504
 20
15.1617988285
 30
0.0
 11
-12.3580633753
 21
15.6563003942
 31
0.0
 40
0.7470541823
 41
-1.7604339261
 42
-1.7554134017
  0
ELLIPSE
  5
309
100
AcDbEntity
  8
0
100
AcDbEllipse
 62
7
  6
BYLAYER
 10
26.946216682
 20
26.4685519288
 30
0.0
 11
-17.4882083164
 21
17.4929960222
 31
0.0
 40
0.0420701413
 41
-4.4831590804
 42
-4.4533899365
  0
ELLIPSE
  5
30A
100
AcDbEntity
  8
0
100
AcDbEllipse
 62
7
  6
BYLAYER
 10
32.7684904161
 20
15.1617988285
 30
0.0
 11
-10.9958379272
 21
15.791979517
 31
0.0
 40
0.818317629
 41
-1.7455491319
 42
-1.7450389575
  0
ELLIPSE
  5
30B
100
AcDbEntity
  8
0
100
AcDbEllipse
 62
7
  6
BYLAYER
 10
38.2099441732
 20
15.1617988284
 30
0.0
 11
-18.1514209571
 21
18.1605909673
 31
0.0
 40
0.0406765142
 41
-1.2682738639
 42
-1.2401461334
  0
ELLIPSE
  5
30C
100
AcDbEntity
  8
0
100
AcDbEllipse
 62
7
  6
BYLAYER
 10
27.2112892853
 20
26.4685519288
 30
0.0
 11
-17.185307668
 21
17.2622772411
 31
0.0
 40
0.1702469903
 41
-2.0397216116
 42
-2.0099524677
  0
ELLIPSE
  5
30D
100
AcDbEntity
  8
0
100
AcDbEllipse
 62
7
  6
BYLAYER
 10
27.3679101605
 20
26.4685519288
 30
0.0
 11
-17.0043043001
 21
17.1250267564
 31
0.0
 40
0.2143062114
 41
-2.0814972997
 42
-2.0517281558
  0
ELLIPSE
  5
30E
100
AcDbEntity
  8
0
100
AcDbEllipse
 62
7
  6
BYLAYER
 10
27.5568900477
 20
26.4685519288
 30
0.0
 11
-16.7837266909
 21
16.9585571531
 31
0.0
 40
0.2593921815
 41
-2.1231206819
 42
-2.093351538
  0
ELLIPSE
  5
30F
100
AcDbEntity
  8
0
100
AcDbEllipse
 62
7
  6
BYLAYER
 10
27.7767906959
 20
26.4685519288
 30
0.0
 11
-16.523808647
 21
16.7637596114
 31
0.0
 40
0.3057398728
 41
-2.1645365695
 42
-2.1347674256
  0
ELLIPSE
  5
310
100
AcDbEntity
  8
0
100
AcDbEllipse
 62
7
  6
BYLAYER
 10
36.2932684941
 20
26.4685519288
 30
0.0
 11
17.4882083164
 21
17.4929960222
 31
0.0
 40
0.0420701413
 41
-4.3990913729
 42
-4.369322229
  0
ELLIPSE
  5
311
100
AcDbEntity
  8
0
100
AcDbEllipse
 62
7
  6
BYLAYER
 10
36.2398480302
 20
26.4685519288
 30
0.0
 11
17.4274961419
 21
17.4466624083
 31
0.0
 40
0.0843354388
 41
-4.3570808775
 42
-4.3273117336
  0
ELLIPSE
  5
312
100
AcDbEntity
  8
0
100
AcDbEllipse
 62
7
  6
BYLAYER
 10
36.1512657743
 20
26.4685519288
 30
0.0
 11
17.326459176
 21
17.3696482286
 31
0.0
 40
0.1269935126
 41
-4.3151186387
 42
-4.2853494948
  0
ELLIPSE
  5
313
100
AcDbEntity
  8
0
100
AcDbEllipse
 62
7
  6
BYLAYER
 10
36.0281958907
 20
26.4685519288
 30
0.0
 11
17.185307668
 21
17.2622772411
 31
0.0
 40
0.1702469903
 41
-4.2732328395
 42
-4.2434636956
  0
ELLIPSE
  5
314
100
AcDbEntity
  8
0
100
AcDbEllipse
 62
7
  6
BYLAYER
 10
28.0259385285
 20
26.4685519288
 30
0.0
 11
-16.2246471729
 21
16.5418339295
 31
0.0
 40
0.3536019736
 41
-2.205669811
 42
-2.1759006671
  0
ELLIPSE
  5
315
100
AcDbEntity
  8
0
100
AcDbEllipse
 62
7
  6
BYLAYER
 10
35.8715750156
 20
26.4685519288
 30
0.0
 11
17.0043043001
 21
17.1250267564
 31
0.0
 40
0.2143062114
 41
-4.2314571513
 42
-4.2016880075
  0
ELLIPSE
  5
316
100
AcDbEntity
  8
0
100
AcDbEllipse
 62
7
  6
BYLAYER
 10
35.6825951284
 20
26.4685519288
 30
0.0
 11
16.7837266909
 21
16.9585571531
 31
0.0
 40
0.2593921815
 41
-4.1898337691
 42
-4.1600646253
  0
ELLIPSE
  5
317
100
AcDbEntity
  8
0
100
AcDbEllipse
 62
7
  6
BYLAYER
 10
35.4626944802
 20
26.4685519288
 30
0.0
 11
16.523808647
 21
16.7637596114
 31
0.0
 40
0.3057398728
 41
-4.1484178816
 42
-4.1186487377
  0
ELLIPSE
  5
318
100
AcDbEntity
  8
0
100
AcDbEllipse
 62
7
  6
BYLAYER
 10
35.2135466476
 20
26.4685519288
 30
0.0
 11
16.2246471729
 21
16.5418339295
 31
0.0
 40
0.3536019736
 41
-4.1072846401
 42
-4.0775154962
  0
ELLIPSE
  5
319
100
AcDbEntity
  8
0
100
AcDbEllipse
 62
7
  6
BYLAYER
 10
28.30243738
 20
26.4685519288
 30
0.0
 11
-15.8860502942
 21
16.2944188981
 31
0.0
 40
0.4032531911
 41
-2.2464138423
 42
-2.2166446984
  0
ELLIPSE
  5
31A
100
AcDbEntity
  8
0
100
AcDbEllipse
 62
7
  6
BYLAYER
 10
34.9370477961
 20
26.4685519288
 30
0.0
 11
15.8860502942
 21
16.2944188981
 31
0.0
 40
0.4032531911
 41
-4.0665406088
 42
-4.0367714649
  0
ELLIPSE
  5
31B
100
AcDbEntity
  8
0
100
AcDbEllipse
 62
7
  6
BYLAYER
 10
34.6353022489
 20
26.4685519288
 30
0.0
 11
15.507275323
 21
16.023819938
 31
0.0
 40
0.4549951859
 41
-4.0263436369
 42
-3.9965744931
  0
ELLIPSE
  5
31C
100
AcDbEntity
  8
0
100
AcDbEllipse
 62
7
  6
BYLAYER
 10
34.3106064719
 20
26.4685519288
 30
0.0
 11
15.0865489373
 21
15.7334287619
 31
0.0
 40
0.5091621171
 41
-3.9869395554
 42
-3.9571704115
  0
ELLIPSE
  5
31D
100
AcDbEntity
  8
0
100
AcDbEllipse
 62
7
  6
BYLAYER
 10
28.6041829272
 20
26.4685519288
 30
0.0
 11
-15.507275323
 21
16.023819938
 31
0.0
 40
0.4549951859
 41
-2.2866108141
 42
-2.2568416702
  0
ELLIPSE
  5
31E
100
AcDbEntity
  8
0
100
AcDbEllipse
 62
7
  6
BYLAYER
 10
33.9654315959
 20
26.4685519288
 30
0.0
 11
14.6201143459
 21
15.4285527016
 31
0.0
 40
0.5661264515
 41
-3.9487351911
 42
-3.9189660472
  0
ELLIPSE
  5
31F
100
AcDbEntity
  8
0
100
AcDbEllipse
 62
7
  6
BYLAYER
 10
33.6024046102
 20
26.4685519288
 30
0.0
 11
14.1001405585
 21
15.1182070608
 31
0.0
 40
0.6263036642
 41
-3.9124579904
 42
-3.8826888465
  0
ELLIPSE
  5
320
100
AcDbEntity
  8
0
100
AcDbEllipse
 62
7
  6
BYLAYER
 10
33.2242883694
 20
26.4685519288
 30
0.0
 11
13.5094930283
 21
14.8194770471
 31
0.0
 40
0.6901509118
 41
-3.879551318
 42
-3.8497821741
  0
ELLIPSE
  5
321
100
AcDbEntity
  8
0
100
AcDbEllipse
 62
7
  6
BYLAYER
 10
32.8339605663
 20
26.4685519288
 30
0.0
 11
12.8060309747
 21
14.5700382847
 31
0.0
 40
0.7581403628
 41
-3.8533407472
 42
-3.8235716033
  0
ELLIPSE
  5
322
100
AcDbEntity
  8
0
100
AcDbEllipse
 62
7
  6
BYLAYER
 10
32.4343918312
 20
26.4685519288
 30
0.0
 11
11.8601695234
 21
14.4741311195
 31
0.0
 40
0.8306103506
 41
-3.8435343414
 42
-3.8137651975
  0
ELLIPSE
  5
323
100
AcDbEntity
  8
0
100
AcDbEllipse
 62
7
  6
BYLAYER
 10
32.0286231235
 20
26.4685519288
 30
0.0
 11
10.0427045149
 21
14.9543464083
 31
0.0
 40
0.9066977799
 41
-3.8941874735
 42
-3.8644183296
  0
ELLIPSE
  5
324
100
AcDbEntity
  8
0
100
AcDbEllipse
 62
7
  6
BYLAYER
 10
28.9288787042
 20
26.4685519288
 30
0.0
 11
-15.0865489373
 21
15.7334287619
 31
0.0
 40
0.5091621171
 41
-2.3260148957
 42
-2.2962457518
  0
ELLIPSE
  5
325
100
AcDbEntity
  8
0
100
AcDbEllipse
 62
7
  6
BYLAYER
 10
29.2740535802
 20
26.4685519288
 30
0.0
 11
-14.6201143459
 21
15.4285527016
 31
0.0
 40
0.5661264515
 41
-2.36421926
 42
-2.3344501161
  0
ELLIPSE
  5
326
100
AcDbEntity
  8
0
100
AcDbEllipse
 62
7
  6
BYLAYER
 10
29.6370805659
 20
26.4685519288
 30
0.0
 11
-14.1001405585
 21
15.1182070608
 31
0.0
 40
0.6263036642
 41
-2.4004964607
 42
-2.3707273168
  0
ELLIPSE
  5
327
100
AcDbEntity
  8
0
100
AcDbEllipse
 62
7
  6
BYLAYER
 10
30.0151968067
 20
26.4685519288
 30
0.0
 11
-13.5094930283
 21
14.8194770471
 31
0.0
 40
0.6901509118
 41
-2.4334031331
 42
-2.4036339892
  0
ELLIPSE
  5
328
100
AcDbEntity
  8
0
100
AcDbEllipse
 62
7
  6
BYLAYER
 10
30.4055246098
 20
26.4685519288
 30
0.0
 11
-12.8060309747
 21
14.5700382847
 31
0.0
 40
0.7581403628
 41
-2.4596137039
 42
-2.42984456
  0
ELLIPSE
  5
329
100
AcDbEntity
  8
0
100
AcDbEllipse
 62
7
  6
BYLAYER
 10
26.9996371458
 20
26.4685519288
 30
0.0
 11
-17.4274961419
 21
17.4466624083
 31
0.0
 40
0.0843354388
 41
-1.9558735735
 42
-1.9261044297
  0
ELLIPSE
  5
32A
100
AcDbEntity
  8
0
100
AcDbEllipse
 62
7
  6
BYLAYER
 10
30.8050933449
 20
26.4685519288
 30
0.0
 11
-11.8601695234
 21
14.4741311195
 31
0.0
 40
0.8306103506
 41
-2.4694201097
 42
-2.4396509658
  0
ELLIPSE
  5
32B
100
AcDbEntity
  8
0
100
AcDbEllipse
 62
7
  6
BYLAYER
 10
26.946216682
 20
26.4685519288
 30
0.0
 11
-17.4882083164
 21
17.4929960222
 31
0.0
 40
0.0420701413
 41
-1.9138630781
 42
-1.8840939343
  0
ELLIPSE
  5
32C
100
AcDbEntity
  8
0
100
AcDbEllipse
 62
7
  6
BYLAYER
 10
31.2108620526
 20
26.4685519288
 30
0.0
 11
-10.0427045149
 21
14.9543464083
 31
0.0
 40
0.9066977799
 41
-2.4187669776
 42
-2.3889978337
  0
ELLIPSE
  5
32D
100
AcDbEntity
  8
0
100
AcDbEllipse
 62
7
  6
BYLAYER
 10
27.0882194018
 20
26.4685519288
 30
0.0
 11
-17.326459176
 21
17.3696482286
 31
0.0
 40
0.1269935126
 41
-1.9978358124
 42
-1.9680666685
  0
ELLIPSE
  5
32E
100
AcDbEntity
  8
0
100
AcDbEllipse
 62
7
  6
BYLAYER
 10
36.2932684941
 20
11.4857958973
 30
0.0
 11
-17.4882083164
 21
17.4929960222
 31
0.0
 40
0.0420701413
 41
-1.3415664268
 42
-1.3117972829
  0
ELLIPSE
  5
32F
100
AcDbEntity
  8
0
100
AcDbEllipse
 62
7
  6
BYLAYER
 10
32.7684904161
 20
22.7925489976
 30
0.0
 11
10.9958379272
 21
15.791979517
 31
0.0
 40
0.818317629
 41
-1.3965536952
 42
-1.3960435217
  0
ELLIPSE
  5
330
100
AcDbEntity
  8
0
100
AcDbEllipse
 62
7
  6
BYLAYER
 10
33.3319276504
 20
22.7925489976
 30
0.0
 11
12.3580633753
 21
15.6563003942
 31
0.0
 40
0.7470541823
 41
4.8970060586
 42
4.9020265797
  0
ELLIPSE
  5
331
100
AcDbEntity
  8
0
100
AcDbEllipse
 62
7
  6
BYLAYER
 10
33.8823341226
 20
22.7925489976
 30
0.0
 11
13.3023954138
 21
15.7703479229
 31
0.0
 40
0.6792721423
 41
4.881095312
 42
4.8895407588
  0
ELLIPSE
  5
332
100
AcDbEntity
  8
0
100
AcDbEllipse
 62
7
  6
BYLAYER
 10
34.4155209071
 20
22.7925489976
 30
0.0
 11
14.0585338956
 21
15.9844133441
 31
0.0
 40
0.6154007239
 41
-1.4290229293
 42
-1.4178485365
  0
ELLIPSE
  5
333
100
AcDbEntity
  8
0
100
AcDbEllipse
 62
7
  6
BYLAYER
 10
34.9274301303
 20
22.7925489976
 30
0.0
 11
14.7051040421
 21
16.2385436118
 31
0.0
 40
0.5552272381
 41
-1.4615012695
 42
-1.4480705033
  0
ELLIPSE
  5
334
100
AcDbEntity
  8
0
100
AcDbEllipse
 62
7
  6
BYLAYER
 10
35.4141658542
 20
22.7925489976
 30
0.0
 11
15.274965845
 21
16.5043969512
 31
0.0
 40
0.4983942514
 41
-1.4971206964
 42
-1.4817673503
  0
ELLIPSE
  5
335
100
AcDbEntity
  8
0
100
AcDbEllipse
 62
7
  6
BYLAYER
 10
35.8720237258
 20
22.7925489976
 30
0.0
 11
15.7835371161
 21
16.766803626
 31
0.0
 40
0.4445239339
 41
-1.5346729672
 42
-1.5176380826
  0
ELLIPSE
  5
336
100
AcDbEntity
  8
0
100
AcDbEllipse
 62
7
  6
BYLAYER
 10
36.2975191705
 20
22.7925489976
 30
0.0
 11
16.2384907108
 21
17.0168501026
 31
0.0
 40
0.3932536107
 41
-1.5734880867
 42
-1.5549485398
  0
ELLIPSE
  5
337
100
AcDbEntity
  8
0
100
AcDbEllipse
 62
7
  6
BYLAYER
 10
36.6874139107
 20
22.7925489976
 30
0.0
 11
16.6436838349
 21
17.2489119491
 31
0.0
 40
0.3442450777
 41
-1.6131670271
 42
-1.5932525833
  0
ELLIPSE
  5
338
100
AcDbEntity
  8
0
100
AcDbEllipse
 62
7
  6
BYLAYER
 10
37.0387406123
 20
22.7925489976
 30
0.0
 11
17.0009614673
 21
17.4592414022
 31
0.0
 40
0.2971852239
 41
-1.6534575031
 42
-1.6322627734
  0
ELLIPSE
  5
339
100
AcDbEntity
  8
0
100
AcDbEllipse
 62
7
  6
BYLAYER
 10
37.3488254669
 20
22.7925489976
 30
0.0
 11
17.311068251
 21
17.6452378715
 31
0.0
 40
0.2517837063
 41
-1.6940323896
 42
-1.6717847557
  0
ELLIPSE
  5
33A
100
AcDbEntity
  8
0
100
AcDbEllipse
 62
7
  6
BYLAYER
 10
37.6153085414
 20
22.7925489976
 30
0.0
 11
17.5741469284
 21
17.8050458869
 31
0.0
 40
0.2077697388
 41
-1.735034466
 42
-1.7116814851
  0
ELLIPSE
  5
33B
100
AcDbEntity
  8
0
100
AcDbEllipse
 62
7
  6
BYLAYER
 10
37.8361617388
 20
22.7925489976
 30
0.0
 11
17.7900285404
 21
17.9373217495
 31
0.0
 40
0.1648887629
 41
-1.7763537932
 42
-1.7518524984
  0
ELLIPSE
  5
33C
100
AcDbEntity
  8
0
100
AcDbEllipse
 62
7
  6
BYLAYER
 10
38.0097042328
 20
22.7925489976
 30
0.0
 11
17.9584099181
 21
18.0410926156
 31
0.0
 40
0.1228992729
 41
-1.8179059513
 42
-1.7922212391
  0
ELLIPSE
  5
33D
100
AcDbEntity
  8
0
100
AcDbEllipse
 62
7
  6
BYLAYER
 10
38.1346152604
 20
22.7925489976
 30
0.0
 11
18.0789658936
 21
18.1156691418
 31
0.0
 40
0.0815698667
 41
-1.8596229162
 42
-1.8327268879
  0
ELLIPSE
  5
33E
100
AcDbEntity
  8
0
100
AcDbEllipse
 62
7
  6
BYLAYER
 10
38.2099441732
 20
22.7925489976
 30
0.0
 11
18.1514209571
 21
18.1605909673
 31
0.0
 40
0.0406765142
 41
-1.9014465147
 42
-1.8733187897
  0
ELLIPSE
  5
33F
100
AcDbEntity
  8
0
100
AcDbEllipse
 62
7
  6
BYLAYER
 10
25.0295410029
 20
22.7925489976
 30
0.0
 11
-18.1514209571
 21
18.1605909673
 31
0.0
 40
0.0406765142
 41
-4.4098665175
 42
-4.381738787
  0
ELLIPSE
  5
340
100
AcDbEntity
  8
0
100
AcDbEllipse
 62
7
  6
BYLAYER
 10
31.2108620526
 20
11.4857958973
 30
0.0
 11
10.0427045149
 21
14.9543464083
 31
0.0
 40
0.9066977799
 41
-4.4664841248
 42
-4.4367149809
  0
ELLIPSE
  5
341
100
AcDbEntity
  8
0
100
AcDbEllipse
 62
7
  6
BYLAYER
 10
30.8050933449
 20
11.4857958973
 30
0.0
 11
11.8601695234
 21
14.4741311195
 31
0.0
 40
0.8306103506
 41
-4.4158309927
 42
-4.3860618488
  0
ELLIPSE
  5
342
100
AcDbEntity
  8
0
100
AcDbEllipse
 62
7
  6
BYLAYER
 10
30.4055246098
 20
11.4857958973
 30
0.0
 11
12.8060309747
 21
14.5700382847
 31
0.0
 40
0.7581403628
 41
-4.4256373985
 42
-4.3958682546
  0
ELLIPSE
  5
343
100
AcDbEntity
  8
0
100
AcDbEllipse
 62
7
  6
BYLAYER
 10
30.0151968067
 20
11.4857958973
 30
0.0
 11
13.5094930283
 21
14.8194770471
 31
0.0
 40
0.6901509118
 41
-4.4518479693
 42
-4.4220788254
  0
ELLIPSE
  5
344
100
AcDbEntity
  8
0
100
AcDbEllipse
 62
7
  6
BYLAYER
 10
29.6370805659
 20
11.4857958973
 30
0.0
 11
14.1001405585
 21
15.1182070608
 31
0.0
 40
0.6263036642
 41
-4.4847546417
 42
-4.4549854978
  0
ELLIPSE
  5
345
100
AcDbEntity
  8
0
100
AcDbEllipse
 62
7
  6
BYLAYER
 10
29.2740535802
 20
11.4857958973
 30
0.0
 11
14.6201143459
 21
15.4285527016
 31
0.0
 40
0.5661264515
 41
-4.5210318424
 42
-4.4912626986
  0
ELLIPSE
  5
346
100
AcDbEntity
  8
0
100
AcDbEllipse
 62
7
  6
BYLAYER
 10
28.9288787042
 20
11.4857958973
 30
0.0
 11
15.0865489373
 21
15.7334287619
 31
0.0
 40
0.5091621171
 41
-4.5592362067
 42
-4.5294670628
  0
ELLIPSE
  5
347
100
AcDbEntity
  8
0
100
AcDbEllipse
 62
7
  6
BYLAYER
 10
28.6041829272
 20
11.4857958973
 30
0.0
 11
15.507275323
 21
16.023819938
 31
0.0
 40
0.4549951859
 41
-4.5986402883
 42
-4.5688711444
  0
ELLIPSE
  5
348
100
AcDbEntity
  8
0
100
AcDbEllipse
 62
7
  6
BYLAYER
 10
28.30243738
 20
11.4857958973
 30
0.0
 11
15.8860502942
 21
16.2944188981
 31
0.0
 40
0.4032531911
 41
-4.6388372601
 42
-4.6090681162
  0
ELLIPSE
  5
349
100
AcDbEntity
  8
0
100
AcDbEllipse
 62
7
  6
BYLAYER
 10
28.0259385285
 20
11.4857958973
 30
0.0
 11
16.2246471729
 21
16.5418339295
 31
0.0
 40
0.3536019736
 41
-4.6795812914
 42
-4.6498121475
  0
ELLIPSE
  5
34A
100
AcDbEntity
  8
0
100
AcDbEllipse
 62
7
  6
BYLAYER
 10
27.7767906959
 20
11.4857958973
 30
0.0
 11
16.523808647
 21
16.7637596114
 31
0.0
 40
0.3057398728
 41
1.5624707743
 42
1.5922399181
  0
ELLIPSE
  5
34B
100
AcDbEntity
  8
0
100
AcDbEllipse
 62
7
  6
BYLAYER
 10
27.5568900477
 20
11.4857958973
 30
0.0
 11
16.7837266909
 21
16.9585571531
 31
0.0
 40
0.2593921815
 41
1.5210548867
 42
1.5508240306
  0
ELLIPSE
  5
34C
100
AcDbEntity
  8
0
100
AcDbEllipse
 62
7
  6
BYLAYER
 10
27.3679101605
 20
11.4857958973
 30
0.0
 11
17.0043043001
 21
17.1250267564
 31
0.0
 40
0.2143062114
 41
1.4794315045
 42
1.5092006484
  0
ELLIPSE
  5
34D
100
AcDbEntity
  8
0
100
AcDbEllipse
 62
7
  6
BYLAYER
 10
27.2112892853
 20
11.4857958973
 30
0.0
 11
17.185307668
 21
17.2622772411
 31
0.0
 40
0.1702469903
 41
1.4376558164
 42
1.4674249603
  0
ELLIPSE
  5
34E
100
AcDbEntity
  8
0
100
AcDbEllipse
 62
7
  6
BYLAYER
 10
27.0882194018
 20
11.4857958973
 30
0.0
 11
17.326459176
 21
17.3696482286
 31
0.0
 40
0.1269935126
 41
1.3957700171
 42
1.425539161
  0
ELLIPSE
  5
34F
100
AcDbEntity
  8
0
100
AcDbEllipse
 62
7
  6
BYLAYER
 10
26.9996371458
 20
11.4857958973
 30
0.0
 11
17.4274961419
 21
17.4466624083
 31
0.0
 40
0.0843354388
 41
1.3538077783
 42
1.3835769222
  0
ELLIPSE
  5
350
100
AcDbEntity
  8
0
100
AcDbEllipse
 62
7
  6
BYLAYER
 10
26.946216682
 20
11.4857958973
 30
0.0
 11
17.4882083164
 21
17.4929960222
 31
0.0
 40
0.0420701413
 41
1.3117972829
 42
1.3415664268
  0
ELLIPSE
  5
351
100
AcDbEntity
  8
0
100
AcDbEllipse
 62
7
  6
BYLAYER
 10
36.2398480302
 20
11.4857958973
 30
0.0
 11
-17.4274961419
 21
17.4466624083
 31
0.0
 40
0.0843354388
 41
-1.3835769222
 42
-1.3538077783
  0
ELLIPSE
  5
352
100
AcDbEntity
  8
0
100
AcDbEllipse
 62
7
  6
BYLAYER
 10
36.1512657743
 20
11.4857958973
 30
0.0
 11
-17.326459176
 21
17.3696482286
 31
0.0
 40
0.1269935126
 41
-1.425539161
 42
-1.3957700171
  0
ELLIPSE
  5
353
100
AcDbEntity
  8
0
100
AcDbEllipse
 62
7
  6
BYLAYER
 10
36.0281958907
 20
11.4857958973
 30
0.0
 11
-17.185307668
 21
17.2622772411
 31
0.0
 40
0.1702469903
 41
-1.4674249603
 42
-1.4376558164
  0
ELLIPSE
  5
354
100
AcDbEntity
  8
0
100
AcDbEllipse
 62
7
  6
BYLAYER
 10
35.8715750156
 20
11.4857958973
 30
0.0
 11
-17.0043043001
 21
17.1250267564
 31
0.0
 40
0.2143062114
 41
-1.5092006484
 42
-1.4794315045
  0
ELLIPSE
  5
355
100
AcDbEntity
  8
0
100
AcDbEllipse
 62
7
  6
BYLAYER
 10
35.6825951284
 20
11.4857958973
 30
0.0
 11
-16.7837266909
 21
16.9585571531
 31
0.0
 40
0.2593921815
 41
-1.5508240306
 42
-1.5210548867
  0
ELLIPSE
  5
356
100
AcDbEntity
  8
0
100
AcDbEllipse
 62
7
  6
BYLAYER
 10
35.4626944802
 20
11.4857958973
 30
0.0
 11
-16.523808647
 21
16.7637596114
 31
0.0
 40
0.3057398728
 41
-1.5922399181
 42
-1.5624707743
  0
ELLIPSE
  5
357
100
AcDbEntity
  8
0
100
AcDbEllipse
 62
7
  6
BYLAYER
 10
35.2135466476
 20
11.4857958973
 30
0.0
 11
-16.2246471729
 21
16.5418339295
 31
0.0
 40
0.3536019736
 41
-1.6333731597
 42
-1.6036040158
  0
ELLIPSE
  5
358
100
AcDbEntity
  8
0
100
AcDbEllipse
 62
7
  6
BYLAYER
 10
34.9370477961
 20
11.4857958973
 30
0.0
 11
-15.8860502942
 21
16.2944188981
 31
0.0
 40
0.4032531911
 41
-1.674117191
 42
-1.6443480471
  0
ELLIPSE
  5
359
100
AcDbEntity
  8
0
100
AcDbEllipse
 62
7
  6
BYLAYER
 10
25.1048699156
 20
22.7925489976
 30
0.0
 11
-18.0789658936
 21
18.1156691418
 31
0.0
 40
0.0815698667
 41
-4.4504584193
 42
-4.4235623805
  0
ELLIPSE
  5
35A
100
AcDbEntity
  8
0
100
AcDbEllipse
 62
7
  6
BYLAYER
 10
34.6353022489
 20
11.4857958973
 30
0.0
 11
-15.507275323
 21
16.023819938
 31
0.0
 40
0.4549951859
 41
-1.7143141628
 42
-1.6845450189
  0
ELLIPSE
  5
35B
100
AcDbEntity
  8
0
100
AcDbEllipse
 62
7
  6
BYLAYER
 10
25.2297809432
 20
22.7925489976
 30
0.0
 11
-17.9584099181
 21
18.0410926156
 31
0.0
 40
0.1228992729
 41
-4.490964068
 42
-4.4652793409
  0
ELLIPSE
  5
35C
100
AcDbEntity
  8
0
100
AcDbEllipse
 62
7
  6
BYLAYER
 10
34.3106064719
 20
11.4857958973
 30
0.0
 11
-15.0865489373
 21
15.7334287619
 31
0.0
 40
0.5091621171
 41
-1.7537182443
 42
-1.7239491005
  0
ELLIPSE
  5
35D
100
AcDbEntity
  8
0
100
AcDbEllipse
 62
7
  6
BYLAYER
 10
25.4033234373
 20
22.7925489976
 30
0.0
 11
-17.7900285404
 21
17.9373217495
 31
0.0
 40
0.1648887629
 41
-4.5313328088
 42
-4.5068314949
  0
ELLIPSE
  5
35E
100
AcDbEntity
  8
0
100
AcDbEllipse
 62
7
  6
BYLAYER
 10
33.9654315959
 20
11.4857958973
 30
0.0
 11
-14.6201143459
 21
15.4285527016
 31
0.0
 40
0.5661264515
 41
-1.7919226086
 42
-1.7621534647
  0
ELLIPSE
  5
35F
100
AcDbEntity
  8
0
100
AcDbEllipse
 62
7
  6
BYLAYER
 10
25.6241766347
 20
22.7925489976
 30
0.0
 11
-17.5741469284
 21
17.8050458869
 31
0.0
 40
0.2077697388
 41
-4.5715038221
 42
-4.5481508182
  0
ELLIPSE
  5
360
100
AcDbEntity
  8
0
100
AcDbEllipse
 62
7
  6
BYLAYER
 10
33.6024046102
 20
11.4857958973
 30
0.0
 11
-14.1001405585
 21
15.1182070608
 31
0.0
 40
0.6263036642
 41
-1.8281998094
 42
-1.7984306655
  0
ELLIPSE
  5
361
100
AcDbEntity
  8
0
100
AcDbEllipse
 62
7
  6
BYLAYER
 10
25.8906597092
 20
22.7925489976
 30
0.0
 11
-17.311068251
 21
17.6452378715
 31
0.0
 40
0.2517837063
 41
-4.6114005514
 42
-4.5891528902
  0
ELLIPSE
  5
362
100
AcDbEntity
  8
0
100
AcDbEllipse
 62
7
  6
BYLAYER
 10
33.2242883694
 20
11.4857958973
 30
0.0
 11
-13.5094930283
 21
14.8194770471
 31
0.0
 40
0.6901509118
 41
-1.8611064818
 42
-1.8313373379
  0
ELLIPSE
  5
363
100
AcDbEntity
  8
0
100
AcDbEllipse
 62
7
  6
BYLAYER
 10
26.2007445638
 20
22.7925489976
 30
0.0
 11
-17.0009614673
 21
17.4592414022
 31
0.0
 40
0.2971852239
 41
-4.6509225338
 42
-4.6297277711
  0
ELLIPSE
  5
364
100
AcDbEntity
  8
0
100
AcDbEllipse
 62
7
  6
BYLAYER
 10
32.8339605663
 20
11.4857958973
 30
0.0
 11
-12.8060309747
 21
14.5700382847
 31
0.0
 40
0.7581403628
 41
-1.8873170525
 42
-1.8575479087
  0
ELLIPSE
  5
365
100
AcDbEntity
  8
0
100
AcDbEllipse
 62
7
  6
BYLAYER
 10
26.5520712653
 20
22.7925489976
 30
0.0
 11
-16.6436838349
 21
17.2489119491
 31
0.0
 40
0.3442450777
 41
-4.6899327238
 42
-4.670018258
  0
ELLIPSE
  5
366
100
AcDbEntity
  8
0
100
AcDbEllipse
 62
7
  6
BYLAYER
 10
32.4343918312
 20
11.4857958973
 30
0.0
 11
-11.8601695234
 21
14.4741311195
 31
0.0
 40
0.8306103506
 41
-1.8971234584
 42
-1.8673543145
  0
ELLIPSE
  5
367
100
AcDbEntity
  8
0
100
AcDbEllipse
 62
7
  6
BYLAYER
 10
26.9419660056
 20
22.7925489976
 30
0.0
 11
-16.2384907108
 21
17.0168501026
 31
0.0
 40
0.3932536107
 41
1.5549485398
 42
1.5734880833
  0
ELLIPSE
  5
368
100
AcDbEntity
  8
0
100
AcDbEllipse
 62
7
  6
BYLAYER
 10
32.0286231235
 20
11.4857958973
 30
0.0
 11
-10.0427045149
 21
14.9543464083
 31
0.0
 40
0.9066977799
 41
-1.8464703263
 42
-1.8167011824
  0
ELLIPSE
  5
369
100
AcDbEntity
  8
0
100
AcDbEllipse
 62
7
  6
BYLAYER
 10
27.3674614502
 20
22.7925489976
 30
0.0
 11
-15.7835371161
 21
16.766803626
 31
0.0
 40
0.4445239339
 41
1.5176380826
 42
1.5346729655
  0
ELLIPSE
  5
36A
100
AcDbEntity
  8
0
100
AcDbEllipse
 62
7
  6
BYLAYER
 10
31.619742588
 20
11.4857958973
 30
0.0
 11
-0.0
 21
17.5084611122
 31
0.0
 40
0.963433044
 41
-1.2995325731
 42
-1.2697634292
  0
ELLIPSE
  5
36B
100
AcDbEntity
  8
0
100
AcDbEllipse
 62
7
  6
BYLAYER
 10
27.8253193219
 20
22.7925489976
 30
0.0
 11
-15.274965845
 21
16.5043969512
 31
0.0
 40
0.4983942514
 41
1.4817673503
 42
1.4971206958
  0
ELLIPSE
  5
36C
100
AcDbEntity
  8
0
100
AcDbEllipse
 62
7
  6
BYLAYER
 10
28.3120550457
 20
22.7925489976
 30
0.0
 11
-14.7051040421
 21
16.2385436118
 31
0.0
 40
0.5552272381
 41
1.4480705033
 42
1.4615012691
  0
ELLIPSE
  5
36D
100
AcDbEntity
  8
0
100
AcDbEllipse
 62
7
  6
BYLAYER
 10
28.823964269
 20
22.7925489976
 30
0.0
 11
-14.0585338956
 21
15.9844133441
 31
0.0
 40
0.6154007239
 41
1.4178485365
 42
1.4290229277
  0
ELLIPSE
  5
36E
100
AcDbEntity
  8
0
100
AcDbEllipse
 62
7
  6
BYLAYER
 10
29.3571510535
 20
22.7925489976
 30
0.0
 11
-13.3023954138
 21
15.7703479229
 31
0.0
 40
0.6792721423
 41
1.3936445484
 42
1.4020899947
  0
ELLIPSE
  5
36F
100
AcDbEntity
  8
0
100
AcDbEllipse
 62
7
  6
BYLAYER
 10
29.9075575257
 20
22.7925489976
 30
0.0
 11
-12.3580633753
 21
15.6563003942
 31
0.0
 40
0.7470541823
 41
1.3811587275
 42
1.3861792519
  0
ELLIPSE
  5
370
100
AcDbEntity
  8
0
100
AcDbEllipse
 62
7
  6
BYLAYER
 10
30.47099476
 20
22.7925489976
 30
0.0
 11
-10.9958379272
 21
15.791979517
 31
0.0
 40
0.818317629
 41
1.3960435217
 42
1.3965536961
  0
ELLIPSE
  5
371
100
AcDbEntity
  8
0
100
AcDbEllipse
 62
7
  6
BYLAYER
 10
31.619742588
 20
11.4857958973
 30
0.0
 11
0.0
 21
17.5084611122
 31
0.0
 40
0.963433044
 41
7.5529487364
 42
7.5827178802
  0
ELLIPSE
  5
372
100
AcDbEntity
  8
0
100
AcDbEllipse
 62
7
  6
BYLAYER
 10
35.4626944802
 20
11.4857958973
 30
0.0
 11
-16.523808647
 21
16.7637596114
 31
0.0
 40
0.3057398728
 41
0.9770560841
 42
1.006825228
  0
ELLIPSE
  5
373
100
AcDbEntity
  8
0
100
AcDbEllipse
 62
7
  6
BYLAYER
 10
36.2932684941
 20
11.4857958973
 30
0.0
 11
-17.4882083164
 21
17.4929960222
 31
0.0
 40
0.0420701413
 41
1.2277295755
 42
1.2574987193
  0
ELLIPSE
  5
374
100
AcDbEntity
  8
0
100
AcDbEllipse
 62
7
  6
BYLAYER
 10
35.2135466476
 20
11.4857958973
 30
0.0
 11
-16.2246471729
 21
16.5418339295
 31
0.0
 40
0.3536019736
 41
0.9359228426
 42
0.9656919865
  0
ELLIPSE
  5
375
100
AcDbEntity
  8
0
100
AcDbEllipse
 62
7
  6
BYLAYER
 10
26.946216682
 20
11.4857958973
 30
0.0
 11
17.4882083164
 21
17.4929960222
 31
0.0
 40
0.0420701413
 41
-1.2574987193
 42
-1.2277295755
  0
ELLIPSE
  5
376
100
AcDbEntity
  8
0
100
AcDbEllipse
 62
7
  6
BYLAYER
 10
26.9996371458
 20
11.4857958973
 30
0.0
 11
17.4274961419
 21
17.4466624083
 31
0.0
 40
0.0843354388
 41
-1.2154882239
 42
-1.18571908
  0
ELLIPSE
  5
377
100
AcDbEntity
  8
0
100
AcDbEllipse
 62
7
  6
BYLAYER
 10
27.0882194018
 20
11.4857958973
 30
0.0
 11
17.326459176
 21
17.3696482286
 31
0.0
 40
0.1269935126
 41
-1.1735259851
 42
-1.1437568412
  0
ELLIPSE
  5
378
100
AcDbEntity
  8
0
100
AcDbEllipse
 62
7
  6
BYLAYER
 10
27.2112892853
 20
11.4857958973
 30
0.0
 11
17.185307668
 21
17.2622772411
 31
0.0
 40
0.1702469903
 41
-1.1316401859
 42
-1.101871042
  0
ELLIPSE
  5
379
100
AcDbEntity
  8
0
100
AcDbEllipse
 62
7
  6
BYLAYER
 10
27.3679101605
 20
11.4857958973
 30
0.0
 11
17.0043043001
 21
17.1250267564
 31
0.0
 40
0.2143062114
 41
-1.0898644977
 42
-1.0600953539
  0
ELLIPSE
  5
37A
100
AcDbEntity
  8
0
100
AcDbEllipse
 62
7
  6
BYLAYER
 10
34.9370477961
 20
11.4857958973
 30
0.0
 11
-15.8860502942
 21
16.2944188981
 31
0.0
 40
0.4032531911
 41
0.8951788113
 42
0.9249479552
  0
ELLIPSE
  5
37B
100
AcDbEntity
  8
0
100
AcDbEllipse
 62
7
  6
BYLAYER
 10
27.5568900477
 20
11.4857958973
 30
0.0
 11
16.7837266909
 21
16.9585571531
 31
0.0
 40
0.2593921815
 41
-1.0482411156
 42
-1.0184719717
  0
ELLIPSE
  5
37C
100
AcDbEntity
  8
0
100
AcDbEllipse
 62
7
  6
BYLAYER
 10
27.7767906959
 20
11.4857958973
 30
0.0
 11
16.523808647
 21
16.7637596114
 31
0.0
 40
0.3057398728
 41
-1.006825228
 42
-0.9770560841
  0
ELLIPSE
  5
37D
100
AcDbEntity
  8
0
100
AcDbEllipse
 62
7
  6
BYLAYER
 10
28.0259385285
 20
11.4857958973
 30
0.0
 11
16.2246471729
 21
16.5418339295
 31
0.0
 40
0.3536019736
 41
-0.9656919865
 42
-0.9359228426
  0
ELLIPSE
  5
37E
100
AcDbEntity
  8
0
100
AcDbEllipse
 62
7
  6
BYLAYER
 10
28.30243738
 20
11.4857958973
 30
0.0
 11
15.8860502942
 21
16.2944188981
 31
0.0
 40
0.4032531911
 41
-0.9249479552
 42
-0.8951788113
  0
ELLIPSE
  5
37F
100
AcDbEntity
  8
0
100
AcDbEllipse
 62
7
  6
BYLAYER
 10
34.6353022489
 20
11.4857958973
 30
0.0
 11
-15.507275323
 21
16.023819938
 31
0.0
 40
0.4549951859
 41
0.8549818395
 42
0.8847509834
  0
ELLIPSE
  5
380
100
AcDbEntity
  8
0
100
AcDbEllipse
 62
7
  6
BYLAYER
 10
28.6041829272
 20
11.4857958973
 30
0.0
 11
15.507275323
 21
16.023819938
 31
0.0
 40
0.4549951859
 41
-0.8847509834
 42
-0.8549818395
  0
ELLIPSE
  5
381
100
AcDbEntity
  8
0
100
AcDbEllipse
 62
7
  6
BYLAYER
 10
28.9288787042
 20
11.4857958973
 30
0.0
 11
15.0865489373
 21
15.7334287619
 31
0.0
 40
0.5091621171
 41
-0.8453469018
 42
-0.8155777579
  0
ELLIPSE
  5
382
100
AcDbEntity
  8
0
100
AcDbEllipse
 62
7
  6
BYLAYER
 10
29.2740535802
 20
11.4857958973
 30
0.0
 11
14.6201143459
 21
15.4285527016
 31
0.0
 40
0.5661264515
 41
-0.8071425375
 42
-0.7773733936
  0
ELLIPSE
  5
383
100
AcDbEntity
  8
0
100
AcDbEllipse
 62
7
  6
BYLAYER
 10
29.6370805659
 20
11.4857958973
 30
0.0
 11
14.1001405585
 21
15.1182070608
 31
0.0
 40
0.6263036642
 41
-0.7708653368
 42
-0.7410961929
  0
ELLIPSE
  5
384
100
AcDbEntity
  8
0
100
AcDbEllipse
 62
7
  6
BYLAYER
 10
30.0151968067
 20
11.4857958973
 30
0.0
 11
13.5094930283
 21
14.8194770471
 31
0.0
 40
0.6901509118
 41
-0.7379586644
 42
-0.7081895205
  0
ELLIPSE
  5
385
100
AcDbEntity
  8
0
100
AcDbEllipse
 62
7
  6
BYLAYER
 10
30.4055246098
 20
11.4857958973
 30
0.0
 11
12.8060309747
 21
14.5700382847
 31
0.0
 40
0.7581403628
 41
-0.7117480936
 42
-0.6819789497
  0
ELLIPSE
  5
386
100
AcDbEntity
  8
0
100
AcDbEllipse
 62
7
  6
BYLAYER
 10
30.8050933449
 20
11.4857958973
 30
0.0
 11
11.8601695234
 21
14.4741311195
 31
0.0
 40
0.8306103506
 41
-0.7019416878
 42
-0.6721725439
  0
ELLIPSE
  5
387
100
AcDbEntity
  8
0
100
AcDbEllipse
 62
7
  6
BYLAYER
 10
34.3106064719
 20
11.4857958973
 30
0.0
 11
-15.0865489373
 21
15.7334287619
 31
0.0
 40
0.5091621171
 41
0.8155777579
 42
0.8453469018
  0
ELLIPSE
  5
388
100
AcDbEntity
  8
0
100
AcDbEllipse
 62
7
  6
BYLAYER
 10
31.2108620526
 20
11.4857958973
 30
0.0
 11
10.0427045149
 21
14.9543464083
 31
0.0
 40
0.9066977799
 41
-0.7525948199
 42
-0.722825676
  0
ELLIPSE
  5
389
100
AcDbEntity
  8
0
100
AcDbEllipse
 62
7
  6
BYLAYER
 10
33.9654315959
 20
11.4857958973
 30
0.0
 11
-14.6201143459
 21
15.4285527016
 31
0.0
 40
0.5661264515
 41
0.7773733936
 42
0.8071425375
  0
ELLIPSE
  5
38A
100
AcDbEntity
  8
0
100
AcDbEllipse
 62
7
  6
BYLAYER
 10
33.6024046102
 20
11.4857958973
 30
0.0
 11
-14.1001405585
 21
15.1182070608
 31
0.0
 40
0.6263036642
 41
0.7410961929
 42
0.7708653368
  0
ELLIPSE
  5
38B
100
AcDbEntity
  8
0
100
AcDbEllipse
 62
7
  6
BYLAYER
 10
36.2398480302
 20
11.4857958973
 30
0.0
 11
-17.4274961419
 21
17.4466624083
 31
0.0
 40
0.0843354388
 41
1.18571908
 42
1.2154882239
  0
ELLIPSE
  5
38C
100
AcDbEntity
  8
0
100
AcDbEllipse
 62
7
  6
BYLAYER
 10
33.2242883694
 20
11.4857958973
 30
0.0
 11
-13.5094930283
 21
14.8194770471
 31
0.0
 40
0.6901509118
 41
0.7081895205
 42
0.7379586644
  0
ELLIPSE
  5
38D
100
AcDbEntity
  8
0
100
AcDbEllipse
 62
7
  6
BYLAYER
 10
36.1512657743
 20
11.4857958973
 30
0.0
 11
-17.326459176
 21
17.3696482286
 31
0.0
 40
0.1269935126
 41
1.1437568412
 42
1.1735259851
  0
ELLIPSE
  5
38E
100
AcDbEntity
  8
0
100
AcDbEllipse
 62
7
  6
BYLAYER
 10
32.8339605663
 20
11.4857958973
 30
0.0
 11
-12.8060309747
 21
14.5700382847
 31
0.0
 40
0.7581403628
 41
0.6819789497
 42
0.7117480936
  0
ELLIPSE
  5
38F
100
AcDbEntity
  8
0
100
AcDbEllipse
 62
7
  6
BYLAYER
 10
36.0281958907
 20
11.4857958973
 30
0.0
 11
-17.185307668
 21
17.2622772411
 31
0.0
 40
0.1702469903
 41
1.101871042
 42
1.1316401859
  0
ELLIPSE
  5
390
100
AcDbEntity
  8
0
100
AcDbEllipse
 62
7
  6
BYLAYER
 10
32.4343918312
 20
11.4857958973
 30
0.0
 11
-11.8601695234
 21
14.4741311195
 31
0.0
 40
0.8306103506
 41
0.6721725439
 42
0.7019416878
  0
ELLIPSE
  5
391
100
AcDbEntity
  8
0
100
AcDbEllipse
 62
7
  6
BYLAYER
 10
35.8715750156
 20
11.4857958973
 30
0.0
 11
-17.0043043001
 21
17.1250267564
 31
0.0
 40
0.2143062114
 41
1.0600953539
 42
1.0898644977
  0
ELLIPSE
  5
392
100
AcDbEntity
  8
0
100
AcDbEllipse
 62
7
  6
BYLAYER
 10
32.0286231235
 20
11.4857958973
 30
0.0
 11
-10.0427045149
 21
14.9543464083
 31
0.0
 40
0.9066977799
 41
0.722825676
 42
0.7525948199
  0
ELLIPSE
  5
393
100
AcDbEntity
  8
0
100
AcDbEllipse
 62
7
  6
BYLAYER
 10
35.6825951284
 20
11.4857958973
 30
0.0
 11
-16.7837266909
 21
16.9585571531
 31
0.0
 40
0.2593921815
 41
1.0184719717
 42
1.0482411156
  0
ENDSEC
  0
SECTION
  2
OBJECTS
  0
DICTIONARY
  5
C
100
AcDbDictionary
280
0
281
1
  3
ACAD_GROUP
350
D
  3
ACAD_MLINESTYLE
350
17
  3
ACAD_LAYOUT
350
1A
  3
ACAD_PLOTSETTINGS
350
19
  3
ACAD_PLOTSTYLENAME
350
E
  0
DICTIONARY
  5
D
102
{ACAD_REACTORS
330
C
102
}
100
AcDbDictionary
280
0
281
1
  0
ACDBDICTIONARYWDFLT
  5
E
102
{ACAD_REACTORS
330
C
102
}
100
AcDbDictionary
281
1
  3
Normal
350
F
100
AcDbDictionaryWithDefault
340
F
  0
DICTIONARY
  5
17
102
{ACAD_REACTORS
330
C
102
}
100
AcDbDictionary
280
0
281
1
  3
Standard
350
18
  0
DICTIONARY
  5
19
102
{ACAD_REACTORS
330
C
102
}
100
AcDbDictionary
281
1
  0
DICTIONARY
  5
1A
102
{ACAD_REACTORS
330
C
102
}
100
AcDbDictionary
281
1
  3
Model
350
394
  3
Layout1
350
395
  0
ACDBPLACEHOLDER
  5
F
102
{ACAD_REACTORS
330
E
102
}
  0
MLINESTYLE
  5
18
102
{ACAD_REACTORS
330
17
102
}
100
AcDbMlineStyle
  2
STANDARD
 70
0
  3

 62
256
 51
90.0
 52
90.0
 71
2
 49
0.5
 62
256
  6
BYLAYER
 49
-0.5
 62
256
  6
BYLAYER
  0
LAYOUT
  5
394
102
{ACAD_REACTORS
330
1A
102
}
100
AcDbPlotSettings
  1

  2
none_device
  4

  6

 40
0.0
 41
0.0
 42
0.0
 43
0.0
 44
210.0
 45
297.0
 46
0.0
 47
0.0
 48
0.0
 49
0.0
140
0.0
141
0.0
142
1.0
143
1.0
 70
1024
 72
1
 73
0
 74
0
  7

 75
0
147
1.0
148
0.0
149
0.0
100
AcDbLayout
  1
Model
 70
0
 71
0
 10
0.0
 20
0.0
 11
210.0
 21
297.0
 12
0.0
 22
0.0
 32
0.0
 14
0.0
 24
0.0
 34
0.0
 15
0.0
 25
0.0
 35
0.0
146
0.0
 13
0.0
 23
0.0
 33
0.0
 16
1.0
 26
0.0
 36
0.0
 17
0.0
 27
1.0
 37
0.0
 76
0
330
210
345
0
346
0
  0
LAYOUT
  5
395
102
{ACAD_REACTORS
330
1A
102
}
100
AcDbPlotSettings
  1

  2
none_device
  4

  6

 40
0.0
 41
0.0
 42
0.0
 43
0.0
 44
210.0
 45
297.0
 46
0.0
 47
0.0
 48
0.0
 49
0.0
140
0.0
141
0.0
142
1.0
143
1.0
 70
0
 72
1
 73
0
 74
0
  7

 75
0
147
1.0
148
0.0
149
0.0
100
AcDbLayout
  1
Layout1
 70
0
 71
1
 10
0.0
 20
0.0
 11
210.0
 21
297.0
 12
0.0
 22
0.0
 32
0.0
 14
0.0
 24
0.0
 34
0.0
 15
0.0
 25
0.0
 35
0.0
146
0.0
 13
0.0
 23
0.0
 33
0.0
 16
1.0
 26
0.0
 36
0.0
 17
0.0
 27
1.0
 37
0.0
 76
0
330
211
345
0
346
0
  0
ENDSEC
  0
EOF
