999
DXF file: C:\Gen2D\CAD\LC1D098BD_3D-CAD\drw0001_5.dxf
999
Pro/ENGINEER 2019471 by Parametric Technology Corporation
  0
SECTION
  2
HEADER
  9
$ACADVER
  1
AC1024
  9
$DWGCODEPAGE
  3
ANSI_1252
  9
$EXTMAX
 10
126.927666383
 20
179.5119853131
 30
0.0
  9
$EXTMIN
 10
0.0
 20
0.0
 30
0.0
  9
$LIMMIN
 10
0.0
 20
0.0
  9
$LIMMAX
 10
126.927666383
 20
179.5119853131
  9
$VIEWCTR
 10
63.4638331915
 20
89.7559926566
  9
$VIEWSIZE
 40
179.5119853131
  9
$CLAYER
  8
0
  9
$LTSCALE
 40
11.7015220056
  9
$CELTYPE
  6
BYLAYER
  9
$DIMSCALE
 40
1.0
  9
$DIMASZ
 40
1.5110436474
  9
$DIMEXO
 40
1.0
  9
$DIMDLI
 40
8.0846879311
  9
$DIMEXE
 40
1.0
  9
$DIMCEN
 40
1.91479451
  9
$DIMLFAC
 40
1.0
  9
$DIMBLK
  1
_FILLED
  9
$DIMALT
 70
0
  9
$DIMALTF
 40
0.0393700787
  9
$DIMTXT
 40
2.1154611064
  9
$DIMTOL
 70
1
  9
$DIMLIM
 70
0
  9
$DIMTFAC
 40
1.0
  9
$DIMTP
 40
0.01
  9
$DIMTM
 40
0.01
  9
$DIMGAP
 40
0.625
  9
$DIMDSEP
 70
46
  9
$AUNITS
 70
0
  9
$PDMODE
 70
3
  9
$PDSIZE
 40
0.3125
  9
$HANDSEED
  5
2CD
  9
$TILEMODE
 70
1
  9
$MEASUREMENT
 70
1
  9
$INSUNITS
 70
4
  0
ENDSEC
  0
SECTION
  2
CLASSES
  0
CLASS
  1
ACDBDICTIONARYWDFLT
  2
AcDbDictionaryWithDefault
  3
AutoCAD 2000
 90
0
 91
1
280
0
281
0
  0
CLASS
  1
ACDBPLACEHOLDER
  2
AcDbPlaceHolder
  3
AutoCAD 2000
 90
0
 91
1
280
0
281
0
  0
CLASS
  1
LAYOUT
  2
AcDbLayout
  3
AutoCAD 2000
 90
0
 91
0
280
0
281
0
  0
ENDSEC
  0
SECTION
  2
TABLES
  0
TABLE
  2
VPORT
  5
8
100
AcDbSymbolTable
 70
2
  0
VPORT
  5
1F4
100
AcDbSymbolTableRecord
100
AcDbViewportTableRecord
  2
*ACTIVE
 70
0
 10
0.0
 20
0.0
 11
1.0
 21
1.0
 12
63.4638331915
 22
89.7559926566
 13
0.0
 23
0.0
 14
1.0
 24
1.0
 15
0.0
 25
0.0
 16
0.0
 26
0.0
 36
1.0
 17
0.0
 27
0.0
 37
0.0
 40
179.5119853131
 41
0.7070707071
 42
50.0
 43
0.0
 44
0.0
 50
0.0
 51
0.0
 71
0
 72
100
 73
1
 74
1
 75
0
 76
0
 77
0
 78
0
  0
ENDTAB
  0
TABLE
  2
LTYPE
  5
5
100
AcDbSymbolTable
 70
6
  0
LTYPE
  5
14
100
AcDbSymbolTableRecord
100
AcDbLinetypeTableRecord
  2
BYBLOCK
 70
0
  3

 72
65
 73
0
 40
0.0
  0
LTYPE
  5
15
100
AcDbSymbolTableRecord
100
AcDbLinetypeTableRecord
  2
BYLAYER
 70
0
  3

 72
65
 73
0
 40
0.0
  0
LTYPE
  5
16
100
AcDbSymbolTableRecord
100
AcDbLinetypeTableRecord
  2
CONTINUOUS
 70
64
  3
Solid line
 72
65
 73
0
 40
0.0
  0
LTYPE
  5
1F5
100
AcDbSymbolTableRecord
100
AcDbLinetypeTableRecord
  2
CENTER
 70
64
  3
____ _ ____ _ ____ _ ____ _ ____ _ ____ _ ____
 72
65
 73
4
 40
0.6
 49
0.375
 74
0
 49
-0.075
 74
0
 49
0.075
 74
0
 49
-0.075
 74
0
  0
LTYPE
  5
1F6
100
AcDbSymbolTableRecord
100
AcDbLinetypeTableRecord
  2
HIDDEN
 70
64
  3
- - - - - - - - - - - - - - - - - - - -
 72
65
 73
2
 40
0.2
 49
0.1
 74
0
 49
-0.1
 74
0
  0
LTYPE
  5
1F7
100
AcDbSymbolTableRecord
100
AcDbLinetypeTableRecord
  2
PHANTOM
 70
64
  3
_____ _ _ _____ _ _ _____ _ _ _____
 72
65
 73
6
 40
0.8
 49
0.45
 74
0
 49
-0.05
 74
0
 49
0.1
 74
0
 49
-0.05
 74
0
 49
0.1
 74
0
 49
-0.05
 74
0
  0
LTYPE
  5
1F8
100
AcDbSymbolTableRecord
100
AcDbLinetypeTableRecord
  2
DOT
 70
64
  3
. . . . . . . . . . . . . . . . . . . .
 72
65
 73
2
 40
0.2
 49
0.1
 74
0
 49
-0.1
 74
0
  0
LTYPE
  5
1F9
100
AcDbSymbolTableRecord
100
AcDbLinetypeTableRecord
  2
DASHED
 70
64
  3
- - - - - - - - - - - - - - - - - - - -
 72
65
 73
2
 40
0.2
 49
0.1
 74
0
 49
-0.1
 74
0
  0
ENDTAB
  0
TABLE
  2
LAYER
  5
2
100
AcDbSymbolTable
 70
36
  0
LAYER
  5
10
100
AcDbSymbolTableRecord
100
AcDbLayerTableRecord
  2
0
 70
0
 62
7
  6
CONTINUOUS
370
-3
390
F
  0
LAYER
  5
1FA
100
AcDbSymbolTableRecord
100
AcDbLayerTableRecord
  2
DEFAULT_1
 70
0
 62
7
  6
CENTER
370
-3
390
F
  0
LAYER
  5
1FB
100
AcDbSymbolTableRecord
100
AcDbLayerTableRecord
  2
DEFAULT_2
 70
0
 62
8
  6
HIDDEN
370
-3
390
F
  0
LAYER
  5
1FC
100
AcDbSymbolTableRecord
100
AcDbLayerTableRecord
  2
DEFAULT_3
 70
0
 62
7
  6
PHANTOM
370
-3
390
F
  0
LAYER
  5
1FD
100
AcDbSymbolTableRecord
100
AcDbLayerTableRecord
  2
00_COMPONENTS
 70
0
 62
7
  6
CONTINUOUS
370
-3
390
F
  0
LAYER
  5
1FE
100
AcDbSymbolTableRecord
100
AcDbLayerTableRecord
  2
01_1_DEFAULT_DATUMS
 70
0
 62
7
  6
CONTINUOUS
370
-3
390
F
  0
LAYER
  5
1FF
100
AcDbSymbolTableRecord
100
AcDbLayerTableRecord
  2
01_PLANES
 70
0
 62
7
  6
CONTINUOUS
370
-3
390
F
  0
LAYER
  5
200
100
AcDbSymbolTableRecord
100
AcDbLayerTableRecord
  2
02_COORD_SYS
 70
0
 62
7
  6
CONTINUOUS
370
-3
390
F
  0
LAYER
  5
201
100
AcDbSymbolTableRecord
100
AcDbLayerTableRecord
  2
03_AXES
 70
0
 62
7
  6
CONTINUOUS
370
-3
390
F
  0
LAYER
  5
202
100
AcDbSymbolTableRecord
100
AcDbLayerTableRecord
  2
04_POINTS
 70
0
 62
7
  6
CONTINUOUS
370
-3
390
F
  0
LAYER
  5
203
100
AcDbSymbolTableRecord
100
AcDbLayerTableRecord
  2
05_CURVES
 70
0
 62
7
  6
CONTINUOUS
370
-3
390
F
  0
LAYER
  5
204
100
AcDbSymbolTableRecord
100
AcDbLayerTableRecord
  2
06_SURFS
 70
0
 62
7
  6
CONTINUOUS
370
-3
390
F
  0
LAYER
  5
205
100
AcDbSymbolTableRecord
100
AcDbLayerTableRecord
  2
07_COSMETICS
 70
0
 62
7
  6
CONTINUOUS
370
-3
390
F
  0
LAYER
  5
206
100
AcDbSymbolTableRecord
100
AcDbLayerTableRecord
  2
10_NOTES
 70
0
 62
7
  6
CONTINUOUS
370
-3
390
F
  0
LAYER
  5
207
100
AcDbSymbolTableRecord
100
AcDbLayerTableRecord
  2
11_NOTES_PUB
 70
0
 62
7
  6
CONTINUOUS
370
-3
390
F
  0
LAYER
  5
208
100
AcDbSymbolTableRecord
100
AcDbLayerTableRecord
  2
13_REF_GTOL
 70
0
 62
7
  6
CONTINUOUS
370
-3
390
F
  0
LAYER
  5
209
100
AcDbSymbolTableRecord
100
AcDbLayerTableRecord
  2
16_MISC
 70
0
 62
7
  6
CONTINUOUS
370
-3
390
F
  0
LAYER
  5
20A
100
AcDbSymbolTableRecord
100
AcDbLayerTableRecord
  2
17_NO_PRINT
 70
0
 62
7
  6
CONTINUOUS
370
-3
390
F
  0
LAYER
  5
20B
100
AcDbSymbolTableRecord
100
AcDbLayerTableRecord
  2
18_DATUM_CAMS_JOINTS
 70
0
 62
7
  6
CONTINUOUS
370
-3
390
F
  0
LAYER
  5
20C
100
AcDbSymbolTableRecord
100
AcDbLayerTableRecord
  2
19_DATUM_FUNCTIONAL
 70
0
 62
7
  6
CONTINUOUS
370
-3
390
F
  0
LAYER
  5
20D
100
AcDbSymbolTableRecord
100
AcDbLayerTableRecord
  2
20_DATUM_KINEMATIC_SCHEME
 70
0
 62
7
  6
CONTINUOUS
370
-3
390
F
  0
LAYER
  5
20E
100
AcDbSymbolTableRecord
100
AcDbLayerTableRecord
  2
INTFCLR_65
 70
0
 62
7
  6
CONTINUOUS
370
-3
390
F
  0
LAYER
  5
20F
100
AcDbSymbolTableRecord
100
AcDbLayerTableRecord
  2
INTFCLR_74
 70
0
 62
7
  6
CONTINUOUS
370
-3
390
F
  0
LAYER
  5
210
100
AcDbSymbolTableRecord
100
AcDbLayerTableRecord
  2
INTFCLR_76
 70
0
 62
7
  6
CONTINUOUS
370
-3
390
F
  0
ENDTAB
  0
TABLE
  2
STYLE
  5
3
100
AcDbSymbolTable
 70
1
  0
STYLE
  5
11
100
AcDbSymbolTableRecord
100
AcDbTextStyleTableRecord
  2
STANDARD
 70
0
 40
0.0
 41
0.8
 50
0.0
 71
0
 42
0.2
  3
txt
  4

  0
STYLE
  5
211
100
AcDbSymbolTableRecord
100
AcDbTextStyleTableRecord
  2
TEXTSTYLE_1
 70
0
 40
0.0
 41
0.8
 50
0.0
 71
0
 42
0.2
  3
gdt
  4

  0
ENDTAB
  0
TABLE
  2
VIEW
  5
6
100
AcDbSymbolTable
 70
0
  0
ENDTAB
  0
TABLE
  2
UCS
  5
7
100
AcDbSymbolTable
 70
0
  0
ENDTAB
  0
TABLE
  2
APPID
  5
9
100
AcDbSymbolTable
 70
1
  0
APPID
  5
212
100
AcDbSymbolTableRecord
100
AcDbRegAppTableRecord
  2
ACAD
 70
0
  0
ENDTAB
  0
TABLE
  2
BLOCK_RECORD
  5
1
100
AcDbSymbolTable
 70
0
  0
BLOCK_RECORD
  5
213
100
AcDbSymbolTableRecord
100
AcDbBlockTableRecord
  2
*Model_Space
  0
BLOCK_RECORD
  5
214
100
AcDbSymbolTableRecord
100
AcDbBlockTableRecord
  2
*Paper_Space
  0
BLOCK_RECORD
  5
215
100
AcDbSymbolTableRecord
100
AcDbBlockTableRecord
  2
_FILLED
  0
ENDTAB
  0
TABLE
  2
DIMSTYLE
  5
A
100
AcDbSymbolTable
 70
1
100
AcDbDimStyleTable
 71
0
  0
DIMSTYLE
105
216
100
AcDbSymbolTableRecord
100
AcDbDimStyleTableRecord
  2
STANDARD
 70
0
  3

  4

 40
1.0
 41
1.5110436474
 42
1.0
 43
0.38
 44
1.0
 45
0.0
 46
0.0
 47
0.01
 48
0.01
140
2.1154611064
141
0.09
142
0.0
143
25.4
144
1.0
145
0.0
146
1.0
147
0.625
 71
1
 72
0
 73
0
 74
0
 75
0
 76
0
 77
1
 78
8
 79
2
170
0
171
1
172
0
173
0
174
0
175
0
176
0
177
0
178
0
270
2
179
2
271
2
272
2
273
2
274
2
275
0
280
0
281
0
282
0
283
1
284
8
285
0
286
0
287
3
288
0
340
11
278
46
341
215
342
215
343
215
344
215
  0
ENDTAB
  0
ENDSEC
  0
SECTION
  2
BLOCKS
  0
BLOCK
  5
20
100
AcDbEntity
  8
0
100
AcDbBlockBegin
  2
*Model_Space
 70
0
 10
0.0
 20
0.0
 30
0.0
  3
*Model_Space
  1

  0
ENDBLK
  5
21
100
AcDbEntity
  8
0
100
AcDbBlockEnd
  0
BLOCK
  5
1C
100
AcDbEntity
  8
0
100
AcDbBlockBegin
  2
*Paper_Space
 70
0
 10
0.0
 20
0.0
 30
0.0
  3
*Paper_Space
  1

  0
ENDBLK
  5
1D
100
AcDbEntity
  8
0
100
AcDbBlockEnd
  0
BLOCK
  5
217
100
AcDbEntity
  8
0
100
AcDbBlockBegin
  2
_FILLED
 70
64
 10
0.0
 20
0.0
  3
_FILLED
  1

  0
SOLID
  5
218
100
AcDbEntity
  8
0
  6
BYBLOCK
 62
0
100
AcDbTrace
 10
0.0
 20
0.0
 11
-1.0
 21
0.25
 12
-1.0
 22
-0.25
 13
-1.0
 23
-0.25
  0
ENDBLK
  5
219
100
AcDbEntity
  8
0
  6
BYBLOCK
 62
0
100
AcDbBlockEnd
  0
ENDSEC
  0
SECTION
  2
ENTITIES
  0
LINE
  5
21A
100
AcDbEntity
  8
INTFCLR_74
100
AcDbLine
 62
7
420
48875
  6
CONTINUOUS
 10
15.2984047961
 20
128.4757135707
 11
14.7984047961
 21
125.6357669309
  0
LINE
  5
21B
100
AcDbEntity
  8
0
100
AcDbLine
 62
7
  6
CONTINUOUS
 10
14.7990106231
 20
125.6392079636
 11
15.2984002135
 21
128.475687542
  0
LINE
  5
21C
100
AcDbEntity
  8
INTFCLR_74
100
AcDbLine
 62
7
420
48875
  6
CONTINUOUS
 10
14.7984047961
 20
125.6357669309
 11
14.7984047961
 21
106.9757669309
  0
LINE
  5
21D
100
AcDbEntity
  8
0
100
AcDbLine
 62
7
  6
CONTINUOUS
 10
14.7984047961
 20
106.9757669309
 11
14.7984047961
 21
125.6392566294
  0
LINE
  5
21E
100
AcDbEntity
  8
INTFCLR_74
100
AcDbLine
 62
7
420
48875
  6
CONTINUOUS
 10
14.7983160394
 20
71.0249871322
 11
14.7975118639
 21
65.1257135707
  0
LINE
  5
21F
100
AcDbEntity
  8
INTFCLR_74
100
AcDbLine
 62
7
420
48875
  6
CONTINUOUS
 10
14.7973073872
 20
63.6257134578
 11
14.7956511268
 21
51.4757135707
  0
LINE
  5
220
100
AcDbEntity
  8
0
100
AcDbLine
 62
7
  6
CONTINUOUS
 10
14.7956511301
 20
51.4757374151
 11
14.7973073872
 21
63.6257134578
  0
LINE
  5
221
100
AcDbEntity
  8
0
100
AcDbLine
 62
7
  6
CONTINUOUS
 10
14.7975118639
 20
65.1257135707
 11
14.7983160394
 21
71.0249871322
  0
LINE
  5
222
100
AcDbEntity
  8
INTFCLR_74
100
AcDbLine
 62
7
420
48875
  6
CONTINUOUS
 10
16.2974437189
 20
64.6257135707
 11
16.2974300872
 21
64.5257135707
  0
LINE
  5
223
100
AcDbEntity
  8
0
100
AcDbLine
 62
7
  6
CONTINUOUS
 10
16.2974300872
 20
64.5257135707
 11
16.2974437189
 21
64.6257135707
  0
LINE
  5
224
100
AcDbEntity
  8
0
100
AcDbLine
 62
7
  6
CONTINUOUS
 10
19.1984047961
 20
109.6757135707
 11
18.5984581562
 21
105.7757135707
  0
LINE
  5
225
100
AcDbEntity
  8
INTFCLR_74
100
AcDbLine
 62
7
420
48875
  6
CONTINUOUS
 10
18.5984581562
 20
105.7757135707
 11
19.1984047961
 21
109.6757135707
  0
LINE
  5
226
100
AcDbEntity
  8
INTFCLR_74
100
AcDbLine
 62
7
420
48875
  6
CONTINUOUS
 10
20.9984047961
 20
109.6757135707
 11
20.9984047961
 21
106.6757135707
  0
LINE
  5
227
100
AcDbEntity
  8
0
100
AcDbLine
 62
7
  6
CONTINUOUS
 10
20.9984047961
 20
106.6757135707
 11
20.9984047961
 21
109.6757135707
  0
LINE
  5
228
100
AcDbEntity
  8
0
100
AcDbLine
 62
7
  6
CONTINUOUS
 10
21.7984047961
 20
120.2757135707
 11
21.7984047961
 21
128.4756897282
  0
LINE
  5
229
100
AcDbEntity
  8
INTFCLR_74
100
AcDbLine
 62
7
420
48875
  6
CONTINUOUS
 10
21.7984047961
 20
125.8757135707
 11
21.7984047961
 21
128.4757135707
  0
LINE
  5
22A
100
AcDbEntity
  8
0
100
AcDbLine
 62
7
  6
CONTINUOUS
 10
18.9985955759
 20
73.0753249673
 11
18.998404784
 21
71.6757135707
  0
LINE
  5
22B
100
AcDbEntity
  8
INTFCLR_74
100
AcDbLine
 62
7
420
48875
  6
CONTINUOUS
 10
18.998404784
 20
71.6757135707
 11
18.9985955759
 21
73.0753249673
  0
LINE
  5
22C
100
AcDbEntity
  8
0
100
AcDbLine
 62
7
  6
CONTINUOUS
 10
19.3010355039
 20
90.974135056
 11
19.3007628684
 21
88.9741350746
  0
LINE
  5
22D
100
AcDbEntity
  8
0
100
AcDbLine
 62
7
  6
CONTINUOUS
 10
20.3037211876
 20
110.6757129577
 11
20.3035848698
 21
109.6757128646
  0
LINE
  5
22E
100
AcDbEntity
  8
INTFCLR_74
100
AcDbLine
 62
7
420
48875
  6
CONTINUOUS
 10
20.3030567638
 20
105.8016316768
 11
20.2984047961
 21
71.6757135707
  0
LINE
  5
22F
100
AcDbEntity
  8
0
100
AcDbLine
 62
7
  6
CONTINUOUS
 10
20.2984047961
 20
71.6757135707
 11
20.3030567638
 21
105.8016316768
  0
LINE
  5
230
100
AcDbEntity
  8
INTFCLR_74
100
AcDbLine
 62
7
420
48875
  6
CONTINUOUS
 10
21.7957193507
 20
51.9757135707
 11
21.796005618
 21
54.0757135707
  0
LINE
  5
231
100
AcDbEntity
  8
0
100
AcDbLine
 62
7
  6
CONTINUOUS
 10
21.7978595298
 20
59.6757136451
 11
21.7957193414
 21
51.9756454014
  0
LINE
  5
232
100
AcDbEntity
  8
INTFCLR_74
100
AcDbLine
 62
7
420
48875
  6
CONTINUOUS
 10
20.4599432576
 20
106.6757135707
 11
20.3030567639
 21
105.8016316768
  0
LINE
  5
233
100
AcDbEntity
  8
0
100
AcDbLine
 62
7
  6
CONTINUOUS
 10
20.3030567638
 20
105.8016316768
 11
20.4599432576
 21
106.6757135707
  0
LINE
  5
234
100
AcDbEntity
  8
0
100
AcDbLine
 62
7
  6
CONTINUOUS
 10
18.5983161177
 20
73.4757135707
 11
18.9985955759
 21
73.0753249673
  0
LINE
  5
235
100
AcDbEntity
  8
INTFCLR_74
100
AcDbLine
 62
7
420
48875
  6
CONTINUOUS
 10
18.9985955759
 20
73.0753249673
 11
18.5983161177
 21
73.4757135707
  0
LINE
  5
236
100
AcDbEntity
  8
0
100
AcDbLine
 62
7
  6
CONTINUOUS
 10
67.7330629115
 20
47.5757135707
 11
94.4484047961
 21
47.5757135707
  0
LINE
  5
237
100
AcDbEntity
  8
INTFCLR_74
100
AcDbLine
 62
7
420
48875
  6
CONTINUOUS
 10
67.7330629115
 20
47.5757135707
 11
109.1458064772
 21
47.5757135707
  0
LINE
  5
238
100
AcDbEntity
  8
0
100
AcDbLine
 62
7
  6
CONTINUOUS
 10
63.3918584699
 20
47.9554428839
 11
60.9590222345
 21
48.3844944134
  0
LINE
  5
239
100
AcDbEntity
  8
INTFCLR_74
100
AcDbLine
 62
7
420
48875
  6
CONTINUOUS
 10
60.9590222345
 20
48.3844944134
 11
63.3918584699
 21
47.9554428839
  0
LINE
  5
23A
100
AcDbEntity
  8
0
100
AcDbLine
 62
7
  6
CONTINUOUS
 10
21.2957193507
 20
51.4757135707
 11
14.795663065
 21
51.4757135707
  0
LINE
  5
23B
100
AcDbEntity
  8
INTFCLR_74
100
AcDbLine
 62
7
420
48875
  6
CONTINUOUS
 10
14.7956511268
 20
51.4757135707
 11
21.2957193507
 21
51.4757135707
  0
LINE
  5
23C
100
AcDbEntity
  8
0
100
AcDbLine
 62
7
  6
CONTINUOUS
 10
21.7958554385
 20
52.205465577
 11
14.7958553734
 21
52.205465577
  0
LINE
  5
23D
100
AcDbEntity
  8
0
100
AcDbLine
 62
7
  6
CONTINUOUS
 10
14.7960033448
 20
54.0595150836
 11
21.7960034098
 21
54.0595150836
  0
LINE
  5
23E
100
AcDbEntity
  8
0
100
AcDbLine
 62
7
  6
CONTINUOUS
 10
60.546005618
 20
54.0757135707
 11
52.7984047961
 21
54.0757135707
  0
LINE
  5
23F
100
AcDbEntity
  8
INTFCLR_74
100
AcDbLine
 62
7
420
48875
  6
CONTINUOUS
 10
21.796005618
 20
54.0757135707
 11
60.546005618
 21
54.0757135707
  0
LINE
  5
240
100
AcDbEntity
  8
INTFCLR_76
100
AcDbLine
 62
7
420
3604575
  6
CONTINUOUS
 10
94.4317851496
 20
55.5783704446
 11
94.165731575
 21
55.5783622926
  0
LINE
  5
241
100
AcDbEntity
  8
INTFCLR_76
100
AcDbLine
 62
7
420
3604575
  6
CONTINUOUS
 10
93.8240282298
 20
55.5783518226
 11
93.0202886312
 21
55.5783271955
  0
LINE
  5
242
100
AcDbEntity
  8
0
100
AcDbLine
 62
7
  6
CONTINUOUS
 10
52.7984047961
 20
56.9757135707
 11
21.7984047961
 21
56.9757135707
  0
LINE
  5
243
100
AcDbEntity
  8
0
100
AcDbLine
 62
7
  6
CONTINUOUS
 10
47.7984047961
 20
57.2453123179
 11
52.7984047961
 21
57.2453123179
  0
LINE
  5
244
100
AcDbEntity
  8
0
100
AcDbLine
 62
7
  6
CONTINUOUS
 10
52.7984047961
 20
57.3644351239
 11
47.7984047961
 21
57.3644351239
  0
LINE
  5
245
100
AcDbEntity
  8
0
100
AcDbLine
 62
7
  6
CONTINUOUS
 10
52.7984047961
 20
59.6757135707
 11
21.7978595298
 21
59.6757136451
  0
LINE
  5
246
100
AcDbEntity
  8
0
100
AcDbLine
 62
7
  6
CONTINUOUS
 10
94.447416181
 20
63.1757135707
 11
101.763239989
 21
63.1757135707
  0
LINE
  5
247
100
AcDbEntity
  8
INTFCLR_74
100
AcDbLine
 62
7
420
48875
  6
CONTINUOUS
 10
15.7974300872
 20
64.0257135707
 11
15.2033860861
 21
64.0257135707
  0
LINE
  5
248
100
AcDbEntity
  8
0
100
AcDbLine
 62
7
  6
CONTINUOUS
 10
15.2033860861
 20
64.0257135707
 11
15.7974300872
 21
64.0257135707
  0
LINE
  5
249
100
AcDbEntity
  8
0
100
AcDbLine
 62
7
  6
CONTINUOUS
 10
92.4484047961
 20
64.1757135707
 11
108.9484047961
 21
64.1757135707
  0
LINE
  5
24A
100
AcDbEntity
  8
0
100
AcDbLine
 62
7
  6
CONTINUOUS
 10
15.7974437189
 20
65.1257135707
 11
14.7975118639
 21
65.1257135707
  0
LINE
  5
24B
100
AcDbEntity
  8
INTFCLR_74
100
AcDbLine
 62
7
420
48875
  6
CONTINUOUS
 10
14.7975118639
 20
65.1257135707
 11
15.7974437189
 21
65.1257135707
  0
LINE
  5
24C
100
AcDbEntity
  8
0
100
AcDbLine
 62
7
  6
CONTINUOUS
 10
106.1484047961
 20
65.5757135707
 11
101.6484047961
 21
65.5757135707
  0
LINE
  5
24D
100
AcDbEntity
  8
INTFCLR_74
100
AcDbLine
 62
7
420
48875
  6
CONTINUOUS
 10
14.7984047961
 20
106.9757669309
 11
15.9984581562
 21
105.7757135707
  0
LINE
  5
24E
100
AcDbEntity
  8
0
100
AcDbLine
 62
7
  6
CONTINUOUS
 10
15.9984581562
 20
105.7757135707
 11
14.7984047961
 21
106.9757669309
  0
LINE
  5
24F
100
AcDbEntity
  8
0
100
AcDbLine
 62
7
  6
CONTINUOUS
 10
47.7984047961
 20
122.7061148236
 11
47.7984047961
 21
122.5869920175
  0
LINE
  5
250
100
AcDbEntity
  8
0
100
AcDbLine
 62
7
  6
CONTINUOUS
 10
47.7984047961
 20
57.3644351239
 11
47.7984047961
 21
57.2453123179
  0
LINE
  5
251
100
AcDbEntity
  8
INTFCLR_74
100
AcDbLine
 62
7
420
48875
  6
CONTINUOUS
 10
19.6984047961
 20
71.0757135707
 11
19.598404784
 21
71.0757135707
  0
LINE
  5
252
100
AcDbEntity
  8
0
100
AcDbLine
 62
7
  6
CONTINUOUS
 10
19.598404784
 20
71.0757135707
 11
19.6984047961
 21
71.0757135707
  0
LINE
  5
253
100
AcDbEntity
  8
0
100
AcDbLine
 62
7
  6
CONTINUOUS
 10
18.9985136985
 20
72.4746886429
 11
20.2985136945
 21
72.4745705009
  0
LINE
  5
254
100
AcDbEntity
  8
INTFCLR_74
100
AcDbLine
 62
7
420
48875
  6
CONTINUOUS
 10
15.2033860861
 20
64.0257135707
 11
14.7973073872
 21
63.6257134578
  0
LINE
  5
255
100
AcDbEntity
  8
0
100
AcDbLine
 62
7
  6
CONTINUOUS
 10
14.7973073872
 20
63.6257134578
 11
15.2033860861
 21
64.0257135707
  0
LINE
  5
256
100
AcDbEntity
  8
INTFCLR_74
100
AcDbLine
 62
7
420
48875
  6
CONTINUOUS
 10
18.2983161177
 20
73.4757135707
 11
14.7983160394
 21
71.0249871322
  0
LINE
  5
257
100
AcDbEntity
  8
0
100
AcDbLine
 62
7
  6
CONTINUOUS
 10
14.7983160394
 20
71.0249871322
 11
18.2983161177
 21
73.4757135707
  0
LINE
  5
258
100
AcDbEntity
  8
INTFCLR_74
100
AcDbLine
 62
7
420
48875
  6
CONTINUOUS
 10
18.5983161177
 20
73.4757135707
 11
18.2983161177
 21
73.4757135707
  0
LINE
  5
259
100
AcDbEntity
  8
0
100
AcDbLine
 62
7
  6
CONTINUOUS
 10
18.2983161177
 20
73.4757135707
 11
18.5983161177
 21
73.4757135707
  0
LINE
  5
25A
100
AcDbEntity
  8
0
100
AcDbLine
 62
7
  6
CONTINUOUS
 10
107.1484047961
 20
75.2757135707
 11
109.1466552205
 21
75.2757135707
  0
LINE
  5
25B
100
AcDbEntity
  8
0
100
AcDbLine
 62
7
  6
CONTINUOUS
 10
115.6466581726
 20
75.3719589905
 11
109.2466581756
 21
75.3721550901
  0
LINE
  5
25C
100
AcDbEntity
  8
0
100
AcDbLine
 62
7
  6
CONTINUOUS
 10
52.7984047961
 20
125.8757135707
 11
52.7984047961
 21
120.2757135707
  0
LINE
  5
25D
100
AcDbEntity
  8
0
100
AcDbLine
 62
7
  6
CONTINUOUS
 10
52.7984047961
 20
54.0757135707
 11
52.7984047961
 21
59.6757135707
  0
LINE
  5
25E
100
AcDbEntity
  8
0
100
AcDbLine
 62
7
  6
CONTINUOUS
 10
109.2467746295
 20
79.1728019285
 11
115.6467746265
 21
79.172605829
  0
LINE
  5
25F
100
AcDbEntity
  8
INTFCLR_74
100
AcDbLine
 62
7
420
48875
  6
CONTINUOUS
 10
60.546005618
 20
54.0757135707
 11
60.5458463234
 21
48.8768982899
  0
LINE
  5
260
100
AcDbEntity
  8
0
100
AcDbLine
 62
7
  6
CONTINUOUS
 10
60.5458463234
 20
48.8768982898
 11
60.546005618
 21
54.0757135707
  0
LINE
  5
261
100
AcDbEntity
  8
INTFCLR_74
100
AcDbLine
 62
7
420
48875
  6
CONTINUOUS
 10
60.5484047961
 20
131.0745288516
 11
60.5484047961
 21
125.8757135707
  0
LINE
  5
262
100
AcDbEntity
  8
0
100
AcDbLine
 62
7
  6
CONTINUOUS
 10
60.5484047961
 20
125.8757135707
 11
60.5484047961
 21
131.0745288516
  0
LINE
  5
263
100
AcDbEntity
  8
0
100
AcDbLine
 62
7
  6
CONTINUOUS
 10
19.3007628684
 20
88.9741350746
 11
20.3007628591
 21
88.9739987569
  0
LINE
  5
264
100
AcDbEntity
  8
0
100
AcDbLine
 62
7
  6
CONTINUOUS
 10
19.3010355038
 20
90.974135056
 11
20.3010354946
 21
90.9739987383
  0
LINE
  5
265
100
AcDbEntity
  8
0
100
AcDbLine
 62
7
  6
CONTINUOUS
 10
115.6474333984
 20
100.6726058088
 11
109.2474334014
 21
100.6728019083
  0
LINE
  5
266
100
AcDbEntity
  8
0
100
AcDbLine
 62
7
  6
CONTINUOUS
 10
115.6475498523
 20
104.4732526472
 11
109.2475498553
 21
104.4734487467
  0
LINE
  5
267
100
AcDbEntity
  8
0
100
AcDbLine
 62
7
  6
CONTINUOUS
 10
107.1484047961
 20
104.6757135707
 11
109.1475560528
 21
104.6757135707
  0
LINE
  5
268
100
AcDbEntity
  8
0
100
AcDbLine
 62
7
  6
CONTINUOUS
 10
18.5984581562
 20
105.7757135707
 11
15.9984581562
 21
105.7757135707
  0
LINE
  5
269
100
AcDbEntity
  8
INTFCLR_74
100
AcDbLine
 62
7
420
48875
  6
CONTINUOUS
 10
15.9984581562
 20
105.7757135707
 11
18.5984581562
 21
105.7757135707
  0
LINE
  5
26A
100
AcDbEntity
  8
INTFCLR_74
100
AcDbLine
 62
7
420
48875
  6
CONTINUOUS
 10
20.9984047961
 20
106.6757135707
 11
20.4599432576
 21
106.6757135707
  0
LINE
  5
26B
100
AcDbEntity
  8
0
100
AcDbLine
 62
7
  6
CONTINUOUS
 10
20.4599432576
 20
106.6757135707
 11
20.9984047961
 21
106.6757135707
  0
LINE
  5
26C
100
AcDbEntity
  8
INTFCLR_74
100
AcDbLine
 62
7
420
48875
  6
CONTINUOUS
 10
19.1984047961
 20
109.6757135707
 11
20.9984047961
 21
109.6757135707
  0
LINE
  5
26D
100
AcDbEntity
  8
0
100
AcDbLine
 62
7
  6
CONTINUOUS
 10
20.9984047961
 20
109.6757135707
 11
19.1984047961
 21
109.6757135707
  0
LINE
  5
26E
100
AcDbEntity
  8
0
100
AcDbLine
 62
7
  6
CONTINUOUS
 10
14.7984047961
 20
110.6757136824
 11
20.3001769266
 21
110.6757136824
  0
LINE
  5
26F
100
AcDbEntity
  8
0
100
AcDbLine
 62
7
  6
CONTINUOUS
 10
106.1484047961
 20
114.3757135707
 11
101.6484047961
 21
114.3757135707
  0
LINE
  5
270
100
AcDbEntity
  8
0
100
AcDbLine
 62
7
  6
CONTINUOUS
 10
92.4484047961
 20
115.7757135707
 11
108.9484047961
 21
115.7757135707
  0
LINE
  5
271
100
AcDbEntity
  8
0
100
AcDbLine
 62
7
  6
CONTINUOUS
 10
94.447416181
 20
116.7757135707
 11
101.763239989
 21
116.7757135707
  0
LINE
  5
272
100
AcDbEntity
  8
0
100
AcDbLine
 62
7
  6
CONTINUOUS
 10
92.4484047961
 20
47.5757135707
 11
92.4484047961
 21
64.1757135707
  0
LINE
  5
273
100
AcDbEntity
  8
0
100
AcDbLine
 62
7
  6
CONTINUOUS
 10
92.4484047961
 20
115.7757135707
 11
92.4484047961
 21
132.3757135707
  0
LINE
  5
274
100
AcDbEntity
  8
0
100
AcDbLine
 62
7
  6
CONTINUOUS
 10
94.4484047961
 20
47.5757135707
 11
94.447416181
 21
64.1757135707
  0
LINE
  5
275
100
AcDbEntity
  8
0
100
AcDbLine
 62
7
  6
CONTINUOUS
 10
94.447416181
 20
115.7757135707
 11
94.4484047961
 21
132.3757135707
  0
LINE
  5
276
100
AcDbEntity
  8
0
100
AcDbLine
 62
7
  6
CONTINUOUS
 10
52.7984047961
 20
120.2757135707
 11
21.7984047961
 21
120.2757135707
  0
LINE
  5
277
100
AcDbEntity
  8
0
100
AcDbLine
 62
7
  6
CONTINUOUS
 10
21.7984047961
 20
122.2607718492
 11
14.7984047961
 21
122.2607718492
  0
LINE
  5
278
100
AcDbEntity
  8
0
100
AcDbLine
 62
7
  6
CONTINUOUS
 10
47.7984047961
 20
122.5869920175
 11
52.7984047961
 21
122.5869920175
  0
LINE
  5
279
100
AcDbEntity
  8
0
100
AcDbLine
 62
7
  6
CONTINUOUS
 10
52.7984047961
 20
122.7061148236
 11
47.7984047961
 21
122.7061148236
  0
LINE
  5
27A
100
AcDbEntity
  8
0
100
AcDbLine
 62
7
  6
CONTINUOUS
 10
21.7984047961
 20
122.9757135707
 11
52.7984047961
 21
122.9757135707
  0
LINE
  5
27B
100
AcDbEntity
  8
0
100
AcDbLine
 62
7
  6
CONTINUOUS
 10
21.7984047961
 20
124.1911579589
 11
14.7984047961
 21
124.1911579589
  0
LINE
  5
27C
100
AcDbEntity
  8
INTFCLR_76
100
AcDbLine
 62
7
420
3604575
  6
CONTINUOUS
 10
93.0202886312
 20
124.3730999459
 11
93.8240282298
 21
124.3730753189
  0
LINE
  5
27D
100
AcDbEntity
  8
INTFCLR_76
100
AcDbLine
 62
7
420
3604575
  6
CONTINUOUS
 10
94.165731575
 20
124.3730648489
 11
94.4317851496
 21
124.3730566969
  0
LINE
  5
27E
100
AcDbEntity
  8
0
100
AcDbLine
 62
7
  6
CONTINUOUS
 10
101.6484047961
 20
115.7757135707
 11
101.6484047961
 21
114.3757135707
  0
LINE
  5
27F
100
AcDbEntity
  8
0
100
AcDbLine
 62
7
  6
CONTINUOUS
 10
101.6484047961
 20
64.1757135707
 11
101.6484047961
 21
65.5757135707
  0
LINE
  5
280
100
AcDbEntity
  8
0
100
AcDbLine
 62
7
  6
CONTINUOUS
 10
102.1484047961
 20
65.5757135707
 11
102.1484047961
 21
64.1757135707
  0
LINE
  5
281
100
AcDbEntity
  8
0
100
AcDbLine
 62
7
  6
CONTINUOUS
 10
102.1484047961
 20
114.3757135707
 11
102.1484047961
 21
115.7757135707
  0
LINE
  5
282
100
AcDbEntity
  8
INTFCLR_74
100
AcDbLine
 62
7
420
48875
  6
CONTINUOUS
 10
60.5484047961
 20
125.8757135707
 11
21.7984047961
 21
125.8757135707
  0
LINE
  5
283
100
AcDbEntity
  8
0
100
AcDbLine
 62
7
  6
CONTINUOUS
 10
52.7984047961
 20
125.8757135707
 11
60.5484047961
 21
125.8757135707
  0
LINE
  5
284
100
AcDbEntity
  8
0
100
AcDbLine
 62
7
  6
CONTINUOUS
 10
21.7984047961
 20
126.9757135707
 11
15.0343153271
 21
126.9757135707
  0
LINE
  5
285
100
AcDbEntity
  8
0
100
AcDbLine
 62
7
  6
CONTINUOUS
 10
21.7984047961
 20
127.3047841533
 11
15.0922513774
 21
127.3047841533
  0
LINE
  5
286
100
AcDbEntity
  8
0
100
AcDbLine
 62
7
  6
CONTINUOUS
 10
21.7984047961
 20
128.262051799
 11
15.2607875802
 21
128.262051799
  0
LINE
  5
287
100
AcDbEntity
  8
0
100
AcDbLine
 62
7
  6
CONTINUOUS
 10
21.7984047961
 20
128.4757135707
 11
15.2984047961
 21
128.4757135707
  0
LINE
  5
288
100
AcDbEntity
  8
INTFCLR_74
100
AcDbLine
 62
7
420
48875
  6
CONTINUOUS
 10
21.7984047961
 20
128.4757135707
 11
15.2984047961
 21
128.4757135707
  0
LINE
  5
289
100
AcDbEntity
  8
0
100
AcDbLine
 62
7
  6
CONTINUOUS
 10
106.1484047961
 20
115.7757135707
 11
106.1484047961
 21
114.3757135707
  0
LINE
  5
28A
100
AcDbEntity
  8
0
100
AcDbLine
 62
7
  6
CONTINUOUS
 10
106.1484047961
 20
64.1757135707
 11
106.1484047961
 21
65.5757135707
  0
LINE
  5
28B
100
AcDbEntity
  8
0
100
AcDbLine
 62
7
  6
CONTINUOUS
 10
107.1484047961
 20
64.1757135707
 11
107.1484047961
 21
75.2757135707
  0
LINE
  5
28C
100
AcDbEntity
  8
0
100
AcDbLine
 62
7
  6
CONTINUOUS
 10
107.1484047961
 20
104.6757135707
 11
107.1484047961
 21
115.7757135707
  0
LINE
  5
28D
100
AcDbEntity
  8
0
100
AcDbLine
 62
7
  6
CONTINUOUS
 10
108.9484047961
 20
64.1757135707
 11
108.9484047961
 21
75.2757135707
  0
LINE
  5
28E
100
AcDbEntity
  8
0
100
AcDbLine
 62
7
  6
CONTINUOUS
 10
108.9484047961
 20
104.6757135707
 11
108.9484047961
 21
115.7757135707
  0
LINE
  5
28F
100
AcDbEntity
  8
0
100
AcDbLine
 62
7
  6
CONTINUOUS
 10
109.1475560528
 20
104.6757135707
 11
109.1466552205
 21
75.2757135707
  0
LINE
  5
290
100
AcDbEntity
  8
INTFCLR_74
100
AcDbLine
 62
7
420
48875
  6
CONTINUOUS
 10
109.1458064772
 20
47.5757135707
 11
109.1484047961
 21
132.3757135707
  0
LINE
  5
291
100
AcDbEntity
  8
0
100
AcDbLine
 62
7
  6
CONTINUOUS
 10
109.2466581756
 20
75.3721550896
 11
109.2475498553
 21
104.4734487472
  0
LINE
  5
292
100
AcDbEntity
  8
INTFCLR_74
100
AcDbLine
 62
7
420
48875
  6
CONTINUOUS
 10
63.3944169426
 20
131.995907396
 11
60.9615807073
 21
131.5669327281
  0
LINE
  5
293
100
AcDbEntity
  8
0
100
AcDbLine
 62
7
  6
CONTINUOUS
 10
60.9615807073
 20
131.5669327281
 11
63.3944169426
 21
131.995907396
  0
LINE
  5
294
100
AcDbEntity
  8
INTFCLR_74
100
AcDbLine
 62
7
420
48875
  6
CONTINUOUS
 10
109.1484047961
 20
132.3757135707
 11
67.7356213842
 21
132.3757135707
  0
LINE
  5
295
100
AcDbEntity
  8
0
100
AcDbLine
 62
7
  6
CONTINUOUS
 10
67.7356213842
 20
132.3757135707
 11
94.4484047961
 21
132.3757135707
  0
LINE
  5
296
100
AcDbEntity
  8
0
100
AcDbLine
 62
7
  6
CONTINUOUS
 10
115.6466581726
 20
75.3719589905
 11
115.6475498523
 21
104.4732526472
  0
ARC
  5
297
100
AcDbEntity
  8
0
100
AcDbCircle
 62
7
  6
CONTINUOUS
 10
67.7356213842
 20
107.3757135707
 40
25.0
100
AcDbArc
 50
90.0
 51
100.0
  0
ARC
  5
298
100
AcDbEntity
  8
0
100
AcDbCircle
 62
7
  6
CONTINUOUS
 10
67.7326270073
 20
72.5757135669
 40
25.0
100
AcDbArc
 50
260.0010144289
 51
270.0009990189
  0
ARC
  5
299
100
AcDbEntity
  8
INTFCLR_74
100
AcDbCircle
 62
7
420
48875
  6
CONTINUOUS
 10
67.7356213842
 20
107.3757135707
 40
25.0
100
AcDbArc
 50
90.0
 51
99.9999999998
  0
ARC
  5
29A
100
AcDbEntity
  8
INTFCLR_74
100
AcDbCircle
 62
7
420
48875
  6
CONTINUOUS
 10
67.7326270073
 20
72.5757135669
 40
25.0
100
AcDbArc
 50
260.0010144289
 51
270.0009990189
  0
ARC
  5
29B
100
AcDbEntity
  8
0
100
AcDbCircle
 62
7
  6
CONTINUOUS
 10
101.763239989
 20
78.1757135707
 40
15.0
100
AcDbArc
 50
270.0
 51
291.0394697813
  0
ARC
  5
29C
100
AcDbEntity
  8
0
100
AcDbCircle
 62
7
  6
CONTINUOUS
 10
101.763239989
 20
101.7757135707
 40
15.0
100
AcDbArc
 50
68.9605302187
 51
90.0
  0
ARC
  5
29D
100
AcDbEntity
  8
0
100
AcDbCircle
 62
7
  6
CONTINUOUS
 10
19.598404784
 20
71.6757135707
 40
0.6
100
AcDbArc
 50
180.0
 51
270.0
  0
ARC
  5
29E
100
AcDbEntity
  8
0
100
AcDbCircle
 62
7
  6
CONTINUOUS
 10
19.6984047961
 20
71.6757135707
 40
0.6
100
AcDbArc
 50
270.0
 51
359.9999999981
  0
ARC
  5
29F
100
AcDbEntity
  8
INTFCLR_74
100
AcDbCircle
 62
7
420
48875
  6
CONTINUOUS
 10
19.6984047961
 20
71.6757135707
 40
0.6
100
AcDbArc
 50
270.0
 51
360.0
  0
ARC
  5
2A0
100
AcDbEntity
  8
INTFCLR_74
100
AcDbCircle
 62
7
420
48875
  6
CONTINUOUS
 10
19.598404784
 20
71.6757135707
 40
0.6
100
AcDbArc
 50
180.0
 51
270.0
  0
ARC
  5
2A1
100
AcDbEntity
  8
0
100
AcDbCircle
 62
7
  6
CONTINUOUS
 10
61.0484047961
 20
131.0745288516
 40
0.5
100
AcDbArc
 50
99.999999998
 51
180.0
  0
ARC
  5
2A2
100
AcDbEntity
  8
0
100
AcDbCircle
 62
7
  6
CONTINUOUS
 10
61.0458463234
 20
48.8768982899
 40
0.5
100
AcDbArc
 50
180.0000000018
 51
259.9999999999
  0
ARC
  5
2A3
100
AcDbEntity
  8
0
100
AcDbCircle
 62
7
  6
CONTINUOUS
 10
15.7974300872
 20
64.5257135707
 40
0.5
100
AcDbArc
 50
270.0
 51
359.9999999999
  0
ARC
  5
2A4
100
AcDbEntity
  8
0
100
AcDbCircle
 62
7
  6
CONTINUOUS
 10
15.7974437189
 20
64.6257135707
 40
0.5
100
AcDbArc
 50
0.0
 51
90.0000000002
  0
ARC
  5
2A5
100
AcDbEntity
  8
0
100
AcDbCircle
 62
7
  6
CONTINUOUS
 10
21.2957193507
 20
51.9757135707
 40
0.5
100
AcDbArc
 50
270.0
 51
360.0
  0
ARC
  5
2A6
100
AcDbEntity
  8
INTFCLR_74
100
AcDbCircle
 62
7
420
48875
  6
CONTINUOUS
 10
61.0484047961
 20
131.0745288516
 40
0.5
100
AcDbArc
 50
100.0
 51
180.0
  0
ARC
  5
2A7
100
AcDbEntity
  8
INTFCLR_74
100
AcDbCircle
 62
7
420
48875
  6
CONTINUOUS
 10
15.7974437189
 20
64.6257135707
 40
0.5
100
AcDbArc
 50
0.0
 51
90.0
  0
ARC
  5
2A8
100
AcDbEntity
  8
INTFCLR_74
100
AcDbCircle
 62
7
420
48875
  6
CONTINUOUS
 10
15.7974300872
 20
64.5257135707
 40
0.5
100
AcDbArc
 50
270.0
 51
360.0
  0
ARC
  5
2A9
100
AcDbEntity
  8
INTFCLR_74
100
AcDbCircle
 62
7
420
48875
  6
CONTINUOUS
 10
21.2957193507
 20
51.9757135707
 40
0.5
100
AcDbArc
 50
270.0
 51
360.0
  0
ARC
  5
2AA
100
AcDbEntity
  8
INTFCLR_74
100
AcDbCircle
 62
7
420
48875
  6
CONTINUOUS
 10
61.0458463234
 20
48.8768982899
 40
0.5
100
AcDbArc
 50
180.0
 51
260.0
  0
SPLINE
  5
2AB
100
AcDbEntity
  8
0
100
AcDbSpline
 62
7
  6
CONTINUOUS
 70
0
 71
3
 72
20
 73
16
 74
0
 42
0.0000001
 43
0.0000001
 44
0.0000000001
 40
0.0
 40
0.0
 40
0.0
 40
0.0
 40
0.0023932443
 40
0.0065835058
 40
0.0215861266
 40
0.0457181942
 40
0.0788782175
 40
0.1208183581
 40
0.1712384041
 40
0.2296265309
 40
0.2953735062
 40
0.4463563219
 40
0.6186187311
 40
0.8056911863
 40
1.0
 40
1.0
 40
1.0
 40
1.0
 10
94.3393633488
 20
58.7783825685
 30
0.0
 10
94.3367996756
 20
58.7783685965
 30
0.0
 10
94.3306368833
 20
58.7732102372
 30
0.0
 10
94.3209160064
 20
58.7526222967
 30
0.0
 10
94.3088064968
 20
58.7071553469
 30
0.0
 10
94.2952204557
 20
58.6311836487
 30
0.0
 10
94.2808431308
 20
58.5257105321
 30
0.0
 10
94.2663124487
 20
58.3920757791
 30
0.0
 10
94.251862648
 20
58.231213444
 30
0.0
 10
94.2377687507
 20
58.0447577053
 30
0.0
 10
94.2189051611
 20
57.750640586
 30
0.0
 10
94.1984300154
 20
57.3344218686
 30
0.0
 10
94.1800825392
 20
56.7880443285
 30
0.0
 10
94.1684255142
 20
56.1950628256
 30
0.0
 10
94.165731575
 20
55.7865114221
 30
0.0
 10
94.165731575
 20
55.5783622926
 30
0.0
  0
SPLINE
  5
2AC
100
AcDbEntity
  8
0
100
AcDbSpline
 62
7
  6
CONTINUOUS
 70
0
 71
3
 72
19
 73
15
 74
0
 42
0.0000001
 43
0.0000001
 44
0.0000000001
 40
0.0
 40
0.0
 40
0.0
 40
0.0
 40
0.0129645408
 40
0.0214017019
 40
0.0315725795
 40
0.05767454
 40
0.0918519803
 40
0.1341406983
 40
0.1843990913
 40
0.2422336365
 40
0.3071218601
 40
0.4557280049
 40
0.6250738926
 40
1.0
 40
1.0
 40
1.0
 40
1.0
 10
93.4636202618
 20
58.7783526825
 30
0.0
 10
93.4494412326
 20
58.7783271078
 30
0.0
 10
93.4264291457
 20
58.7672682948
 30
0.0
 10
93.4022192616
 20
58.7428560127
 30
0.0
 10
93.3731201472
 20
58.7032496888
 30
0.0
 10
93.3387212959
 20
58.6339133056
 30
0.0
 10
93.3000980959
 20
58.5285005074
 30
0.0
 10
93.2621968465
 20
58.3950767736
 30
0.0
 10
93.2254937438
 20
58.2347088231
 30
0.0
 10
93.1904576682
 20
58.048755142
 30
0.0
 10
93.1444862723
 20
57.7555564801
 30
0.0
 10
93.0958152572
 20
57.3395241475
 30
0.0
 10
93.0369869342
 20
56.5839190556
 30
0.0
 10
93.0202886312
 20
55.9883761832
 30
0.0
 10
93.0202886312
 20
55.5783271955
 30
0.0
  0
SPLINE
  5
2AD
100
AcDbEntity
  8
0
100
AcDbSpline
 62
7
  6
CONTINUOUS
 70
0
 71
3
 72
21
 73
17
 74
0
 42
0.0000001
 43
0.0000001
 44
0.0000000001
 40
0.0
 40
0.0
 40
0.0
 40
0.0
 40
0.0022476973
 40
0.0063947033
 40
0.0214286604
 40
0.0455678539
 40
0.0786499638
 40
0.1205003902
 40
0.1709005262
 40
0.2293388413
 40
0.2951449075
 40
0.3676447464
 40
0.4461629696
 40
0.6184621
 40
0.8056099839
 40
1.0
 40
1.0
 40
1.0
 40
1.0
 10
108.8482462641
 20
73.9291460457
 30
0.0
 10
108.8458022042
 20
73.929133584
 30
0.0
 10
108.8400181048
 20
73.923513975
 30
0.0
 10
108.8312613372
 20
73.9025758584
 30
0.0
 10
108.8199669883
 20
73.8560109046
 30
0.0
 10
108.8074760396
 20
73.7788207668
 30
0.0
 10
108.7941195379
 20
73.6717352031
 30
0.0
 10
108.7806762292
 20
73.5361720312
 30
0.0
 10
108.7673072479
 20
73.3728340321
 30
0.0
 10
108.7542802998
 20
73.1833806646
 30
0.0
 10
108.7418018719
 20
72.9698044148
 30
0.0
 10
108.7301130612
 20
72.7343230714
 30
0.0
 10
108.7154308927
 20
72.3830591956
 30
0.0
 10
108.7008763408
 20
71.9070322285
 30
0.0
 10
108.6900859108
 20
71.3048865442
 30
0.0
 10
108.6875990024
 20
70.8900069812
 30
0.0
 10
108.6875989834
 20
70.67863198
 30
0.0
  0
SPLINE
  5
2AE
100
AcDbEntity
  8
0
100
AcDbSpline
 62
7
  6
CONTINUOUS
 70
0
 71
3
 72
21
 73
17
 74
0
 42
0.0000001
 43
0.0000001
 44
0.0000000001
 40
0.0
 40
0.0
 40
0.0
 40
0.0
 40
0.0022403056
 40
0.0063809007
 40
0.021418937
 40
0.0455866452
 40
0.0787038745
 40
0.1205616817
 40
0.1709239163
 40
0.2293272264
 40
0.2951295648
 40
0.3676711738
 40
0.4462401792
 40
0.6185124263
 40
0.8055931336
 40
1.0
 40
1.0
 40
1.0
 40
1.0
 10
108.8482462703
 20
112.5233224174
 30
0.0
 10
108.8458102076
 20
112.5233315082
 30
0.0
 10
108.8400034911
 20
112.5177401595
 30
0.0
 10
108.8312642893
 20
112.4968071218
 30
0.0
 10
108.8199525689
 20
112.4502161887
 30
0.0
 10
108.8074803867
 20
112.3729471557
 30
0.0
 10
108.794123644
 20
112.2657832364
 30
0.0
 10
108.7806792847
 20
112.1302135637
 30
0.0
 10
108.7672953467
 20
111.9669467053
 30
0.0
 10
108.7542620845
 20
111.7775751917
 30
0.0
 10
108.7417845528
 20
111.563993293
 30
0.0
 10
108.7301129789
 20
111.3284118666
 30
0.0
 10
108.7154574249
 20
110.9770717932
 30
0.0
 10
108.7008754513
 20
110.5010879928
 30
0.0
 10
108.6900676833
 20
109.8990199961
 30
0.0
 10
108.6875989644
 20
109.4841907043
 30
0.0
 10
108.6875989834
 20
109.2727951615
 30
0.0
  0
SPLINE
  5
2AF
100
AcDbEntity
  8
0
100
AcDbSpline
 62
7
  6
CONTINUOUS
 70
0
 71
3
 72
20
 73
16
 74
0
 42
0.0000001
 43
0.0000001
 44
0.0000000001
 40
0.0
 40
0.0
 40
0.0
 40
0.0
 40
0.0024015791
 40
0.0066361368
 40
0.0217669026
 40
0.0459574832
 40
0.0790627017
 40
0.1209185769
 40
0.1713136701
 40
0.2297378838
 40
0.2955196497
 40
0.4464599453
 40
0.6186689376
 40
0.8057171079
 40
1.0
 40
1.0
 40
1.0
 40
1.0
 10
94.3393634186
 20
127.5735643736
 30
0.0
 10
94.3367904616
 20
127.5735572867
 30
0.0
 10
94.3306137988
 20
127.5682738368
 30
0.0
 10
94.3209561736
 20
127.5474889021
 30
0.0
 10
94.3088410618
 20
127.5017335423
 30
0.0
 10
94.2952530033
 20
127.4256244435
 30
0.0
 10
94.2808378269
 20
127.320224722
 30
0.0
 10
94.2662935506
 20
127.1867526632
 30
0.0
 10
94.2518504437
 20
127.0259469372
 30
0.0
 10
94.2377721344
 20
126.8394170769
 30
0.0
 10
94.2189217668
 20
126.5452311425
 30
0.0
 10
94.1984221444
 20
126.1290264309
 30
0.0
 10
94.1800689453
 20
125.5827082146
 30
0.0
 10
94.1684212335
 20
124.989762192
 30
0.0
 10
94.165731575
 20
124.5812126581
 30
0.0
 10
94.165731575
 20
124.3730648489
 30
0.0
  0
SPLINE
  5
2B0
100
AcDbEntity
  8
0
100
AcDbSpline
 62
7
  6
CONTINUOUS
 70
0
 71
3
 72
19
 73
15
 74
0
 42
0.0000001
 43
0.0000001
 44
0.0000000001
 40
0.0
 40
0.0
 40
0.0
 40
0.0
 40
0.0129824046
 40
0.0214645383
 40
0.0316899617
 40
0.0578620233
 40
0.0920125091
 40
0.1342300996
 40
0.1844506805
 40
0.2423144206
 40
0.3072421716
 40
0.4558323305
 40
0.6251176292
 40
1.0
 40
1.0
 40
1.0
 40
1.0
 10
93.4636203728
 20
127.5735895622
 30
0.0
 10
93.449420795
 20
127.5736011162
 30
0.0
 10
93.4263685543
 20
127.5623155185
 30
0.0
 10
93.4022284293
 20
127.5376817464
 30
0.0
 10
93.3731708881
 20
127.4978067512
 30
0.0
 10
93.3387886542
 20
127.4283575494
 30
0.0
 10
93.3000930751
 20
127.3229922427
 30
0.0
 10
93.2621480059
 20
127.1897257675
 30
0.0
 10
93.2254394663
 20
127.0294350153
 30
0.0
 10
93.190441698
 20
126.8434260651
 30
0.0
 10
93.1445081512
 20
126.5501425829
 30
0.0
 10
93.0958088201
 20
126.1341261864
 30
0.0
 10
93.0369344981
 20
125.3786021826
 30
0.0
 10
93.0202886312
 20
124.7831297774
 30
0.0
 10
93.0202886312
 20
124.3730999459
 30
0.0
  0
SPLINE
  5
2B1
100
AcDbEntity
  8
0
100
AcDbSpline
 62
7
  6
CONTINUOUS
 70
0
 71
3
 72
17
 73
13
 74
0
 42
0.0000001
 43
0.0000001
 44
0.0000000001
 40
0.0
 40
0.0
 40
0.0
 40
0.0
 40
0.0316849205
 40
0.0581165827
 40
0.0925225826
 40
0.134981928
 40
0.1852866735
 40
0.2430716468
 40
0.3079198482
 40
0.4564455909
 40
0.6256109028
 40
1.0
 40
1.0
 40
1.0
 40
1.0
 10
15.9983980892
 20
126.2836521204
 30
0.0
 10
15.9984781995
 20
126.2565292071
 30
0.0
 10
16.0427386005
 20
126.215982828
 30
0.0
 10
16.1103337121
 20
126.1808344871
 30
0.0
 10
16.1937147524
 20
126.1479409315
 30
0.0
 10
16.2976212906
 20
126.1165460362
 30
0.0
 10
16.4229218255
 20
126.0856700906
 30
0.0
 10
16.5679943649
 20
126.0562282589
 30
0.0
 10
16.7969141242
 20
126.0175353996
 30
0.0
 10
17.1219341176
 20
125.9765039435
 30
0.0
 10
17.7123650974
 20
125.9266114069
 30
0.0
 10
18.177918989
 20
125.9123970582
 30
0.0
 10
18.4984047961
 20
125.9123970582
 30
0.0
  0
SPLINE
  5
2B2
100
AcDbEntity
  8
0
100
AcDbSpline
 62
7
  6
CONTINUOUS
 70
0
 71
3
 72
13
 73
9
 74
0
 42
0.0000001
 43
0.0000001
 44
0.0000000001
 40
0.0
 40
0.0
 40
0.0
 40
0.0
 40
0.3762593773
 40
0.6952777304
 40
0.8180911779
 40
0.9106844979
 40
0.9704331445
 40
1.0
 40
1.0
 40
1.0
 40
1.0
 10
47.7984047961
 20
57.3644351239
 30
0.0
 10
47.7343933089
 20
57.3644351239
 30
0.0
 10
47.6161874754
 20
57.3615993329
 30
0.0
 10
47.4770170259
 20
57.3506220563
 30
0.0
 10
47.3874310166
 20
57.3377501751
 30
0.0
 10
47.3409022066
 20
57.32703933
 30
0.0
 10
47.313021697
 20
57.3183133502
 30
0.0
 10
47.2984047913
 20
57.3071581379
 30
0.0
 10
47.2984047913
 20
57.3021280483
 30
0.0
  0
SPLINE
  5
2B3
100
AcDbEntity
  8
0
100
AcDbSpline
 62
7
  6
CONTINUOUS
 70
0
 71
3
 72
19
 73
15
 74
0
 42
0.0000001
 43
0.0000001
 44
0.0000000001
 40
0.0
 40
0.0
 40
0.0
 40
0.0
 40
0.374894478
 40
0.5441937387
 40
0.6927738695
 40
0.7577011577
 40
0.8155735986
 40
0.865812639
 40
0.9080266289
 40
0.942156233
 40
0.9683092615
 40
0.9785309304
 40
0.9870129327
 40
1.0
 40
1.0
 40
1.0
 40
1.0
 10
93.0202886312
 20
55.5783271955
 30
0.0
 10
93.0202886312
 20
55.1682881077
 30
0.0
 10
93.0369451764
 20
54.5727938539
 30
0.0
 10
93.0957989042
 20
53.8172576556
 30
0.0
 10
93.1445206909
 20
53.4012440311
 30
0.0
 10
93.1904608876
 20
53.107966483
 30
0.0
 10
93.2254632136
 20
52.9219308913
 30
0.0
 10
93.2621513292
 20
52.7616106571
 30
0.0
 10
93.3000908276
 20
52.6283504858
 30
0.0
 10
93.3387910046
 20
52.5230372327
 30
0.0
 10
93.373186563
 20
52.4536492567
 30
0.0
 10
93.4022381996
 20
52.4138026587
 30
0.0
 10
93.4263812418
 20
52.3891702264
 30
0.0
 10
93.449415693
 20
52.3778633126
 30
0.0
 10
93.4636202235
 20
52.3778435135
 30
0.0
  0
SPLINE
  5
2B4
100
AcDbEntity
  8
0
100
AcDbSpline
 62
7
  6
CONTINUOUS
 70
0
 71
3
 72
20
 73
16
 74
0
 42
0.0000001
 43
0.0000001
 44
0.0000000001
 40
0.0
 40
0.0
 40
0.0
 40
0.0
 40
0.194286747
 40
0.3813095628
 40
0.5534896363
 40
0.7044442121
 40
0.7702280649
 40
0.8286415491
 40
0.8790141966
 40
0.9208825722
 40
0.9540235495
 40
0.9782421005
 40
0.9933764291
 40
0.9976048932
 40
1.0
 40
1.0
 40
1.0
 40
1.0
 10
94.165731575
 20
55.5783622926
 30
0.0
 10
94.165731575
 20
55.3702088424
 30
0.0
 10
94.1684205352
 20
54.9616793968
 30
0.0
 10
94.1800652514
 20
54.3687829618
 30
0.0
 10
94.1984272926
 20
53.8225040381
 30
0.0
 10
94.2189106648
 20
53.4063089878
 30
0.0
 10
94.2377567364
 20
53.1121145936
 30
0.0
 10
94.2518335624
 20
52.9256165434
 30
0.0
 10
94.2662888648
 20
52.7648331368
 30
0.0
 10
94.2808365205
 20
52.6313323393
 30
0.0
 10
94.2952529794
 20
52.5258506403
 30
0.0
 10
94.3088265655
 20
52.4496635128
 30
0.0
 10
94.3209543149
 20
52.4038849395
 30
0.0
 10
94.3306016595
 20
52.3831035524
 30
0.0
 10
94.3367973367
 20
52.3778493615
 30
0.0
 10
94.339363359
 20
52.3778615223
 30
0.0
  0
SPLINE
  5
2B5
100
AcDbEntity
  8
0
100
AcDbSpline
 62
7
  6
CONTINUOUS
 70
0
 71
3
 72
21
 73
17
 74
0
 42
0.0000001
 43
0.0000001
 44
0.0000000001
 40
0.0
 40
0.0
 40
0.0
 40
0.0
 40
0.1944034355
 40
0.3815083606
 40
0.5537991025
 40
0.6323658905
 40
0.704906961
 40
0.7707149056
 40
0.8291333992
 40
0.8795286065
 40
0.9213774712
 40
0.9544465357
 40
0.9785644757
 40
0.9935898366
 40
0.9977427196
 40
1.0
 40
1.0
 40
1.0
 40
1.0
 10
108.6875989834
 20
70.67863198
 30
0.0
 10
108.6875989644
 20
70.46724614
 30
0.0
 10
108.6900685827
 20
70.0524059618
 30
0.0
 10
108.7008774934
 20
69.4503123073
 30
0.0
 10
108.7154567489
 20
68.974297806
 30
0.0
 10
108.7301173292
 20
68.6229507383
 30
0.0
 10
108.7417925391
 20
68.3873730804
 30
0.0
 10
108.7542702642
 20
68.1737751631
 30
0.0
 10
108.7673070707
 20
67.9843507719
 30
0.0
 10
108.7806783416
 20
67.821044615
 30
0.0
 10
108.7941208964
 20
67.6855051609
 30
0.0
 10
108.8074674235
 20
67.5784597746
 30
0.0
 10
108.8199801008
 20
67.5013201591
 30
0.0
 10
108.831252398
 20
67.4547821867
 30
0.0
 10
108.8400386815
 20
67.4338408612
 30
0.0
 10
108.8457918528
 20
67.4281936889
 30
0.0
 10
108.8482459351
 20
67.4281501468
 30
0.0
  0
SPLINE
  5
2B6
100
AcDbEntity
  8
0
100
AcDbSpline
 62
7
  6
CONTINUOUS
 70
0
 71
3
 72
21
 73
17
 74
0
 42
0.0000001
 43
0.0000001
 44
0.0000000001
 40
0.0
 40
0.0
 40
0.0
 40
0.0
 40
0.1943962102
 40
0.3815372566
 40
0.5538238568
 40
0.632342984
 40
0.7048447392
 40
0.7706489981
 40
0.8290791949
 40
0.8794652116
 40
0.9213222226
 40
0.9544258589
 40
0.9785830073
 40
0.9936181936
 40
0.997759146
 40
1.0
 40
1.0
 40
1.0
 40
1.0
 10
108.6875989834
 20
109.2727951615
 30
0.0
 10
108.6875990024
 20
109.0614121975
 30
0.0
 10
108.690086428
 20
108.6465309336
 30
0.0
 10
108.7008759691
 20
108.0443960477
 30
0.0
 10
108.7154328374
 20
107.5683864848
 30
0.0
 10
108.7301117421
 20
107.2171310097
 30
0.0
 10
108.7417975725
 20
106.9816470374
 30
0.0
 10
108.7542746561
 20
106.7680781986
 30
0.0
 10
108.7673004631
 20
106.5786497994
 30
0.0
 10
108.7806758957
 20
106.4153285248
 30
0.0
 10
108.7941201489
 20
106.2797492534
 30
0.0
 10
108.8074798961
 20
106.1726132958
 30
0.0
 10
108.8199561924
 20
106.0953754317
 30
0.0
 10
108.8312658071
 20
106.0487982545
 30
0.0
 10
108.8400053382
 20
106.0278686242
 30
0.0
 10
108.8458095909
 20
106.0222740226
 30
0.0
 10
108.8482462436
 20
106.0222816333
 30
0.0
  0
SPLINE
  5
2B7
100
AcDbEntity
  8
0
100
AcDbSpline
 62
7
  6
CONTINUOUS
 70
0
 71
3
 72
19
 73
15
 74
0
 42
0.0000001
 43
0.0000001
 44
0.0000000001
 40
0.0
 40
0.0
 40
0.0
 40
0.0
 40
0.374900363
 40
0.5442346527
 40
0.6928555668
 40
0.7577551324
 40
0.8155964133
 40
0.8658454766
 40
0.9081262717
 40
0.9423036987
 40
0.9684133103
 40
0.9785907627
 40
0.9870334357
 40
1.0
 40
1.0
 40
1.0
 40
1.0
 10
93.0202886312
 20
124.3730999459
 30
0.0
 10
93.0202886312
 20
123.9630779123
 30
0.0
 10
93.0369688318
 20
123.3675731897
 30
0.0
 10
93.0958176561
 20
122.6119922655
 30
0.0
 10
93.1444794956
 20
122.1959419169
 30
0.0
 10
93.1904448975
 20
121.9027051306
 30
0.0
 10
93.2254737239
 20
121.7167396481
 30
0.0
 10
93.2621867589
 20
121.5563849369
 30
0.0
 10
93.3000961905
 20
121.4229831114
 30
0.0
 10
93.3387232506
 20
121.3175712551
 30
0.0
 10
93.3731222695
 20
121.248219654
 30
0.0
 10
93.402217044
 20
121.2085826221
 30
0.0
 10
93.4264190524
 20
121.1841446251
 30
0.0
 10
93.4494389895
 20
121.1730613414
 30
0.0
 10
93.4636202869
 20
121.1730449667
 30
0.0
  0
SPLINE
  5
2B8
100
AcDbEntity
  8
0
100
AcDbSpline
 62
7
  6
CONTINUOUS
 70
0
 71
3
 72
20
 73
16
 74
0
 42
0.0000001
 43
0.0000001
 44
0.0000000001
 40
0.0
 40
0.0
 40
0.0
 40
0.0
 40
0.1943014156
 40
0.3813505694
 40
0.5535996784
 40
0.7045970224
 40
0.770356013
 40
0.8287521763
 40
0.8791645131
 40
0.9210971808
 40
0.9542570973
 40
0.9783963859
 40
0.9934126691
 40
0.9976068878
 40
1.0
 40
1.0
 40
1.0
 40
1.0
 10
94.165731575
 20
124.3730648489
 30
0.0
 10
94.165731575
 20
124.1649222224
 30
0.0
 10
94.1684231601
 20
123.7564009187
 30
0.0
 10
94.1800767758
 20
123.163462393
 30
0.0
 10
94.1984305018
 20
122.6171049995
 30
0.0
 10
94.2189017833
 20
122.2008690875
 30
0.0
 10
94.2377630213
 20
121.9067126779
 30
0.0
 10
94.2518545907
 20
121.7202422251
 30
0.0
 10
94.266307595
 20
121.5593866632
 30
0.0
 10
94.2808416636
 20
121.4257680031
 30
0.0
 10
94.2952222293
 20
121.3202945126
 30
0.0
 10
94.3088066431
 20
121.2443009105
 30
0.0
 10
94.3209197668
 20
121.1988040769
 30
0.0
 10
94.3306323019
 20
121.1781968239
 30
0.0
 10
94.336799813
 20
121.1730292042
 30
0.0
 10
94.3393633817
 20
121.1730194239
 30
0.0
  0
SPLINE
  5
2B9
100
AcDbEntity
  8
0
100
AcDbSpline
 62
7
  6
CONTINUOUS
 70
0
 71
3
 72
17
 73
13
 74
0
 42
0.0000001
 43
0.0000001
 44
0.0000000001
 40
0.0
 40
0.0
 40
0.0
 40
0.0
 40
0.3744853252
 40
0.5436712636
 40
0.6920235271
 40
0.7568570169
 40
0.8147232413
 40
0.8651309117
 40
0.9076342832
 40
0.9420097449
 40
0.9683783862
 40
1.0
 40
1.0
 40
1.0
 40
1.0
 10
18.4984047961
 20
125.9123970582
 30
0.0
 10
18.818952599
 20
125.9123970582
 30
0.0
 10
19.2845687019
 20
125.9266915864
 30
0.0
 10
19.8749348158
 20
125.9763612601
 30
0.0
 10
20.1997721611
 20
126.0175463734
 30
0.0
 10
20.4285753527
 20
126.056281706
 30
0.0
 10
20.5737920323
 20
126.0856916253
 30
0.0
 10
20.6992979794
 20
126.1165105532
 30
0.0
 10
20.8033180056
 20
126.1478659657
 30
0.0
 10
20.886633696
 20
126.1807761373
 30
0.0
 10
20.9540938359
 20
126.2159574698
 30
0.0
 10
20.998054893
 20
126.2565847974
 30
0.0
 10
20.9980853944
 20
126.2836518992
 30
0.0
  0
SPLINE
  5
2BA
100
AcDbEntity
  8
0
100
AcDbSpline
 62
7
  6
CONTINUOUS
 70
0
 71
3
 72
13
 73
9
 74
0
 42
0.0000001
 43
0.0000001
 44
0.0000000001
 40
0.0
 40
0.0
 40
0.0
 40
0.0
 40
0.0295651753
 40
0.0893121292
 40
0.1819058671
 40
0.3047213989
 40
0.6237478619
 40
1.0
 40
1.0
 40
1.0
 40
1.0
 10
47.2984047913
 20
122.6492990932
 30
0.0
 10
47.2984047913
 20
122.6442692872
 30
0.0
 10
47.313020097
 20
122.6331136499
 30
0.0
 10
47.3409009707
 20
122.6243885133
 30
0.0
 10
47.387429544
 20
122.6136772686
 30
0.0
 10
47.4770175195
 20
122.6008049065
 30
0.0
 10
47.6161884472
 20
122.589827796
 30
0.0
 10
47.7343945122
 20
122.5869920175
 30
0.0
 10
47.7984047961
 20
122.5869920175
 30
0.0
  0
SPLINE
  5
2BB
100
AcDbEntity
  8
0
100
AcDbSpline
 62
7
  6
CONTINUOUS
 70
0
 71
3
 72
21
 73
17
 74
0
 42
0.0000001
 43
0.0000001
 44
0.0000000001
 40
0.0
 40
0.0
 40
0.0
 40
0.0
 40
0.1946039292
 40
0.3818803395
 40
0.5542966978
 40
0.6329157401
 40
0.7054909265
 40
0.7713075279
 40
0.8297013556
 40
0.8800269408
 40
0.9218066804
 40
0.9548083401
 40
0.978834958
 40
0.9937251776
 40
0.9977987189
 40
1.0
 40
1.0
 40
1.0
 40
1.0
 10
108.9334247883
 20
109.2727876286
 30
0.0
 10
108.9334247883
 20
109.4841196591
 30
0.0
 10
108.9328491586
 20
109.8988266596
 30
0.0
 10
108.9301180839
 20
110.5007653731
 30
0.0
 10
108.9259113524
 20
110.9767384517
 30
0.0
 10
108.9209788735
 20
111.3281330017
 30
0.0
 10
108.91664161
 20
111.5637583658
 30
0.0
 10
108.9114928868
 20
111.7774013608
 30
0.0
 10
108.9055054732
 20
111.9668410547
 30
0.0
 10
108.8986191317
 20
112.1301576461
 30
0.0
 10
108.8908809835
 20
112.2657442366
 30
0.0
 10
108.8822192397
 20
112.3728723699
 30
0.0
 10
108.8732537267
 20
112.4501010261
 30
0.0
 10
108.8639931836
 20
112.4966511897
 30
0.0
 10
108.856271695
 20
112.5176907704
 30
0.0
 10
108.8506367563
 20
112.5233134968
 30
0.0
 10
108.8482462703
 20
112.5233224174
 30
0.0
  0
SPLINE
  5
2BC
100
AcDbEntity
  8
0
100
AcDbSpline
 62
7
  6
CONTINUOUS
 70
0
 71
3
 72
17
 73
13
 74
0
 42
0.0000001
 43
0.0000001
 44
0.0000000001
 40
0.0
 40
0.0
 40
0.0
 40
0.0
 40
0.0301182239
 40
0.0558923663
 40
0.089701245
 40
0.1316781731
 40
0.1817801521
 40
0.2396301781
 40
0.3046406716
 40
0.4536488156
 40
0.6235907845
 40
1.0
 40
1.0
 40
1.0
 40
1.0
 10
93.4636202235
 20
52.3778435135
 30
0.0
 10
93.496388569
 20
52.377797839
 30
0.0
 10
93.5433592984
 20
52.4367060469
 30
0.0
 10
93.5804667011
 20
52.5220801878
 30
0.0
 10
93.6149412176
 20
52.6289211423
 30
0.0
 10
93.6462828342
 20
52.7617366362
 30
0.0
 10
93.6759978148
 20
52.9223814382
 30
0.0
 10
93.7032492953
 20
53.1085459073
 30
0.0
 10
93.7379939965
 20
53.4023433751
 30
0.0
 10
93.7729768147
 20
53.8187209289
 30
0.0
 10
93.8133817362
 20
54.5742520792
 30
0.0
 10
93.8240282298
 20
55.1688217244
 30
0.0
 10
93.8240282298
 20
55.5783518226
 30
0.0
  0
SPLINE
  5
2BD
100
AcDbEntity
  8
0
100
AcDbSpline
 62
7
  6
CONTINUOUS
 70
0
 71
3
 72
21
 73
17
 74
0
 42
0.0000001
 43
0.0000001
 44
0.0000000001
 40
0.0
 40
0.0
 40
0.0
 40
0.0
 40
0.0022012074
 40
0.0062756443
 40
0.021163668
 40
0.0451706075
 40
0.078140955
 40
0.1199100216
 40
0.1702663586
 40
0.2286956522
 40
0.2945199301
 40
0.3670587332
 40
0.445634403
 40
0.6180933919
 40
0.8054254818
 40
1.0
 40
1.0
 40
1.0
 40
1.0
 10
108.8482462436
 20
106.0222816333
 30
0.0
 10
108.8506366331
 20
106.0222890995
 30
0.0
 10
108.8562721961
 20
106.027915449
 30
0.0
 10
108.8639884822
 20
106.0489524742
 30
0.0
 10
108.8732486546
 20
106.0954803608
 30
0.0
 10
108.8822152568
 20
106.1726494566
 30
0.0
 10
108.8908818138
 20
106.279709329
 30
0.0
 10
108.8986195846
 20
106.4152824596
 30
0.0
 10
108.9054990049
 20
106.5786583247
 30
0.0
 10
108.911484877
 20
106.7681766135
 30
0.0
 10
108.9166347825
 20
106.9818250115
 30
0.0
 10
108.9209783693
 20
107.2173698593
 30
0.0
 10
108.9259203024
 20
107.5687208342
 30
0.0
 10
108.9301196597
 20
108.0447494298
 30
0.0
 10
108.9328427642
 20
108.6467576036
 30
0.0
 10
108.9334247883
 20
109.0614894222
 30
0.0
 10
108.9334247883
 20
109.2727876286
 30
0.0
  0
SPLINE
  5
2BE
100
AcDbEntity
  8
0
100
AcDbSpline
 62
7
  6
CONTINUOUS
 70
0
 71
3
 72
13
 73
9
 74
0
 42
0.0000001
 43
0.0000001
 44
0.0000000001
 40
0.0
 40
0.0
 40
0.0
 40
0.0
 40
0.02929376
 40
0.088730314
 40
0.1811461518
 40
0.3039359931
 40
0.6232580894
 40
1.0
 40
1.0
 40
1.0
 40
1.0
 10
47.2984047913
 20
57.3021280483
 30
0.0
 10
47.2984047913
 20
57.2971531971
 30
0.0
 10
47.3130709299
 20
57.2861890278
 30
0.0
 10
47.3409559819
 20
57.2781410754
 30
0.0
 10
47.3875016886
 20
57.2682865094
 30
0.0
 10
47.4771455938
 20
57.2569530152
 30
0.0
 10
47.6163000821
 20
57.2476439179
 30
0.0
 10
47.734424108
 20
57.2453123179
 30
0.0
 10
47.7984047961
 20
57.2453123179
 30
0.0
  0
SPLINE
  5
2BF
100
AcDbEntity
  8
0
100
AcDbSpline
 62
7
  6
CONTINUOUS
 70
0
 71
3
 72
17
 73
13
 74
0
 42
0.0000001
 43
0.0000001
 44
0.0000000001
 40
0.0
 40
0.0
 40
0.0
 40
0.0
 40
0.3764041725
 40
0.5463338864
 40
0.6953328642
 40
0.7603402074
 40
0.8181882124
 40
0.8682901637
 40
0.9102762805
 40
0.944095227
 40
0.9698708333
 40
1.0
 40
1.0
 40
1.0
 40
1.0
 10
93.8240282298
 20
124.3730753189
 30
0.0
 10
93.8240282298
 20
124.7825993308
 30
0.0
 10
93.8133788589
 20
125.3771491792
 30
0.0
 10
93.7729812127
 20
126.1326506853
 30
0.0
 10
93.7380039029
 20
126.5490013439
 30
0.0
 10
93.7032644835
 20
126.8427831088
 30
0.0
 10
93.6760162086
 20
127.0289424807
 30
0.0
 10
93.6462975641
 20
127.1895931368
 30
0.0
 10
93.6149539776
 20
127.3224324316
 30
0.0
 10
93.5804895933
 20
127.4292910006
 30
0.0
 10
93.5433555452
 20
127.5147097651
 30
0.0
 10
93.4964005968
 20
127.5735628893
 30
0.0
 10
93.4636203728
 20
127.5735895622
 30
0.0
  0
SPLINE
  5
2C0
100
AcDbEntity
  8
0
100
AcDbSpline
 62
7
  6
CONTINUOUS
 70
0
 71
3
 72
20
 73
16
 74
0
 42
0.0000001
 43
0.0000001
 44
0.0000000001
 40
0.0
 40
0.0
 40
0.0
 40
0.0
 40
0.1945063253
 40
0.3817563928
 40
0.5541345785
 40
0.7051950322
 40
0.7709895237
 40
0.829386759
 40
0.8797155251
 40
0.9214914545
 40
0.9544964342
 40
0.9785504441
 40
0.9935081202
 40
0.9976534593
 40
1.0
 40
1.0
 40
1.0
 40
1.0
 10
94.4317851496
 20
124.3730566969
 30
0.0
 10
94.4317851496
 20
124.5811195641
 30
0.0
 10
94.4311476372
 20
124.9894835804
 30
0.0
 10
94.4281819761
 20
125.5822339744
 30
0.0
 10
94.4228198777
 20
126.1284925069
 30
0.0
 10
94.4157229547
 20
126.5448001497
 30
0.0
 10
94.4079021823
 20
126.8391373591
 30
0.0
 10
94.4013990877
 20
127.0257055999
 30
0.0
 10
94.3939322719
 20
127.1865450657
 30
0.0
 10
94.3855264775
 20
127.3200727242
 30
0.0
 10
94.3761665266
 20
127.4255206596
 30
0.0
 10
94.3663695138
 20
127.5016746741
 30
0.0
 10
94.3564570755
 20
127.5473998475
 30
0.0
 10
94.3479038701
 20
127.5683104484
 30
0.0
 10
94.3418734971
 20
127.5735712874
 30
0.0
 10
94.3393634186
 20
127.5735643736
 30
0.0
  0
SPLINE
  5
2C1
100
AcDbEntity
  8
0
100
AcDbSpline
 62
7
  6
CONTINUOUS
 70
0
 71
3
 72
17
 73
13
 74
0
 42
0.0000001
 43
0.0000001
 44
0.0000000001
 40
0.0
 40
0.0
 40
0.0
 40
0.0
 40
0.0299883979
 40
0.0557143058
 40
0.0895974713
 40
0.1316744572
 40
0.1817918529
 40
0.2395784258
 40
0.3045368092
 40
0.4536326889
 40
0.6236241592
 40
1.0
 40
1.0
 40
1.0
 40
1.0
 10
93.4636202869
 20
121.1730449667
 30
0.0
 10
93.4962453062
 20
121.1730072958
 30
0.0
 10
93.5435099663
 20
121.2311181735
 30
0.0
 10
93.5805282797
 20
121.3165533489
 30
0.0
 10
93.6149406603
 20
121.4235075723
 30
0.0
 10
93.6462346088
 20
121.5565514068
 30
0.0
 10
93.6759778858
 20
121.7172305442
 30
0.0
 10
93.7032734906
 20
121.9032685207
 30
0.0
 10
93.7380543079
 20
122.197012118
 30
0.0
 10
93.7729367727
 20
122.6134655402
 30
0.0
 10
93.8133729963
 20
123.36905744
 30
0.0
 10
93.8240282298
 20
123.9636077207
 30
0.0
 10
93.8240282298
 20
124.3730753189
 30
0.0
  0
SPLINE
  5
2C2
100
AcDbEntity
  8
0
100
AcDbSpline
 62
7
  6
CONTINUOUS
 70
0
 71
3
 72
21
 73
17
 74
0
 42
0.0000001
 43
0.0000001
 44
0.0000000001
 40
0.0
 40
0.0
 40
0.0
 40
0.0
 40
0.0021814451
 40
0.0062359957
 40
0.0211210458
 40
0.0451721506
 40
0.0781998541
 40
0.1199872912
 40
0.1702958593
 40
0.2286797226
 40
0.2944943735
 40
0.3670750166
 40
0.4457031616
 40
0.6181220365
 40
0.8053880829
 40
1.0
 40
1.0
 40
1.0
 40
1.0
 10
108.8482459351
 20
67.4281501468
 30
0.0
 10
108.8506145337
 20
67.4281081214
 30
0.0
 10
108.8563107446
 20
67.433641099
 30
0.0
 10
108.8639730518
 20
67.454665695
 30
0.0
 10
108.8732746449
 20
67.5011903901
 30
0.0
 10
108.8822066315
 20
67.5784846533
 30
0.0
 10
108.8908790604
 20
67.6856702024
 30
0.0
 10
108.8986117065
 20
67.8212780933
 30
0.0
 10
108.9055056712
 20
67.9845732329
 30
0.0
 10
108.9114921044
 20
68.173982622
 30
0.0
 10
108.9166417043
 20
68.387619369
 30
0.0
 10
108.9209791931
 20
68.6232594376
 30
0.0
 10
108.925910851
 20
68.9746739941
 30
0.0
 10
108.9301179632
 20
69.4506504158
 30
0.0
 10
108.9328489818
 20
70.0525917843
 30
0.0
 10
108.9334247883
 20
70.467297929
 30
0.0
 10
108.9334247883
 20
70.6786395128
 30
0.0
  0
SPLINE
  5
2C3
100
AcDbEntity
  8
0
100
AcDbSpline
 62
7
  6
CONTINUOUS
 70
0
 71
3
 72
20
 73
16
 74
0
 42
0.0000001
 43
0.0000001
 44
0.0000000001
 40
0.0
 40
0.0
 40
0.0
 40
0.0
 40
0.0023343814
 40
0.0064296335
 40
0.0212514432
 40
0.0452482225
 40
0.0783231609
 40
0.1201978038
 40
0.1705468856
 40
0.2288847254
 40
0.2946338355
 40
0.4458029093
 40
0.6182521853
 40
0.8054819611
 40
1.0
 40
1.0
 40
1.0
 40
1.0
 10
94.3393633817
 20
121.1730194239
 30
0.0
 10
94.3418601372
 20
121.1730098985
 30
0.0
 10
94.3478852276
 20
121.1781259195
 30
0.0
 10
94.3564976867
 20
121.1988333886
 30
0.0
 10
94.3663985189
 20
121.2442569147
 30
0.0
 10
94.3761896714
 20
121.3202871376
 30
0.0
 10
94.3855200409
 20
121.4258377744
 30
0.0
 10
94.3939182617
 20
121.5595541293
 30
0.0
 10
94.4013891043
 20
121.7204364668
 30
0.0
 10
94.407904639
 20
121.9068911735
 30
0.0
 10
94.4157345909
 20
122.2011959261
 30
0.0
 10
94.4228111235
 20
122.6175964573
 30
0.0
 10
94.4281792013
 20
123.1639580733
 30
0.0
 10
94.4311499481
 20
123.7567023597
 30
0.0
 10
94.4317851496
 20
124.1650069191
 30
0.0
 10
94.4317851496
 20
124.3730566969
 30
0.0
  0
SPLINE
  5
2C4
100
AcDbEntity
  8
0
100
AcDbSpline
 62
7
  6
CONTINUOUS
 70
0
 71
3
 72
17
 73
13
 74
0
 42
0.0000001
 43
0.0000001
 44
0.0000000001
 40
0.0
 40
0.0
 40
0.0
 40
0.0
 40
0.3763894385
 40
0.5463789768
 40
0.6954763645
 40
0.7604339706
 40
0.8182192462
 40
0.8683318197
 40
0.9104088055
 40
0.9442925712
 40
0.9700156823
 40
1.0
 40
1.0
 40
1.0
 40
1.0
 10
93.8240282298
 20
55.5783518226
 30
0.0
 10
93.8240282298
 20
55.9878315901
 30
0.0
 10
93.8133737881
 20
56.5823908796
 30
0.0
 10
93.7729319934
 20
57.3379919042
 30
0.0
 10
93.7380538454
 20
57.7544416912
 30
0.0
 10
93.7032730507
 20
58.0481827687
 30
0.0
 10
93.6759805611
 20
58.23421237
 30
0.0
 10
93.6462314881
 20
58.3948829535
 30
0.0
 10
93.6149390677
 20
58.5279203624
 30
0.0
 10
93.5805297976
 20
58.6348751073
 30
0.0
 10
93.5435107655
 20
58.720294982
 30
0.0
 10
93.4962406018
 20
58.7784115198
 30
0.0
 10
93.4636202618
 20
58.7783526825
 30
0.0
  0
SPLINE
  5
2C5
100
AcDbEntity
  8
0
100
AcDbSpline
 62
7
  6
CONTINUOUS
 70
0
 71
3
 72
20
 73
16
 74
0
 42
0.0000001
 43
0.0000001
 44
0.0000000001
 40
0.0
 40
0.0
 40
0.0
 40
0.0
 40
0.1945276773
 40
0.3817581954
 40
0.5542051694
 40
0.705376366
 40
0.7711250458
 40
0.8294620593
 40
0.8798071541
 40
0.9216822269
 40
0.9547582327
 40
0.9787524565
 40
0.9935729971
 40
0.9976669381
 40
1.0
 40
1.0
 40
1.0
 40
1.0
 10
94.4317851496
 20
55.5783704446
 30
0.0
 10
94.4317851496
 20
55.786429263
 30
0.0
 10
94.4311501506
 20
56.1947424364
 30
0.0
 10
94.4281788663
 20
56.7874917501
 30
0.0
 10
94.4228104453
 20
57.3338506281
 30
0.0
 10
94.4157346129
 20
57.7502479895
 30
0.0
 10
94.4079047439
 20
58.0445518607
 30
0.0
 10
94.4013902205
 20
58.2309998855
 30
0.0
 10
94.3939173848
 20
58.391876383
 30
0.0
 10
94.3855197311
 20
58.5255894714
 30
0.0
 10
94.3761905842
 20
58.6311379076
 30
0.0
 10
94.3663984081
 20
58.7071658717
 30
0.0
 10
94.3564962492
 20
58.7525809918
 30
0.0
 10
94.3478885431
 20
58.7732875234
 30
0.0
 10
94.341858659
 20
58.778396168
 30
0.0
 10
94.3393633488
 20
58.7783825685
 30
0.0
  0
SPLINE
  5
2C6
100
AcDbEntity
  8
0
100
AcDbSpline
 62
7
  6
CONTINUOUS
 70
0
 71
3
 72
20
 73
16
 74
0
 42
0.0000001
 43
0.0000001
 44
0.0000000001
 40
0.0
 40
0.0
 40
0.0
 40
0.0
 40
0.0023530389
 40
0.0065046372
 40
0.0214616455
 40
0.0454980065
 40
0.0784813641
 40
0.1202503691
 40
0.1705931418
 40
0.228999221
 40
0.2947963052
 40
0.4458537377
 40
0.6182435029
 40
0.8055000198
 40
1.0
 40
1.0
 40
1.0
 40
1.0
 10
94.339363359
 20
52.3778615223
 30
0.0
 10
94.3418803545
 20
52.3778734508
 30
0.0
 10
94.347892398
 20
52.3831618991
 30
0.0
 10
94.356460148
 20
52.4040779141
 30
0.0
 10
94.3663621846
 20
52.4497950978
 30
0.0
 10
94.376168386
 20
52.5259021244
 30
0.0
 10
94.3855272598
 20
52.6313010569
 30
0.0
 10
94.3939334539
 20
52.7648118629
 30
0.0
 10
94.401394914
 20
52.9256678294
 30
0.0
 10
94.407899667
 20
53.1122620251
 30
0.0
 10
94.4157214988
 20
53.4066064511
 30
0.0
 10
94.4228206811
 20
53.8229234314
 30
0.0
 10
94.428182361
 20
54.3691947094
 30
0.0
 10
94.4311475059
 20
54.96195399
 30
0.0
 10
94.4317851496
 20
55.3703156317
 30
0.0
 10
94.4317851496
 20
55.5783704446
 30
0.0
  0
SPLINE
  5
2C7
100
AcDbEntity
  8
0
100
AcDbSpline
 62
7
  6
CONTINUOUS
 70
0
 71
3
 72
17
 73
13
 74
0
 42
0.0000001
 43
0.0000001
 44
0.0000000001
 40
0.0
 40
0.0
 40
0.0
 40
0.0
 40
0.375901426
 40
0.5456979614
 40
0.6945304353
 40
0.7593823605
 40
0.8170674936
 40
0.8671613834
 40
0.909296268
 40
0.9432734961
 40
0.9691868677
 40
1.0
 40
1.0
 40
1.0
 40
1.0
 10
18.4984047961
 20
126.5747085393
 30
0.0
 10
18.1784144319
 20
126.5747085393
 30
0.0
 10
17.7137669529
 20
126.5662971105
 30
0.0
 10
17.1233524344
 20
126.5343507811
 30
0.0
 10
16.7980110407
 20
126.5065274802
 30
0.0
 10
16.5686491963
 20
126.4786669924
 30
0.0
 10
16.4233627839
 20
126.456690255
 30
0.0
 10
16.2978517618
 20
126.4326820036
 30
0.0
 10
16.1937699225
 20
126.4073720948
 30
0.0
 10
16.1102730372
 20
126.3793502934
 30
0.0
 10
16.0426254542
 20
126.3489636834
 30
0.0
 10
15.9983206165
 20
126.3098820353
 30
0.0
 10
15.9983980892
 20
126.2836521204
 30
0.0
  0
SPLINE
  5
2C8
100
AcDbEntity
  8
0
100
AcDbSpline
 62
7
  6
CONTINUOUS
 70
0
 71
3
 72
13
 73
9
 74
0
 42
0.0000001
 43
0.0000001
 44
0.0000000001
 40
0.0
 40
0.0
 40
0.0
 40
0.0
 40
0.3767391897
 40
0.6960591261
 40
0.8188500374
 40
0.9112672065
 40
0.9707052823
 40
1.0
 40
1.0
 40
1.0
 40
1.0
 10
47.7984047961
 20
122.7061148236
 30
0.0
 10
47.734424592
 20
122.7061148236
 30
0.0
 10
47.6163014553
 20
122.7037832984
 30
0.0
 10
47.4771475932
 20
122.694474264
 30
0.0
 10
47.3875037664
 20
122.6831409714
 30
0.0
 10
47.340957168
 20
122.6732864712
 30
0.0
 10
47.3130720099
 20
122.6652380266
 30
0.0
 10
47.2984047913
 20
122.6542741053
 30
0.0
 10
47.2984047913
 20
122.6492990932
 30
0.0
  0
SPLINE
  5
2C9
100
AcDbEntity
  8
0
100
AcDbSpline
 62
7
  6
CONTINUOUS
 70
0
 71
3
 72
17
 73
13
 74
0
 42
0.0000001
 43
0.0000001
 44
0.0000000001
 40
0.0
 40
0.0
 40
0.0
 40
0.0
 40
0.0307893658
 40
0.0566376895
 40
0.0905612901
 40
0.1326990161
 40
0.1828578092
 40
0.2406127691
 40
0.3054847295
 40
0.4542612431
 40
0.6240594965
 40
1.0
 40
1.0
 40
1.0
 40
1.0
 10
20.9980853944
 20
126.2836518992
 30
0.0
 10
20.9981149271
 20
126.3098592792
 30
0.0
 10
20.9540561362
 20
126.34893974
 30
0.0
 10
20.8865285804
 20
126.379398923
 30
0.0
 10
20.8031606443
 20
126.4074292987
 30
0.0
 10
20.6990685766
 20
126.4327315369
 30
0.0
 10
20.5734451095
 20
126.4567058083
 30
0.0
 10
20.4280357407
 20
126.4786605962
 30
0.0
 10
20.198666929
 20
126.5065222493
 30
0.0
 10
19.8733880659
 20
126.5343866476
 30
0.0
 10
19.2830379091
 20
126.5662938384
 30
0.0
 10
18.8183991083
 20
126.5747085393
 30
0.0
 10
18.4984047961
 20
126.5747085393
 30
0.0
  0
SPLINE
  5
2CA
100
AcDbEntity
  8
0
100
AcDbSpline
 62
7
  6
CONTINUOUS
 70
0
 71
3
 72
21
 73
17
 74
0
 42
0.0000001
 43
0.0000001
 44
0.0000000001
 40
0.0
 40
0.0
 40
0.0
 40
0.0
 40
0.1945781023
 40
0.3818855408
 40
0.5543167092
 40
0.6328974399
 40
0.7054454636
 40
0.7712721014
 40
0.8296910975
 40
0.8800254298
 40
0.9218069719
 40
0.9548127191
 40
0.9788471313
 40
0.9937380397
 40
0.9978058593
 40
1.0
 40
1.0
 40
1.0
 40
1.0
 10
108.9334247883
 20
70.6786395128
 30
0.0
 10
108.9334247883
 20
70.8899429738
 30
0.0
 10
108.932843123
 20
71.3046545884
 30
0.0
 10
108.9301197533
 20
71.9066135557
 30
0.0
 10
108.9259196086
 20
72.3825937206
 30
0.0
 10
108.9209804308
 20
72.7339322891
 30
0.0
 10
108.9166388692
 20
72.9694967784
 30
0.0
 10
108.9114907708
 20
73.1831479602
 30
0.0
 10
108.9055078155
 20
73.3726351323
 30
0.0
 10
108.8986197685
 20
73.5359899445
 30
0.0
 10
108.8908827258
 20
73.6715925575
 30
0.0
 10
108.8822150369
 20
73.7787340006
 30
0.0
 10
108.8732607154
 20
73.855978999
 30
0.0
 10
108.8639840913
 20
73.9025274683
 30
0.0
 10
108.8562865284
 20
73.9235608124
 30
0.0
 10
108.8506289757
 20
73.9291581945
 30
0.0
 10
108.8482462641
 20
73.9291460457
 30
0.0
  0
ENDSEC
  0
SECTION
  2
OBJECTS
  0
DICTIONARY
  5
C
100
AcDbDictionary
280
0
281
1
  3
ACAD_GROUP
350
D
  3
ACAD_MLINESTYLE
350
17
  3
ACAD_LAYOUT
350
1A
  3
ACAD_PLOTSETTINGS
350
19
  3
ACAD_PLOTSTYLENAME
350
E
  0
DICTIONARY
  5
D
102
{ACAD_REACTORS
330
C
102
}
100
AcDbDictionary
280
0
281
1
  0
ACDBDICTIONARYWDFLT
  5
E
102
{ACAD_REACTORS
330
C
102
}
100
AcDbDictionary
281
1
  3
Normal
350
F
100
AcDbDictionaryWithDefault
340
F
  0
DICTIONARY
  5
17
102
{ACAD_REACTORS
330
C
102
}
100
AcDbDictionary
280
0
281
1
  3
Standard
350
18
  0
DICTIONARY
  5
19
102
{ACAD_REACTORS
330
C
102
}
100
AcDbDictionary
281
1
  0
DICTIONARY
  5
1A
102
{ACAD_REACTORS
330
C
102
}
100
AcDbDictionary
281
1
  3
Model
350
2CB
  3
Layout1
350
2CC
  0
ACDBPLACEHOLDER
  5
F
102
{ACAD_REACTORS
330
E
102
}
  0
MLINESTYLE
  5
18
102
{ACAD_REACTORS
330
17
102
}
100
AcDbMlineStyle
  2
STANDARD
 70
0
  3

 62
256
 51
90.0
 52
90.0
 71
2
 49
0.5
 62
256
  6
BYLAYER
 49
-0.5
 62
256
  6
BYLAYER
  0
LAYOUT
  5
2CB
102
{ACAD_REACTORS
330
1A
102
}
100
AcDbPlotSettings
  1

  2
none_device
  4

  6

 40
0.0
 41
0.0
 42
0.0
 43
0.0
 44
210.0
 45
297.0
 46
0.0
 47
0.0
 48
0.0
 49
0.0
140
0.0
141
0.0
142
1.0
143
1.0
 70
1024
 72
1
 73
0
 74
0
  7

 75
0
147
1.0
148
0.0
149
0.0
100
AcDbLayout
  1
Model
 70
0
 71
0
 10
0.0
 20
0.0
 11
210.0
 21
297.0
 12
0.0
 22
0.0
 32
0.0
 14
0.0
 24
0.0
 34
0.0
 15
0.0
 25
0.0
 35
0.0
146
0.0
 13
0.0
 23
0.0
 33
0.0
 16
1.0
 26
0.0
 36
0.0
 17
0.0
 27
1.0
 37
0.0
 76
0
330
213
345
0
346
0
  0
LAYOUT
  5
2CC
102
{ACAD_REACTORS
330
1A
102
}
100
AcDbPlotSettings
  1

  2
none_device
  4

  6

 40
0.0
 41
0.0
 42
0.0
 43
0.0
 44
210.0
 45
297.0
 46
0.0
 47
0.0
 48
0.0
 49
0.0
140
0.0
141
0.0
142
1.0
143
1.0
 70
0
 72
1
 73
0
 74
0
  7

 75
0
147
1.0
148
0.0
149
0.0
100
AcDbLayout
  1
Layout1
 70
0
 71
1
 10
0.0
 20
0.0
 11
210.0
 21
297.0
 12
0.0
 22
0.0
 32
0.0
 14
0.0
 24
0.0
 34
0.0
 15
0.0
 25
0.0
 35
0.0
146
0.0
 13
0.0
 23
0.0
 33
0.0
 16
1.0
 26
0.0
 36
0.0
 17
0.0
 27
1.0
 37
0.0
 76
0
330
214
345
0
346
0
  0
ENDSEC
  0
EOF
