999
DXF file: C:\Users\sesa63760\Dev\_Creo\CAD\MCADID0004931_3D-CAD\drw0001_3.dxf
999
Pro/ENGINEER 2019471 by Parametric Technology Corporation
  0
SECTION
  2
HEADER
  9
$ACADVER
  1
AC1024
  9
$DWGCODEPAGE
  3
ANSI_1252
  9
$EXTMAX
 10
430.3202818707
 20
608.5958272171
 30
0.0
  9
$EXTMIN
 10
0.0
 20
0.0
 30
0.0
  9
$LIMMIN
 10
0.0
 20
0.0
  9
$LIMMAX
 10
430.3202818707
 20
608.5958272171
  9
$VIEWCTR
 10
215.1601409353
 20
304.2979136085
  9
$VIEWSIZE
 40
608.5958272171
  9
$CLAYER
  8
0
  9
$LTSCALE
 40
39.6714317001
  9
$CELTYPE
  6
BYLAYER
  9
$DIMSCALE
 40
1.0
  9
$DIMASZ
 40
5.1228604985
  9
$DIMEXO
 40
1.0
  9
$DIMDLI
 40
27.409352811
  9
$DIMEXE
 40
1.0
  9
$DIMCEN
 40
6.4916888236
  9
$DIMLFAC
 40
1.0
  9
$DIMBLK
  1
_FILLED
  9
$DIMALT
 70
0
  9
$DIMALTF
 40
0.0393700787
  9
$DIMTXT
 40
7.1720046978
  9
$DIMTOL
 70
1
  9
$DIMLIM
 70
0
  9
$DIMTFAC
 40
1.0
  9
$DIMTP
 40
0.01
  9
$DIMTM
 40
0.01
  9
$DIMGAP
 40
0.625
  9
$DIMDSEP
 70
46
  9
$AUNITS
 70
0
  9
$PDMODE
 70
3
  9
$PDSIZE
 40
0.3125
  9
$HANDSEED
  5
31B
  9
$TILEMODE
 70
1
  9
$MEASUREMENT
 70
1
  9
$INSUNITS
 70
4
  0
ENDSEC
  0
SECTION
  2
CLASSES
  0
CLASS
  1
ACDBDICTIONARYWDFLT
  2
AcDbDictionaryWithDefault
  3
AutoCAD 2000
 90
0
 91
1
280
0
281
0
  0
CLASS
  1
ACDBPLACEHOLDER
  2
AcDbPlaceHolder
  3
AutoCAD 2000
 90
0
 91
1
280
0
281
0
  0
CLASS
  1
LAYOUT
  2
AcDbLayout
  3
AutoCAD 2000
 90
0
 91
0
280
0
281
0
  0
ENDSEC
  0
SECTION
  2
TABLES
  0
TABLE
  2
VPORT
  5
8
100
AcDbSymbolTable
 70
2
  0
VPORT
  5
1F4
100
AcDbSymbolTableRecord
100
AcDbViewportTableRecord
  2
*ACTIVE
 70
0
 10
0.0
 20
0.0
 11
1.0
 21
1.0
 12
215.1601409353
 22
304.2979136085
 13
0.0
 23
0.0
 14
1.0
 24
1.0
 15
0.0
 25
0.0
 16
0.0
 26
0.0
 36
1.0
 17
0.0
 27
0.0
 37
0.0
 40
608.5958272171
 41
0.7070707071
 42
50.0
 43
0.0
 44
0.0
 50
0.0
 51
0.0
 71
0
 72
100
 73
1
 74
1
 75
0
 76
0
 77
0
 78
0
  0
ENDTAB
  0
TABLE
  2
LTYPE
  5
5
100
AcDbSymbolTable
 70
6
  0
LTYPE
  5
14
100
AcDbSymbolTableRecord
100
AcDbLinetypeTableRecord
  2
BYBLOCK
 70
0
  3

 72
65
 73
0
 40
0.0
  0
LTYPE
  5
15
100
AcDbSymbolTableRecord
100
AcDbLinetypeTableRecord
  2
BYLAYER
 70
0
  3

 72
65
 73
0
 40
0.0
  0
LTYPE
  5
16
100
AcDbSymbolTableRecord
100
AcDbLinetypeTableRecord
  2
CONTINUOUS
 70
64
  3
Solid line
 72
65
 73
0
 40
0.0
  0
LTYPE
  5
1F5
100
AcDbSymbolTableRecord
100
AcDbLinetypeTableRecord
  2
CENTER
 70
64
  3
____ _ ____ _ ____ _ ____ _ ____ _ ____ _ ____
 72
65
 73
4
 40
0.6
 49
0.375
 74
0
 49
-0.075
 74
0
 49
0.075
 74
0
 49
-0.075
 74
0
  0
LTYPE
  5
1F6
100
AcDbSymbolTableRecord
100
AcDbLinetypeTableRecord
  2
HIDDEN
 70
64
  3
- - - - - - - - - - - - - - - - - - - -
 72
65
 73
2
 40
0.2
 49
0.1
 74
0
 49
-0.1
 74
0
  0
LTYPE
  5
1F7
100
AcDbSymbolTableRecord
100
AcDbLinetypeTableRecord
  2
PHANTOM
 70
64
  3
_____ _ _ _____ _ _ _____ _ _ _____
 72
65
 73
6
 40
0.8
 49
0.45
 74
0
 49
-0.05
 74
0
 49
0.1
 74
0
 49
-0.05
 74
0
 49
0.1
 74
0
 49
-0.05
 74
0
  0
LTYPE
  5
1F8
100
AcDbSymbolTableRecord
100
AcDbLinetypeTableRecord
  2
DOT
 70
64
  3
. . . . . . . . . . . . . . . . . . . .
 72
65
 73
2
 40
0.2
 49
0.1
 74
0
 49
-0.1
 74
0
  0
LTYPE
  5
1F9
100
AcDbSymbolTableRecord
100
AcDbLinetypeTableRecord
  2
DASHED
 70
64
  3
- - - - - - - - - - - - - - - - - - - -
 72
65
 73
2
 40
0.2
 49
0.1
 74
0
 49
-0.1
 74
0
  0
ENDTAB
  0
TABLE
  2
LAYER
  5
2
100
AcDbSymbolTable
 70
36
  0
LAYER
  5
10
100
AcDbSymbolTableRecord
100
AcDbLayerTableRecord
  2
0
 70
0
 62
7
  6
CONTINUOUS
370
-3
390
F
  0
LAYER
  5
1FA
100
AcDbSymbolTableRecord
100
AcDbLayerTableRecord
  2
DEFAULT_1
 70
0
 62
7
  6
CENTER
370
-3
390
F
  0
LAYER
  5
1FB
100
AcDbSymbolTableRecord
100
AcDbLayerTableRecord
  2
DEFAULT_2
 70
0
 62
7
  6
HIDDEN
370
-3
390
F
  0
LAYER
  5
1FC
100
AcDbSymbolTableRecord
100
AcDbLayerTableRecord
  2
DEFAULT_3
 70
0
 62
7
  6
PHANTOM
370
-3
390
F
  0
LAYER
  5
1FD
100
AcDbSymbolTableRecord
100
AcDbLayerTableRecord
  2
00_COMPONENTS
 70
0
 62
7
  6
CONTINUOUS
370
-3
390
F
  0
LAYER
  5
1FE
100
AcDbSymbolTableRecord
100
AcDbLayerTableRecord
  2
01_1_DEFAULT_DATUMS
 70
0
 62
7
  6
CONTINUOUS
370
-3
390
F
  0
LAYER
  5
1FF
100
AcDbSymbolTableRecord
100
AcDbLayerTableRecord
  2
01_PLANES
 70
0
 62
7
  6
CONTINUOUS
370
-3
390
F
  0
LAYER
  5
200
100
AcDbSymbolTableRecord
100
AcDbLayerTableRecord
  2
02_COORD_SYS
 70
0
 62
7
  6
CONTINUOUS
370
-3
390
F
  0
LAYER
  5
201
100
AcDbSymbolTableRecord
100
AcDbLayerTableRecord
  2
03_AXES
 70
0
 62
7
  6
CONTINUOUS
370
-3
390
F
  0
LAYER
  5
202
100
AcDbSymbolTableRecord
100
AcDbLayerTableRecord
  2
04_POINTS
 70
0
 62
7
  6
CONTINUOUS
370
-3
390
F
  0
LAYER
  5
203
100
AcDbSymbolTableRecord
100
AcDbLayerTableRecord
  2
05_CURVES
 70
0
 62
7
  6
CONTINUOUS
370
-3
390
F
  0
LAYER
  5
204
100
AcDbSymbolTableRecord
100
AcDbLayerTableRecord
  2
06_SURFS
 70
0
 62
7
  6
CONTINUOUS
370
-3
390
F
  0
LAYER
  5
205
100
AcDbSymbolTableRecord
100
AcDbLayerTableRecord
  2
07_COSMETICS
 70
0
 62
7
  6
CONTINUOUS
370
-3
390
F
  0
LAYER
  5
206
100
AcDbSymbolTableRecord
100
AcDbLayerTableRecord
  2
10_NOTES
 70
0
 62
7
  6
CONTINUOUS
370
-3
390
F
  0
LAYER
  5
207
100
AcDbSymbolTableRecord
100
AcDbLayerTableRecord
  2
11_NOTES_PUB
 70
0
 62
7
  6
CONTINUOUS
370
-3
390
F
  0
LAYER
  5
208
100
AcDbSymbolTableRecord
100
AcDbLayerTableRecord
  2
13_REF_GTOL
 70
0
 62
7
  6
CONTINUOUS
370
-3
390
F
  0
LAYER
  5
209
100
AcDbSymbolTableRecord
100
AcDbLayerTableRecord
  2
16_MISC
 70
0
 62
7
  6
CONTINUOUS
370
-3
390
F
  0
LAYER
  5
20A
100
AcDbSymbolTableRecord
100
AcDbLayerTableRecord
  2
17_NO_PRINT
 70
0
 62
7
  6
CONTINUOUS
370
-3
390
F
  0
LAYER
  5
20B
100
AcDbSymbolTableRecord
100
AcDbLayerTableRecord
  2
18_DATUM_CAMS_JOINTS
 70
0
 62
7
  6
CONTINUOUS
370
-3
390
F
  0
LAYER
  5
20C
100
AcDbSymbolTableRecord
100
AcDbLayerTableRecord
  2
19_DATUM_FUNCTIONAL
 70
0
 62
7
  6
CONTINUOUS
370
-3
390
F
  0
LAYER
  5
20D
100
AcDbSymbolTableRecord
100
AcDbLayerTableRecord
  2
20_DATUM_KINEMATIC_SCHEME
 70
0
 62
7
  6
CONTINUOUS
370
-3
390
F
  0
LAYER
  5
20E
100
AcDbSymbolTableRecord
100
AcDbLayerTableRecord
  2
INTFCLR_4
 70
0
 62
7
  6
CONTINUOUS
370
-3
390
F
  0
ENDTAB
  0
TABLE
  2
STYLE
  5
3
100
AcDbSymbolTable
 70
1
  0
STYLE
  5
11
100
AcDbSymbolTableRecord
100
AcDbTextStyleTableRecord
  2
STANDARD
 70
0
 40
0.0
 41
1.0
 50
0.0
 71
0
 42
0.2
  3
ARIAL.TTF
  4

  0
STYLE
  5
20F
100
AcDbSymbolTableRecord
100
AcDbTextStyleTableRecord
  2
TEXTSTYLE_1
 70
0
 40
0.0
 41
0.8
 50
0.0
 71
0
 42
0.2
  3
gdt
  4

  0
ENDTAB
  0
TABLE
  2
VIEW
  5
6
100
AcDbSymbolTable
 70
0
  0
ENDTAB
  0
TABLE
  2
UCS
  5
7
100
AcDbSymbolTable
 70
0
  0
ENDTAB
  0
TABLE
  2
APPID
  5
9
100
AcDbSymbolTable
 70
1
  0
APPID
  5
210
100
AcDbSymbolTableRecord
100
AcDbRegAppTableRecord
  2
ACAD
 70
0
  0
ENDTAB
  0
TABLE
  2
BLOCK_RECORD
  5
1
100
AcDbSymbolTable
 70
0
  0
BLOCK_RECORD
  5
211
100
AcDbSymbolTableRecord
100
AcDbBlockTableRecord
  2
*Model_Space
  0
BLOCK_RECORD
  5
212
100
AcDbSymbolTableRecord
100
AcDbBlockTableRecord
  2
*Paper_Space
  0
BLOCK_RECORD
  5
213
100
AcDbSymbolTableRecord
100
AcDbBlockTableRecord
  2
_FILLED
  0
ENDTAB
  0
TABLE
  2
DIMSTYLE
  5
A
100
AcDbSymbolTable
 70
1
100
AcDbDimStyleTable
 71
0
  0
DIMSTYLE
105
214
100
AcDbSymbolTableRecord
100
AcDbDimStyleTableRecord
  2
STANDARD
 70
0
  3

  4

 40
1.0
 41
5.1228604985
 42
1.0
 43
0.38
 44
1.0
 45
0.0
 46
0.0
 47
0.01
 48
0.01
140
7.1720046978
141
0.09
142
0.0
143
25.4
144
1.0
145
0.0
146
1.0
147
0.625
 71
1
 72
0
 73
0
 74
0
 75
0
 76
0
 77
1
 78
8
 79
2
170
0
171
1
172
0
173
0
174
0
175
0
176
0
177
0
178
0
270
2
179
2
271
2
272
2
273
2
274
2
275
0
280
0
281
0
282
0
283
1
284
8
285
0
286
0
287
3
288
0
340
11
278
46
341
213
342
213
343
213
344
213
  0
ENDTAB
  0
ENDSEC
  0
SECTION
  2
BLOCKS
  0
BLOCK
  5
20
100
AcDbEntity
  8
0
100
AcDbBlockBegin
  2
*Model_Space
 70
0
 10
0.0
 20
0.0
 30
0.0
  3
*Model_Space
  1

  0
ENDBLK
  5
21
100
AcDbEntity
  8
0
100
AcDbBlockEnd
  0
BLOCK
  5
1C
100
AcDbEntity
  8
0
100
AcDbBlockBegin
  2
*Paper_Space
 70
0
 10
0.0
 20
0.0
 30
0.0
  3
*Paper_Space
  1

  0
ENDBLK
  5
1D
100
AcDbEntity
  8
0
100
AcDbBlockEnd
  0
BLOCK
  5
215
100
AcDbEntity
  8
0
100
AcDbBlockBegin
  2
_FILLED
 70
64
 10
0.0
 20
0.0
  3
_FILLED
  1

  0
SOLID
  5
216
100
AcDbEntity
  8
0
  6
BYBLOCK
 62
0
100
AcDbTrace
 10
0.0
 20
0.0
 11
-1.0
 21
0.25
 12
-1.0
 22
-0.25
 13
-1.0
 23
-0.25
  0
ENDBLK
  5
217
100
AcDbEntity
  8
0
  6
BYBLOCK
 62
0
100
AcDbBlockEnd
  0
ENDSEC
  0
SECTION
  2
ENTITIES
  0
LINE
  5
218
100
AcDbEntity
  8
0
100
AcDbLine
 62
7
  6
BYLAYER
 10
50.906317235
 20
318.3307021933
 11
50.9063148325
 21
385.4847979431
  0
LINE
  5
219
100
AcDbEntity
  8
0
100
AcDbLine
 62
7
  6
BYLAYER
 10
68.582617235
 20
287.5343288111
 11
67.332617235
 21
305.5343288111
  0
LINE
  5
21A
100
AcDbEntity
  8
0
100
AcDbLine
 62
7
  6
BYLAYER
 10
58.998900388
 20
389.4827488111
 11
58.998900388
 21
384.958480938
  0
LINE
  5
21B
100
AcDbEntity
  8
0
100
AcDbLine
 62
7
  6
BYLAYER
 10
58.998900388
 20
314.3327488111
 11
58.998900388
 21
318.9589182163
  0
LINE
  5
21C
100
AcDbEntity
  8
0
100
AcDbLine
 62
7
  6
BYLAYER
 10
65.6352783383
 20
314.2502091958
 11
65.6352783383
 21
314.3327488111
  0
LINE
  5
21D
100
AcDbEntity
  8
0
100
AcDbLine
 62
7
  6
BYLAYER
 10
67.332617235
 20
311.5340698087
 11
67.332617235
 21
305.5343288111
  0
LINE
  5
21E
100
AcDbEntity
  8
0
100
AcDbLine
 62
7
  6
BYLAYER
 10
67.8654197683
 20
394.3727488111
 11
67.8654197683
 21
392.3727488111
  0
LINE
  5
21F
100
AcDbEntity
  8
0
100
AcDbLine
 62
7
  6
BYLAYER
 10
67.9214428843
 20
389.4827488111
 11
67.9214428843
 21
392.3727488111
  0
LINE
  5
220
100
AcDbEntity
  8
0
100
AcDbLine
 62
7
  6
BYLAYER
 10
68.6484676368
 20
394.3727488111
 11
68.6484676368
 21
392.3727488111
  0
LINE
  5
221
100
AcDbEntity
  8
0
100
AcDbLine
 62
7
  6
BYLAYER
 10
77.0303317357
 20
367.872838484
 11
77.3782831166
 21
368.9127555438
  0
LINE
  5
222
100
AcDbEntity
  8
0
100
AcDbLine
 62
7
  6
BYLAYER
 10
73.3196803366
 20
350.5770232615
 11
73.3196803366
 21
352.4525638155
  0
LINE
  5
223
100
AcDbEntity
  8
0
100
AcDbLine
 62
7
  6
BYLAYER
 10
75.1673332035
 20
350.5847858643
 11
75.1673332035
 21
352.4525638155
  0
LINE
  5
224
100
AcDbEntity
  8
0
100
AcDbLine
 62
7
  6
BYLAYER
 10
78.29518632
 20
374.9100976578
 11
78.29518632
 21
369.2450778779
  0
LINE
  5
225
100
AcDbEntity
  8
0
100
AcDbLine
 62
7
  6
BYLAYER
 10
79.5528950698
 20
392.3727488111
 11
79.5528950698
 21
394.3727488111
  0
LINE
  5
226
100
AcDbEntity
  8
0
100
AcDbLine
 62
7
  6
BYLAYER
 10
80.3636382438
 20
394.3727488111
 11
80.3636382438
 21
392.3727488111
  0
LINE
  5
227
100
AcDbEntity
  8
0
100
AcDbLine
 62
7
  6
BYLAYER
 10
80.4195390738
 20
392.3727488111
 11
80.4195390738
 21
389.4827488111
  0
LINE
  5
228
100
AcDbEntity
  8
0
100
AcDbLine
 62
7
  6
BYLAYER
 10
80.4544438866
 20
389.4827488111
 11
80.4544438866
 21
392.3727488111
  0
LINE
  5
229
100
AcDbEntity
  8
0
100
AcDbLine
 62
7
  6
BYLAYER
 10
80.5103447166
 20
392.3727488111
 11
80.5103447166
 21
394.3727488111
  0
LINE
  5
22A
100
AcDbEntity
  8
0
100
AcDbLine
 62
7
  6
BYLAYER
 10
81.332617235
 20
311.5340698087
 11
81.332617235
 21
305.5343288111
  0
LINE
  5
22B
100
AcDbEntity
  8
0
100
AcDbLine
 62
7
  6
BYLAYER
 10
80.082617235
 20
287.5343288111
 11
81.332617235
 21
305.5343288111
  0
LINE
  5
22C
100
AcDbEntity
  8
0
100
AcDbLine
 62
7
  6
BYLAYER
 10
67.8722617978
 20
313.548050735
 11
67.332617235
 21
311.5340698087
  0
LINE
  5
22D
100
AcDbEntity
  8
0
100
AcDbLine
 62
7
  6
BYLAYER
 10
78.29518632
 20
369.2450778779
 11
77.3129215292
 21
368.2625138113
  0
LINE
  5
22E
100
AcDbEntity
  8
0
100
AcDbLine
 62
7
  6
BYLAYER
 10
82.4639851777
 20
314.3327488111
 11
82.4640357357
 21
314.2502091958
  0
LINE
  5
22F
100
AcDbEntity
  8
0
100
AcDbLine
 62
7
  6
BYLAYER
 10
89.413734082
 20
389.4827488111
 11
89.413734082
 21
384.9584809381
  0
LINE
  5
230
100
AcDbEntity
  8
0
100
AcDbLine
 62
7
  6
BYLAYER
 10
89.413734082
 20
314.3327488111
 11
89.413734082
 21
318.9589182164
  0
LINE
  5
231
100
AcDbEntity
  8
0
100
AcDbLine
 62
7
  6
BYLAYER
 10
80.7929726722
 20
313.548050735
 11
81.332617235
 21
311.5340698087
  0
LINE
  5
232
100
AcDbEntity
  8
0
100
AcDbLine
 62
7
  6
BYLAYER
 10
97.5063196369
 20
385.4872273316
 11
97.5063196554
 21
318.3306938352
  0
LINE
  5
233
100
AcDbEntity
  8
0
100
AcDbLine
 62
7
  6
BYLAYER
 10
82.4230302198
 20
314.3327488111
 11
82.4640357357
 21
314.2502091958
  0
LINE
  5
234
100
AcDbEntity
  8
0
100
AcDbLine
 62
7
  6
BYLAYER
 10
71.0343513534
 20
368.9127555438
 11
71.3823027343
 21
367.872838484
  0
LINE
  5
235
100
AcDbEntity
  8
0
100
AcDbLine
 62
7
  6
BYLAYER
 10
68.582766626
 20
287.5343288111
 11
80.0824678441
 21
287.5343288111
  0
LINE
  5
236
100
AcDbEntity
  8
0
100
AcDbLine
 62
7
  6
BYLAYER
 10
368.5859691594
 20
287.5343288111
 11
380.0792653106
 21
287.5343288111
  0
LINE
  5
237
100
AcDbEntity
  8
0
100
AcDbLine
 62
7
  6
BYLAYER
 10
358.3519002761
 20
296.2763288111
 11
364.3323246353
 21
296.2763288111
  0
LINE
  5
238
100
AcDbEntity
  8
0
100
AcDbLine
 62
7
  6
BYLAYER
 10
384.3519002761
 20
296.2763288111
 11
390.3323246353
 21
296.2763288111
  0
LINE
  5
239
100
AcDbEntity
  8
0
100
AcDbLine
 62
7
  6
BYLAYER
 10
67.332617235
 20
305.5343288111
 11
81.332617235
 21
305.5343288111
  0
LINE
  5
23A
100
AcDbEntity
  8
0
100
AcDbLine
 62
7
  6
BYLAYER
 10
367.3326180002
 20
305.5343288111
 11
381.3326164699
 21
305.5343288111
  0
LINE
  5
23B
100
AcDbEntity
  8
0
100
AcDbLine
 62
7
  6
BYLAYER
 10
390.3323246353
 20
310.9763288111
 11
389.4358876248
 21
310.9763288111
  0
LINE
  5
23C
100
AcDbEntity
  8
0
100
AcDbLine
 62
7
  6
BYLAYER
 10
389.4109557838
 20
310.9763288111
 11
388.8992913518
 21
310.9763288111
  0
LINE
  5
23D
100
AcDbEntity
  8
0
100
AcDbLine
 62
7
  6
BYLAYER
 10
388.8670322883
 20
310.9763288111
 11
388.2457953282
 21
310.9763288111
  0
LINE
  5
23E
100
AcDbEntity
  8
0
100
AcDbLine
 62
7
  6
BYLAYER
 10
388.2086161009
 20
310.9763288111
 11
387.524161145
 21
310.9763288111
  0
LINE
  5
23F
100
AcDbEntity
  8
0
100
AcDbLine
 62
7
  6
BYLAYER
 10
387.4848359379
 20
310.9763288111
 11
386.7882346243
 21
310.9763288111
  0
LINE
  5
240
100
AcDbEntity
  8
0
100
AcDbLine
 62
7
  6
BYLAYER
 10
386.0580549722
 20
310.9763288111
 11
385.4901227189
 21
310.9763288111
  0
LINE
  5
241
100
AcDbEntity
  8
0
100
AcDbLine
 62
7
  6
BYLAYER
 10
386.749697747
 20
310.9763288111
 11
386.0929280325
 21
310.9763288111
  0
LINE
  5
242
100
AcDbEntity
  8
0
100
AcDbLine
 62
7
  6
BYLAYER
 10
385.4615155816
 20
310.9763288111
 11
384.3519002761
 21
310.9763288111
  0
LINE
  5
243
100
AcDbEntity
  8
0
100
AcDbLine
 62
7
  6
BYLAYER
 10
364.3323246353
 20
310.9763288111
 11
363.4358876248
 21
310.9763288111
  0
LINE
  5
244
100
AcDbEntity
  8
0
100
AcDbLine
 62
7
  6
BYLAYER
 10
363.4109557839
 20
310.9763288111
 11
362.8992913518
 21
310.9763288111
  0
LINE
  5
245
100
AcDbEntity
  8
0
100
AcDbLine
 62
7
  6
BYLAYER
 10
362.8670322883
 20
310.9763288111
 11
362.2457953283
 21
310.9763288111
  0
LINE
  5
246
100
AcDbEntity
  8
0
100
AcDbLine
 62
7
  6
BYLAYER
 10
362.2086161009
 20
310.9763288111
 11
361.524161145
 21
310.9763288111
  0
LINE
  5
247
100
AcDbEntity
  8
0
100
AcDbLine
 62
7
  6
BYLAYER
 10
361.4848359379
 20
310.9763288111
 11
360.7882346243
 21
310.9763288111
  0
LINE
  5
248
100
AcDbEntity
  8
0
100
AcDbLine
 62
7
  6
BYLAYER
 10
360.0580549722
 20
310.9763288111
 11
359.4901227189
 21
310.9763288111
  0
LINE
  5
249
100
AcDbEntity
  8
0
100
AcDbLine
 62
7
  6
BYLAYER
 10
360.749697747
 20
310.9763288111
 11
360.0929280325
 21
310.9763288111
  0
LINE
  5
24A
100
AcDbEntity
  8
0
100
AcDbLine
 62
7
  6
BYLAYER
 10
359.4615155816
 20
310.9763288111
 11
358.3519002761
 21
310.9763288111
  0
LINE
  5
24B
100
AcDbEntity
  8
0
100
AcDbLine
 62
7
  6
BYLAYER
 10
357.332617235
 20
311.2763288111
 11
368.7704693326
 21
311.2763288111
  0
LINE
  5
24C
100
AcDbEntity
  8
0
100
AcDbLine
 62
7
  6
BYLAYER
 10
379.8947651374
 20
311.2763288111
 11
391.332617235
 21
311.2763288111
  0
LINE
  5
24D
100
AcDbEntity
  8
0
100
AcDbLine
 62
7
  6
BYLAYER
 10
81.332617235
 20
311.5340698087
 11
67.332617235
 21
311.5340698087
  0
LINE
  5
24E
100
AcDbEntity
  8
0
100
AcDbLine
 62
7
  6
BYLAYER
 10
378.532617235
 20
311.5340722886
 11
370.132617235
 21
311.5340722887
  0
LINE
  5
24F
100
AcDbEntity
  8
0
100
AcDbLine
 62
7
  6
BYLAYER
 10
65.6352783383
 20
314.2502091958
 11
54.9214820424
 21
314.25021367
  0
LINE
  5
250
100
AcDbEntity
  8
0
100
AcDbLine
 62
7
  6
BYLAYER
 10
93.4929981763
 20
314.2502136798
 11
82.4640357357
 21
314.2502091958
  0
LINE
  5
251
100
AcDbEntity
  8
0
100
AcDbLine
 62
7
  6
BYLAYER
 10
54.904270617
 20
314.3327488111
 11
93.5107937062
 21
314.3327463914
  0
LINE
  5
252
100
AcDbEntity
  8
0
100
AcDbLine
 62
7
  6
BYLAYER
 10
357.332617235
 20
319.7763288111
 11
366.832617235
 21
319.7763288111
  0
LINE
  5
253
100
AcDbEntity
  8
0
100
AcDbLine
 62
7
  6
BYLAYER
 10
381.832617235
 20
319.7763288111
 11
391.332617235
 21
319.7763288111
  0
LINE
  5
254
100
AcDbEntity
  8
0
100
AcDbLine
 62
7
  6
BYLAYER
 10
97.506317235
 20
322.4515013668
 11
92.906317237
 21
322.4515013694
  0
LINE
  5
255
100
AcDbEntity
  8
0
100
AcDbLine
 62
7
  6
BYLAYER
 10
50.906317235
 20
322.4515013668
 11
55.506317233
 21
322.4515013694
  0
LINE
  5
256
100
AcDbEntity
  8
0
100
AcDbLine
 62
7
  6
BYLAYER
 10
388.582617235
 20
324.7763288111
 11
386.082617235
 21
324.7763288111
  0
LINE
  5
257
100
AcDbEntity
  8
0
100
AcDbLine
 62
7
  6
BYLAYER
 10
362.582617235
 20
324.7763288111
 11
360.082617235
 21
324.7763288111
  0
LINE
  5
258
100
AcDbEntity
  8
0
100
AcDbLine
 62
7
  6
BYLAYER
 10
366.832617235
 20
327.5343288111
 11
381.832617235
 21
327.5343288111
  0
LINE
  5
259
100
AcDbEntity
  8
0
100
AcDbLine
 62
7
  6
BYLAYER
 10
368.002617235
 20
330.3343288111
 11
380.662617235
 21
330.3343288111
  0
LINE
  5
25A
100
AcDbEntity
  8
0
100
AcDbLine
 62
7
  6
BYLAYER
 10
369.832617235
 20
332.2468288111
 11
378.832617235
 21
332.2468288111
  0
LINE
  5
25B
100
AcDbEntity
  8
0
100
AcDbLine
 62
7
  6
BYLAYER
 10
378.832617235
 20
335.5343288111
 11
369.832617235
 21
335.5343288111
  0
LINE
  5
25C
100
AcDbEntity
  8
0
100
AcDbLine
 62
7
  6
BYLAYER
 10
370.467617235
 20
335.8741446561
 11
370.987617235
 21
335.8741446561
  0
LINE
  5
25D
100
AcDbEntity
  8
0
100
AcDbLine
 62
7
  6
BYLAYER
 10
371.517617235
 20
335.8741446561
 11
372.037617235
 21
335.8741446561
  0
LINE
  5
25E
100
AcDbEntity
  8
0
100
AcDbLine
 62
7
  6
BYLAYER
 10
372.517617235
 20
335.8741446561
 11
373.037617235
 21
335.8741446561
  0
LINE
  5
25F
100
AcDbEntity
  8
0
100
AcDbLine
 62
7
  6
BYLAYER
 10
373.567617235
 20
335.8741446561
 11
374.087617235
 21
335.8741446561
  0
LINE
  5
260
100
AcDbEntity
  8
0
100
AcDbLine
 62
7
  6
BYLAYER
 10
374.567617235
 20
335.8741446561
 11
375.087617235
 21
335.8741446561
  0
LINE
  5
261
100
AcDbEntity
  8
0
100
AcDbLine
 62
7
  6
BYLAYER
 10
375.617617235
 20
335.8741446561
 11
376.137617235
 21
335.8741446561
  0
LINE
  5
262
100
AcDbEntity
  8
0
100
AcDbLine
 62
7
  6
BYLAYER
 10
376.617617235
 20
335.8741446561
 11
377.137617235
 21
335.8741446561
  0
LINE
  5
263
100
AcDbEntity
  8
0
100
AcDbLine
 62
7
  6
BYLAYER
 10
377.667617235
 20
335.8741446561
 11
378.187617235
 21
335.8741446561
  0
LINE
  5
264
100
AcDbEntity
  8
0
100
AcDbLine
 62
7
  6
BYLAYER
 10
378.187617235
 20
339.1019669326
 11
377.667617235
 21
339.1019669326
  0
LINE
  5
265
100
AcDbEntity
  8
0
100
AcDbLine
 62
7
  6
BYLAYER
 10
377.137617235
 20
339.1019669326
 11
376.617617235
 21
339.1019669326
  0
LINE
  5
266
100
AcDbEntity
  8
0
100
AcDbLine
 62
7
  6
BYLAYER
 10
376.137617235
 20
339.1019669326
 11
375.617617235
 21
339.1019669326
  0
LINE
  5
267
100
AcDbEntity
  8
0
100
AcDbLine
 62
7
  6
BYLAYER
 10
375.087617235
 20
339.1019669326
 11
374.567617235
 21
339.1019669326
  0
LINE
  5
268
100
AcDbEntity
  8
0
100
AcDbLine
 62
7
  6
BYLAYER
 10
374.087617235
 20
339.1019669326
 11
373.567617235
 21
339.1019669326
  0
LINE
  5
269
100
AcDbEntity
  8
0
100
AcDbLine
 62
7
  6
BYLAYER
 10
373.037617235
 20
339.1019669326
 11
372.517617235
 21
339.1019669326
  0
LINE
  5
26A
100
AcDbEntity
  8
0
100
AcDbLine
 62
7
  6
BYLAYER
 10
372.037617235
 20
339.1019669326
 11
371.517617235
 21
339.1019669326
  0
LINE
  5
26B
100
AcDbEntity
  8
0
100
AcDbLine
 62
7
  6
BYLAYER
 10
370.987617235
 20
339.1019669326
 11
370.467617235
 21
339.1019669326
  0
LINE
  5
26C
100
AcDbEntity
  8
0
100
AcDbLine
 62
7
  6
BYLAYER
 10
370.467617235
 20
339.5019669326
 11
370.987617235
 21
339.5019669326
  0
LINE
  5
26D
100
AcDbEntity
  8
0
100
AcDbLine
 62
7
  6
BYLAYER
 10
371.517617235
 20
339.5019669326
 11
372.037617235
 21
339.5019669326
  0
LINE
  5
26E
100
AcDbEntity
  8
0
100
AcDbLine
 62
7
  6
BYLAYER
 10
372.517617235
 20
339.5019669326
 11
373.037617235
 21
339.5019669326
  0
LINE
  5
26F
100
AcDbEntity
  8
0
100
AcDbLine
 62
7
  6
BYLAYER
 10
373.567617235
 20
339.5019669326
 11
374.087617235
 21
339.5019669326
  0
LINE
  5
270
100
AcDbEntity
  8
0
100
AcDbLine
 62
7
  6
BYLAYER
 10
374.567617235
 20
339.5019669326
 11
375.087617235
 21
339.5019669326
  0
LINE
  5
271
100
AcDbEntity
  8
0
100
AcDbLine
 62
7
  6
BYLAYER
 10
375.617617235
 20
339.5019669326
 11
376.137617235
 21
339.5019669326
  0
LINE
  5
272
100
AcDbEntity
  8
0
100
AcDbLine
 62
7
  6
BYLAYER
 10
376.617617235
 20
339.5019669326
 11
377.137617235
 21
339.5019669326
  0
LINE
  5
273
100
AcDbEntity
  8
0
100
AcDbLine
 62
7
  6
BYLAYER
 10
377.667617235
 20
339.5019669326
 11
378.187617235
 21
339.5019669326
  0
LINE
  5
274
100
AcDbEntity
  8
0
100
AcDbLine
 62
7
  6
BYLAYER
 10
368.502617235
 20
341.0343288111
 11
380.162617235
 21
341.0343288111
  0
LINE
  5
275
100
AcDbEntity
  8
0
100
AcDbLine
 62
7
  6
BYLAYER
 10
377.402617235
 20
342.2343288111
 11
371.262617235
 21
342.2343288111
  0
LINE
  5
276
100
AcDbEntity
  8
0
100
AcDbLine
 62
7
  6
BYLAYER
 10
79.7278222316
 20
352.4525638155
 11
75.1673332035
 21
352.4525638155
  0
LINE
  5
277
100
AcDbEntity
  8
0
100
AcDbLine
 62
7
  6
BYLAYER
 10
73.3196803366
 20
352.4525638155
 11
68.6848122385
 21
352.4525638155
  0
LINE
  5
278
100
AcDbEntity
  8
0
100
AcDbLine
 62
7
  6
BYLAYER
 10
77.1607152764
 20
368.2625138113
 11
77.3129215292
 21
368.2625138113
  0
LINE
  5
279
100
AcDbEntity
  8
0
100
AcDbLine
 62
7
  6
BYLAYER
 10
78.29518632
 20
369.2450778779
 11
78.3300911329
 21
369.2450778779
  0
LINE
  5
27A
100
AcDbEntity
  8
0
100
AcDbLine
 62
7
  6
BYLAYER
 10
97.506317235
 20
381.465897785
 11
92.906317235
 21
381.465897785
  0
LINE
  5
27B
100
AcDbEntity
  8
0
100
AcDbLine
 62
7
  6
BYLAYER
 10
50.906317235
 20
381.465897785
 11
55.5063172349
 21
381.465897785
  0
LINE
  5
27C
100
AcDbEntity
  8
0
100
AcDbLine
 62
7
  6
BYLAYER
 10
93.5083533469
 20
389.4827488111
 11
54.9018430263
 21
389.4827512129
  0
LINE
  5
27D
100
AcDbEntity
  8
0
100
AcDbLine
 62
7
  6
BYLAYER
 10
80.5103447166
 20
392.3727488111
 11
80.4544438866
 21
392.3727488111
  0
LINE
  5
27E
100
AcDbEntity
  8
0
100
AcDbLine
 62
7
  6
BYLAYER
 10
67.8654586143
 20
392.3727488111
 11
80.4195390738
 21
392.3727488111
  0
LINE
  5
27F
100
AcDbEntity
  8
0
100
AcDbLine
 62
7
  6
BYLAYER
 10
80.5104281567
 20
394.3727488111
 11
67.8654586143
 21
394.3727488111
  0
LINE
  5
280
100
AcDbEntity
  8
0
100
AcDbLine
 62
7
  6
BYLAYER
 10
357.332617235
 20
311.2763288111
 11
357.332617235
 21
319.7763288111
  0
LINE
  5
281
100
AcDbEntity
  8
0
100
AcDbLine
 62
7
  6
BYLAYER
 10
358.3519002761
 20
296.2763288111
 11
358.3519002761
 21
310.9763288111
  0
LINE
  5
282
100
AcDbEntity
  8
0
100
AcDbLine
 62
7
  6
BYLAYER
 10
358.3625479943
 20
296.2763288111
 11
358.3625479943
 21
310.9763288111
  0
LINE
  5
283
100
AcDbEntity
  8
0
100
AcDbLine
 62
7
  6
BYLAYER
 10
358.5550008349
 20
296.2763288111
 11
358.5550008349
 21
310.9763288111
  0
LINE
  5
284
100
AcDbEntity
  8
0
100
AcDbLine
 62
7
  6
BYLAYER
 10
358.5877431932
 20
296.2763288111
 11
358.5877431932
 21
310.9763288111
  0
LINE
  5
285
100
AcDbEntity
  8
0
100
AcDbLine
 62
7
  6
BYLAYER
 10
358.632617235
 20
311.2763288111
 11
358.632617235
 21
310.9763288111
  0
LINE
  5
286
100
AcDbEntity
  8
0
100
AcDbLine
 62
7
  6
BYLAYER
 10
358.9653574277
 20
296.2763288111
 11
358.9653574277
 21
310.9763288111
  0
LINE
  5
287
100
AcDbEntity
  8
0
100
AcDbLine
 62
7
  6
BYLAYER
 10
359.0177513056
 20
296.2763288111
 11
359.0177513056
 21
310.9763288111
  0
LINE
  5
288
100
AcDbEntity
  8
0
100
AcDbLine
 62
7
  6
BYLAYER
 10
359.4615155816
 20
296.2763288111
 11
359.4615155816
 21
310.9763288111
  0
LINE
  5
289
100
AcDbEntity
  8
0
100
AcDbLine
 62
7
  6
BYLAYER
 10
359.4901227189
 20
310.9763288111
 11
359.4901227189
 21
296.2763288111
  0
LINE
  5
28A
100
AcDbEntity
  8
0
100
AcDbLine
 62
7
  6
BYLAYER
 10
359.5523506788
 20
296.2763288111
 11
359.5523506788
 21
310.9763288111
  0
LINE
  5
28B
100
AcDbEntity
  8
0
100
AcDbLine
 62
7
  6
BYLAYER
 10
359.6204866282
 20
296.2763288111
 11
359.6204866282
 21
310.9763288111
  0
LINE
  5
28C
100
AcDbEntity
  8
0
100
AcDbLine
 62
7
  6
BYLAYER
 10
360.0580549722
 20
296.2763288111
 11
360.0580549722
 21
310.9763288111
  0
LINE
  5
28D
100
AcDbEntity
  8
0
100
AcDbLine
 62
7
  6
BYLAYER
 10
360.082617235
 20
324.7763288111
 11
360.082617235
 21
319.7763288111
  0
LINE
  5
28E
100
AcDbEntity
  8
0
100
AcDbLine
 62
7
  6
BYLAYER
 10
360.0929280325
 20
310.9763288111
 11
360.0929280325
 21
296.2763288111
  0
LINE
  5
28F
100
AcDbEntity
  8
0
100
AcDbLine
 62
7
  6
BYLAYER
 10
360.2721812021
 20
296.2763288111
 11
360.2721812021
 21
310.9763288111
  0
LINE
  5
290
100
AcDbEntity
  8
0
100
AcDbLine
 62
7
  6
BYLAYER
 10
360.332617235
 20
319.7763288111
 11
360.332617235
 21
311.2763288111
  0
LINE
  5
291
100
AcDbEntity
  8
0
100
AcDbLine
 62
7
  6
BYLAYER
 10
360.3509751565
 20
296.2763288111
 11
360.3509751565
 21
310.9763288111
  0
LINE
  5
292
100
AcDbEntity
  8
0
100
AcDbLine
 62
7
  6
BYLAYER
 10
360.749697747
 20
296.2763288111
 11
360.749697747
 21
310.9763288111
  0
LINE
  5
293
100
AcDbEntity
  8
0
100
AcDbLine
 62
7
  6
BYLAYER
 10
360.7882346243
 20
310.9763288111
 11
360.7882346243
 21
296.2763288111
  0
LINE
  5
294
100
AcDbEntity
  8
0
100
AcDbLine
 62
7
  6
BYLAYER
 10
361.0711377583
 20
296.2763288111
 11
361.0711377583
 21
310.9763288111
  0
LINE
  5
295
100
AcDbEntity
  8
0
100
AcDbLine
 62
7
  6
BYLAYER
 10
361.1547103879
 20
296.2763288111
 11
361.1547103879
 21
310.9763288111
  0
LINE
  5
296
100
AcDbEntity
  8
0
100
AcDbLine
 62
7
  6
BYLAYER
 10
361.4848359379
 20
296.2763288111
 11
361.4848359379
 21
310.9763288111
  0
LINE
  5
297
100
AcDbEntity
  8
0
100
AcDbLine
 62
7
  6
BYLAYER
 10
361.524161145
 20
310.9763288111
 11
361.524161145
 21
296.2763288111
  0
LINE
  5
298
100
AcDbEntity
  8
0
100
AcDbLine
 62
7
  6
BYLAYER
 10
361.8896049997
 20
296.2763288111
 11
361.8896049997
 21
310.9763288111
  0
LINE
  5
299
100
AcDbEntity
  8
0
100
AcDbLine
 62
7
  6
BYLAYER
 10
361.9717204069
 20
296.2763288111
 11
361.9717204069
 21
310.9763288111
  0
LINE
  5
29A
100
AcDbEntity
  8
0
100
AcDbLine
 62
7
  6
BYLAYER
 10
362.2086161009
 20
296.2763288111
 11
362.2086161009
 21
310.9763288111
  0
LINE
  5
29B
100
AcDbEntity
  8
0
100
AcDbLine
 62
7
  6
BYLAYER
 10
362.2457953283
 20
310.9763288111
 11
362.2457953283
 21
296.2763288111
  0
LINE
  5
29C
100
AcDbEntity
  8
0
100
AcDbLine
 62
7
  6
BYLAYER
 10
362.582617235
 20
324.7763288111
 11
362.582617235
 21
319.7763288111
  0
LINE
  5
29D
100
AcDbEntity
  8
0
100
AcDbLine
 62
7
  6
BYLAYER
 10
362.6665117595
 20
296.2763288111
 11
362.6665117595
 21
310.9763288111
  0
LINE
  5
29E
100
AcDbEntity
  8
0
100
AcDbLine
 62
7
  6
BYLAYER
 10
362.7410427794
 20
296.2763288111
 11
362.7410427794
 21
310.9763288111
  0
LINE
  5
29F
100
AcDbEntity
  8
0
100
AcDbLine
 62
7
  6
BYLAYER
 10
362.8670322883
 20
296.2763288111
 11
362.8670322883
 21
310.9763288111
  0
LINE
  5
2A0
100
AcDbEntity
  8
0
100
AcDbLine
 62
7
  6
BYLAYER
 10
362.8992913518
 20
310.9763288111
 11
362.8992913518
 21
296.2763288111
  0
LINE
  5
2A1
100
AcDbEntity
  8
0
100
AcDbLine
 62
7
  6
BYLAYER
 10
363.3438879691
 20
296.2763288111
 11
363.3438879691
 21
310.9763288111
  0
LINE
  5
2A2
100
AcDbEntity
  8
0
100
AcDbLine
 62
7
  6
BYLAYER
 10
363.4052733573
 20
296.2763288111
 11
363.4052733573
 21
310.9763288111
  0
LINE
  5
2A3
100
AcDbEntity
  8
0
100
AcDbLine
 62
7
  6
BYLAYER
 10
363.4109557839
 20
296.2763288111
 11
363.4109557839
 21
310.9763288111
  0
LINE
  5
2A4
100
AcDbEntity
  8
0
100
AcDbLine
 62
7
  6
BYLAYER
 10
363.4358876248
 20
310.9763288111
 11
363.4358876248
 21
296.2763288111
  0
LINE
  5
2A5
100
AcDbEntity
  8
0
100
AcDbLine
 62
7
  6
BYLAYER
 10
368.5852011529
 20
287.5343288111
 11
367.3326180002
 21
305.5343178158
  0
LINE
  5
2A6
100
AcDbEntity
  8
0
100
AcDbLine
 62
7
  6
BYLAYER
 10
363.8711901815
 20
296.2763288111
 11
363.8711901815
 21
310.9763288111
  0
LINE
  5
2A7
100
AcDbEntity
  8
0
100
AcDbLine
 62
7
  6
BYLAYER
 10
363.9148495748
 20
296.2763288111
 11
363.9148495748
 21
310.9763288111
  0
LINE
  5
2A8
100
AcDbEntity
  8
0
100
AcDbLine
 62
7
  6
BYLAYER
 10
364.032617235
 20
310.9763288111
 11
364.032617235
 21
311.2763288111
  0
LINE
  5
2A9
100
AcDbEntity
  8
0
100
AcDbLine
 62
7
  6
BYLAYER
 10
364.2090729476
 20
296.2763288111
 11
364.2090729476
 21
310.9763288111
  0
LINE
  5
2AA
100
AcDbEntity
  8
0
100
AcDbLine
 62
7
  6
BYLAYER
 10
364.2317486345
 20
296.2763288111
 11
364.2317486345
 21
310.9763288111
  0
LINE
  5
2AB
100
AcDbEntity
  8
0
100
AcDbLine
 62
7
  6
BYLAYER
 10
364.3323246353
 20
296.2763288111
 11
364.3323246353
 21
310.9763288111
  0
LINE
  5
2AC
100
AcDbEntity
  8
0
100
AcDbLine
 62
7
  6
BYLAYER
 10
366.832617235
 20
314.8340722887
 11
366.832617235
 21
327.5343288111
  0
LINE
  5
2AD
100
AcDbEntity
  8
0
100
AcDbLine
 62
7
  6
BYLAYER
 10
367.3326180002
 20
305.5343288111
 11
367.3326180002
 21
311.2763288111
  0
LINE
  5
2AE
100
AcDbEntity
  8
0
100
AcDbLine
 62
7
  6
BYLAYER
 10
368.002617235
 20
330.3343288111
 11
368.002617235
 21
327.5343288111
  0
LINE
  5
2AF
100
AcDbEntity
  8
0
100
AcDbLine
 62
7
  6
BYLAYER
 10
368.502617235
 20
341.0343288111
 11
368.502617235
 21
330.3343288111
  0
LINE
  5
2B0
100
AcDbEntity
  8
0
100
AcDbLine
 62
7
  6
BYLAYER
 10
368.7704693326
 20
311.2763288111
 11
368.7704693326
 21
311.8283189568
  0
LINE
  5
2B1
100
AcDbEntity
  8
0
100
AcDbLine
 62
7
  6
BYLAYER
 10
369.832617235
 20
335.5343288111
 11
369.832617235
 21
332.2468288111
  0
LINE
  5
2B2
100
AcDbEntity
  8
0
100
AcDbLine
 62
7
  6
BYLAYER
 10
370.467617235
 20
341.0343288111
 11
370.467617235
 21
335.5343288111
  0
LINE
  5
2B3
100
AcDbEntity
  8
0
100
AcDbLine
 62
7
  6
BYLAYER
 10
370.987617235
 20
341.0343288111
 11
370.987617235
 21
335.5343288111
  0
LINE
  5
2B4
100
AcDbEntity
  8
0
100
AcDbLine
 62
7
  6
BYLAYER
 10
371.262617235
 20
342.2343288111
 11
371.262617235
 21
341.0343288111
  0
LINE
  5
2B5
100
AcDbEntity
  8
0
100
AcDbLine
 62
7
  6
BYLAYER
 10
371.517617235
 20
341.0343288111
 11
371.517617235
 21
335.5343288111
  0
LINE
  5
2B6
100
AcDbEntity
  8
0
100
AcDbLine
 62
7
  6
BYLAYER
 10
372.037617235
 20
341.0343288111
 11
372.037617235
 21
335.5343288111
  0
LINE
  5
2B7
100
AcDbEntity
  8
0
100
AcDbLine
 62
7
  6
BYLAYER
 10
372.517617235
 20
341.0343288111
 11
372.517617235
 21
335.5343288111
  0
LINE
  5
2B8
100
AcDbEntity
  8
0
100
AcDbLine
 62
7
  6
BYLAYER
 10
373.037617235
 20
341.0343288111
 11
373.037617235
 21
335.5343288111
  0
LINE
  5
2B9
100
AcDbEntity
  8
0
100
AcDbLine
 62
7
  6
BYLAYER
 10
373.567617235
 20
341.0343288111
 11
373.567617235
 21
335.5343288111
  0
LINE
  5
2BA
100
AcDbEntity
  8
0
100
AcDbLine
 62
7
  6
BYLAYER
 10
374.087617235
 20
341.0343288111
 11
374.087617235
 21
335.5343288111
  0
LINE
  5
2BB
100
AcDbEntity
  8
0
100
AcDbLine
 62
7
  6
BYLAYER
 10
374.567617235
 20
341.0343288111
 11
374.567617235
 21
335.5343288111
  0
LINE
  5
2BC
100
AcDbEntity
  8
0
100
AcDbLine
 62
7
  6
BYLAYER
 10
375.087617235
 20
341.0343288111
 11
375.087617235
 21
335.5343288111
  0
LINE
  5
2BD
100
AcDbEntity
  8
0
100
AcDbLine
 62
7
  6
BYLAYER
 10
375.617617235
 20
341.0343288111
 11
375.617617235
 21
335.5343288111
  0
LINE
  5
2BE
100
AcDbEntity
  8
0
100
AcDbLine
 62
7
  6
BYLAYER
 10
376.137617235
 20
341.0343288111
 11
376.137617235
 21
335.5343288111
  0
LINE
  5
2BF
100
AcDbEntity
  8
0
100
AcDbLine
 62
7
  6
BYLAYER
 10
378.7059627762
 20
269.7619108514
 11
378.4788803181
 21
287.5343288111
  0
LINE
  5
2C0
100
AcDbEntity
  8
0
100
AcDbLine
 62
7
  6
BYLAYER
 10
376.617617235
 20
341.0343288111
 11
376.617617235
 21
335.5343288111
  0
LINE
  5
2C1
100
AcDbEntity
  8
0
100
AcDbLine
 62
7
  6
BYLAYER
 10
377.137617235
 20
341.0343288111
 11
377.137617235
 21
335.5343288111
  0
LINE
  5
2C2
100
AcDbEntity
  8
0
100
AcDbLine
 62
7
  6
BYLAYER
 10
377.402617235
 20
342.2343288111
 11
377.402617235
 21
341.0343288111
  0
LINE
  5
2C3
100
AcDbEntity
  8
0
100
AcDbLine
 62
7
  6
BYLAYER
 10
377.667617235
 20
341.0343288111
 11
377.667617235
 21
335.5343288111
  0
LINE
  5
2C4
100
AcDbEntity
  8
0
100
AcDbLine
 62
7
  6
BYLAYER
 10
378.187617235
 20
341.0343288111
 11
378.187617235
 21
335.5343288111
  0
LINE
  5
2C5
100
AcDbEntity
  8
0
100
AcDbLine
 62
7
  6
BYLAYER
 10
378.832617235
 20
332.2468288111
 11
378.832617235
 21
335.5343288111
  0
LINE
  5
2C6
100
AcDbEntity
  8
0
100
AcDbLine
 62
7
  6
BYLAYER
 10
379.8947651374
 20
311.8283189568
 11
379.8947651374
 21
311.2763288111
  0
LINE
  5
2C7
100
AcDbEntity
  8
0
100
AcDbLine
 62
7
  6
BYLAYER
 10
380.162617235
 20
341.0343288111
 11
380.162617235
 21
330.3343288111
  0
LINE
  5
2C8
100
AcDbEntity
  8
0
100
AcDbLine
 62
7
  6
BYLAYER
 10
380.662617235
 20
330.3343288111
 11
380.662617235
 21
327.5343288111
  0
LINE
  5
2C9
100
AcDbEntity
  8
0
100
AcDbLine
 62
7
  6
BYLAYER
 10
381.3326164699
 20
305.5343288111
 11
381.3326164699
 21
311.2763288111
  0
LINE
  5
2CA
100
AcDbEntity
  8
0
100
AcDbLine
 62
7
  6
BYLAYER
 10
381.832617235
 20
327.5343288111
 11
381.832617235
 21
314.8340722887
  0
LINE
  5
2CB
100
AcDbEntity
  8
0
100
AcDbLine
 62
7
  6
BYLAYER
 10
384.3519002762
 20
296.2763288111
 11
384.3519002762
 21
310.9763288111
  0
LINE
  5
2CC
100
AcDbEntity
  8
0
100
AcDbLine
 62
7
  6
BYLAYER
 10
384.3625479943
 20
296.2763288111
 11
384.3625479943
 21
310.9763288111
  0
LINE
  5
2CD
100
AcDbEntity
  8
0
100
AcDbLine
 62
7
  6
BYLAYER
 10
384.555000835
 20
296.2763288111
 11
384.555000835
 21
310.9763288111
  0
LINE
  5
2CE
100
AcDbEntity
  8
0
100
AcDbLine
 62
7
  6
BYLAYER
 10
384.5877431932
 20
296.2763288111
 11
384.5877431932
 21
310.9763288111
  0
LINE
  5
2CF
100
AcDbEntity
  8
0
100
AcDbLine
 62
7
  6
BYLAYER
 10
384.632617235
 20
311.2763288111
 11
384.632617235
 21
310.9763288111
  0
LINE
  5
2D0
100
AcDbEntity
  8
0
100
AcDbLine
 62
7
  6
BYLAYER
 10
384.9653574277
 20
296.2763288111
 11
384.9653574277
 21
310.9763288111
  0
LINE
  5
2D1
100
AcDbEntity
  8
0
100
AcDbLine
 62
7
  6
BYLAYER
 10
385.0177513056
 20
296.2763288111
 11
385.0177513056
 21
310.9763288111
  0
LINE
  5
2D2
100
AcDbEntity
  8
0
100
AcDbLine
 62
7
  6
BYLAYER
 10
385.4615155816
 20
296.2763288111
 11
385.4615155816
 21
310.9763288111
  0
LINE
  5
2D3
100
AcDbEntity
  8
0
100
AcDbLine
 62
7
  6
BYLAYER
 10
385.4901227189
 20
310.9763288111
 11
385.4901227189
 21
296.2763288111
  0
LINE
  5
2D4
100
AcDbEntity
  8
0
100
AcDbLine
 62
7
  6
BYLAYER
 10
385.5523506788
 20
296.2763288111
 11
385.5523506788
 21
310.9763288111
  0
LINE
  5
2D5
100
AcDbEntity
  8
0
100
AcDbLine
 62
7
  6
BYLAYER
 10
385.6204866282
 20
296.2763288111
 11
385.6204866282
 21
310.9763288111
  0
LINE
  5
2D6
100
AcDbEntity
  8
0
100
AcDbLine
 62
7
  6
BYLAYER
 10
386.0580549722
 20
296.2763288111
 11
386.0580549722
 21
310.9763288111
  0
LINE
  5
2D7
100
AcDbEntity
  8
0
100
AcDbLine
 62
7
  6
BYLAYER
 10
386.082617235
 20
324.7763288111
 11
386.082617235
 21
319.7763288111
  0
LINE
  5
2D8
100
AcDbEntity
  8
0
100
AcDbLine
 62
7
  6
BYLAYER
 10
386.0929280325
 20
310.9763288111
 11
386.0929280325
 21
296.2763288111
  0
LINE
  5
2D9
100
AcDbEntity
  8
0
100
AcDbLine
 62
7
  6
BYLAYER
 10
386.2721812021
 20
296.2763288111
 11
386.2721812021
 21
310.9763288111
  0
LINE
  5
2DA
100
AcDbEntity
  8
0
100
AcDbLine
 62
7
  6
BYLAYER
 10
386.3509751565
 20
296.2763288111
 11
386.3509751565
 21
310.9763288111
  0
LINE
  5
2DB
100
AcDbEntity
  8
0
100
AcDbLine
 62
7
  6
BYLAYER
 10
386.749697747
 20
296.2763288111
 11
386.749697747
 21
310.9763288111
  0
LINE
  5
2DC
100
AcDbEntity
  8
0
100
AcDbLine
 62
7
  6
BYLAYER
 10
386.7882346243
 20
310.9763288111
 11
386.7882346243
 21
296.2763288111
  0
LINE
  5
2DD
100
AcDbEntity
  8
0
100
AcDbLine
 62
7
  6
BYLAYER
 10
387.0711377583
 20
296.2763288111
 11
387.0711377583
 21
310.9763288111
  0
LINE
  5
2DE
100
AcDbEntity
  8
0
100
AcDbLine
 62
7
  6
BYLAYER
 10
387.1547103879
 20
296.2763288111
 11
387.1547103879
 21
310.9763288111
  0
LINE
  5
2DF
100
AcDbEntity
  8
0
100
AcDbLine
 62
7
  6
BYLAYER
 10
387.4848359379
 20
296.2763288111
 11
387.4848359379
 21
310.9763288111
  0
LINE
  5
2E0
100
AcDbEntity
  8
0
100
AcDbLine
 62
7
  6
BYLAYER
 10
387.524161145
 20
310.9763288111
 11
387.524161145
 21
296.2763288111
  0
LINE
  5
2E1
100
AcDbEntity
  8
0
100
AcDbLine
 62
7
  6
BYLAYER
 10
387.8896049997
 20
296.2763288111
 11
387.8896049997
 21
310.9763288111
  0
LINE
  5
2E2
100
AcDbEntity
  8
0
100
AcDbLine
 62
7
  6
BYLAYER
 10
387.9717204069
 20
296.2763288111
 11
387.9717204069
 21
310.9763288111
  0
LINE
  5
2E3
100
AcDbEntity
  8
0
100
AcDbLine
 62
7
  6
BYLAYER
 10
388.2086161009
 20
296.2763288111
 11
388.2086161009
 21
310.9763288111
  0
LINE
  5
2E4
100
AcDbEntity
  8
0
100
AcDbLine
 62
7
  6
BYLAYER
 10
388.2457953282
 20
310.9763288111
 11
388.2457953282
 21
296.2763288111
  0
LINE
  5
2E5
100
AcDbEntity
  8
0
100
AcDbLine
 62
7
  6
BYLAYER
 10
388.332617235
 20
311.2763288111
 11
388.332617235
 21
319.7763288111
  0
LINE
  5
2E6
100
AcDbEntity
  8
0
100
AcDbLine
 62
7
  6
BYLAYER
 10
388.582617235
 20
324.7763288111
 11
388.582617235
 21
319.7763288111
  0
LINE
  5
2E7
100
AcDbEntity
  8
0
100
AcDbLine
 62
7
  6
BYLAYER
 10
388.6665117595
 20
296.2763288111
 11
388.6665117595
 21
310.9763288111
  0
LINE
  5
2E8
100
AcDbEntity
  8
0
100
AcDbLine
 62
7
  6
BYLAYER
 10
388.7410427795
 20
296.2763288111
 11
388.7410427795
 21
310.9763288111
  0
LINE
  5
2E9
100
AcDbEntity
  8
0
100
AcDbLine
 62
7
  6
BYLAYER
 10
388.8670322883
 20
296.2763288111
 11
388.8670322883
 21
310.9763288111
  0
LINE
  5
2EA
100
AcDbEntity
  8
0
100
AcDbLine
 62
7
  6
BYLAYER
 10
388.8992913517
 20
310.9763288111
 11
388.8992913517
 21
296.2763288111
  0
LINE
  5
2EB
100
AcDbEntity
  8
0
100
AcDbLine
 62
7
  6
BYLAYER
 10
380.0800333171
 20
287.5343288111
 11
381.3326164699
 21
305.5343178158
  0
LINE
  5
2EC
100
AcDbEntity
  8
0
100
AcDbLine
 62
7
  6
BYLAYER
 10
389.3438879691
 20
296.2763288111
 11
389.3438879691
 21
310.9763288111
  0
LINE
  5
2ED
100
AcDbEntity
  8
0
100
AcDbLine
 62
7
  6
BYLAYER
 10
389.4052733573
 20
296.2763288111
 11
389.4052733573
 21
310.9763288111
  0
LINE
  5
2EE
100
AcDbEntity
  8
0
100
AcDbLine
 62
7
  6
BYLAYER
 10
389.4109557838
 20
296.2763288111
 11
389.4109557838
 21
310.9763288111
  0
LINE
  5
2EF
100
AcDbEntity
  8
0
100
AcDbLine
 62
7
  6
BYLAYER
 10
389.4358876248
 20
310.9763288111
 11
389.4358876248
 21
296.2763288111
  0
LINE
  5
2F0
100
AcDbEntity
  8
0
100
AcDbLine
 62
7
  6
BYLAYER
 10
389.8711901815
 20
296.2763288111
 11
389.8711901815
 21
310.9763288111
  0
LINE
  5
2F1
100
AcDbEntity
  8
0
100
AcDbLine
 62
7
  6
BYLAYER
 10
389.9148495748
 20
296.2763288111
 11
389.9148495748
 21
310.9763288111
  0
LINE
  5
2F2
100
AcDbEntity
  8
0
100
AcDbLine
 62
7
  6
BYLAYER
 10
390.032617235
 20
310.9763288111
 11
390.032617235
 21
311.2763288111
  0
LINE
  5
2F3
100
AcDbEntity
  8
0
100
AcDbLine
 62
7
  6
BYLAYER
 10
390.2090729476
 20
296.2763288111
 11
390.2090729476
 21
310.9763288111
  0
LINE
  5
2F4
100
AcDbEntity
  8
0
100
AcDbLine
 62
7
  6
BYLAYER
 10
390.2317486345
 20
296.2763288111
 11
390.2317486345
 21
310.9763288111
  0
LINE
  5
2F5
100
AcDbEntity
  8
0
100
AcDbLine
 62
7
  6
BYLAYER
 10
390.3323246353
 20
296.2763288111
 11
390.3323246353
 21
310.9763288111
  0
LINE
  5
2F6
100
AcDbEntity
  8
0
100
AcDbLine
 62
7
  6
BYLAYER
 10
391.332617235
 20
319.7763288111
 11
391.332617235
 21
311.2763288111
  0
ARC
  5
2F7
100
AcDbEntity
  8
0
100
AcDbCircle
 62
7
  6
BYLAYER
 10
71.932617235
 20
316.6340698087
 40
5.1
100
AcDbArc
 50
206.2814019287
 51
253.0468064521
  0
ARC
  5
2F8
100
AcDbEntity
  8
0
100
AcDbCircle
 62
7
  6
BYLAYER
 10
76.732617235
 20
316.6340698087
 40
5.1
100
AcDbArc
 50
286.9531935474
 51
333.7185980713
  0
ARC
  5
2F9
100
AcDbEntity
  8
0
100
AcDbCircle
 62
7
  6
BYLAYER
 10
54.9030941106
 20
318.3295256803
 40
3.9967842992
100
AcDbArc
 50
180.0179054904
 51
270.0166839049
  0
ARC
  5
2FA
100
AcDbEntity
  8
0
100
AcDbCircle
 62
7
  6
BYLAYER
 10
93.5095403657
 20
318.3295256868
 40
3.9967842993
100
AcDbArc
 50
270.0179672463
 51
0.0167459763
  0
ARC
  5
2FB
100
AcDbEntity
  8
0
100
AcDbCircle
 62
7
  6
BYLAYER
 10
54.9204801808
 20
318.2469117569
 40
3.9966892445
100
AcDbArc
 50
196.8555070044
 51
270.014362466
  0
ARC
  5
2FC
100
AcDbEntity
  8
0
100
AcDbCircle
 62
7
  6
BYLAYER
 10
93.4921542892
 20
318.246911757
 40
3.9966892446
100
AcDbArc
 50
270.0120977788
 51
343.1761552416
  0
ARC
  5
2FD
100
AcDbEntity
  8
0
100
AcDbCircle
 62
7
  6
BYLAYER
 10
55.506317235
 20
318.9589182164
 40
3.492583153
100
AcDbArc
 50
0.0
 51
90.0000000324
  0
ARC
  5
2FE
100
AcDbEntity
  8
0
100
AcDbCircle
 62
7
  6
BYLAYER
 10
92.906317235
 20
318.9589182164
 40
3.492583153
100
AcDbArc
 50
89.9999999673
 51
180.0000000022
  0
CIRCLE
  5
2FF
100
AcDbEntity
  8
0
100
AcDbCircle
 62
7
  6
BYLAYER
 10
54.906317235
 20
318.2295791807
 40
1.5
  0
CIRCLE
  5
300
100
AcDbEntity
  8
0
100
AcDbCircle
 62
7
  6
BYLAYER
 10
93.506317235
 20
318.2295791807
 40
1.5
  0
CIRCLE
  5
301
100
AcDbEntity
  8
0
100
AcDbCircle
 62
7
  6
BYLAYER
 10
93.506317235
 20
318.2327488111
 40
1.1405629091
  0
CIRCLE
  5
302
100
AcDbEntity
  8
0
100
AcDbCircle
 62
7
  6
BYLAYER
 10
54.906317235
 20
318.2327488111
 40
1.1405629091
  0
CIRCLE
  5
303
100
AcDbEntity
  8
0
100
AcDbCircle
 62
7
  6
BYLAYER
 10
74.206317235
 20
359.4327488111
 40
17.6121693649
  0
CIRCLE
  5
304
100
AcDbEntity
  8
0
100
AcDbCircle
 62
7
  6
BYLAYER
 10
74.206317235
 20
359.4327488111
 40
16.1121693649
  0
ARC
  5
305
100
AcDbEntity
  8
0
100
AcDbCircle
 62
7
  6
BYLAYER
 10
74.206317235
 20
359.4327488111
 40
9.9965941804
100
AcDbArc
 50
71.5000000346
 51
108.4999999165
  0
ARC
  5
306
100
AcDbEntity
  8
0
100
AcDbCircle
 62
7
  6
BYLAYER
 10
74.206317235
 20
359.4327488109
 40
9.9730780198
100
AcDbArc
 50
71.5000001092
 51
108.499999967
  0
CIRCLE
  5
307
100
AcDbEntity
  8
0
100
AcDbCircle
 62
7
  6
BYLAYER
 10
74.206317235
 20
359.4327488111
 40
8.9
  0
ARC
  5
308
100
AcDbEntity
  8
0
100
AcDbCircle
 62
7
  6
BYLAYER
 10
54.9030978491
 20
385.4859681907
 40
3.9967879918
100
AcDbArc
 50
90.0179884796
 51
180.0167760534
  0
ARC
  5
309
100
AcDbEntity
  8
0
100
AcDbCircle
 62
7
  6
BYLAYER
 10
93.5095366146
 20
385.4859681971
 40
3.9967879918
100
AcDbArc
 50
0.0180502893
 51
90.0168381943
  0
ARC
  5
30A
100
AcDbEntity
  8
0
100
AcDbCircle
 62
7
  6
BYLAYER
 10
55.506317235
 20
384.958480938
 40
3.492583153
100
AcDbArc
 50
269.9999999979
 51
360.0
  0
ARC
  5
30B
100
AcDbEntity
  8
0
100
AcDbCircle
 62
7
  6
BYLAYER
 10
92.906317235
 20
384.958480938
 40
3.492583153
100
AcDbArc
 50
179.9999999976
 51
270.0000000027
  0
CIRCLE
  5
30C
100
AcDbEntity
  8
0
100
AcDbCircle
 62
7
  6
BYLAYER
 10
54.906317235
 20
385.4827488111
 40
1.5
  0
CIRCLE
  5
30D
100
AcDbEntity
  8
0
100
AcDbCircle
 62
7
  6
BYLAYER
 10
93.506317235
 20
385.4827488111
 40
1.5
  0
CIRCLE
  5
30E
100
AcDbEntity
  8
0
100
AcDbCircle
 62
7
  6
BYLAYER
 10
93.506317235
 20
385.4327488111
 40
1.1405629091
  0
CIRCLE
  5
30F
100
AcDbEntity
  8
0
100
AcDbCircle
 62
7
  6
BYLAYER
 10
54.906317235
 20
385.4327488111
 40
1.1405629091
  0
ARC
  5
310
100
AcDbEntity
  8
0
100
AcDbCircle
 62
7
  6
BYLAYER
 10
378.532617235
 20
314.8340722887
 40
3.3
100
AcDbArc
 50
269.9999999995
 51
360.0
  0
ARC
  5
311
100
AcDbEntity
  8
0
100
AcDbCircle
 62
7
  6
BYLAYER
 10
370.132617235
 20
314.8340722887
 40
3.3
100
AcDbArc
 50
180.0
 51
269.9999999996
  0
SPLINE
  5
312
100
AcDbEntity
  8
0
100
AcDbSpline
 62
7
  6
BYLAYER
 70
0
 71
3
 72
9
 73
5
 74
0
 42
0.0000001
 43
0.0000001
 44
0.0000000001
 40
0.0
 40
0.0
 40
0.0
 40
0.0
 40
0.4999427311
 40
1.0
 40
1.0
 40
1.0
 40
1.0
 10
76.7808883244
 20
314.3348940664
 30
0.0
 10
77.0589179412
 20
313.9283638461
 30
0.0
 10
77.5628718032
 20
313.0796496116
 30
0.0
 10
78.0071196282
 20
312.2000818508
 30
0.0
 10
78.2197281544
 20
311.7556990649
 30
0.0
  0
SPLINE
  5
313
100
AcDbEntity
  8
0
100
AcDbSpline
 62
7
  6
BYLAYER
 70
0
 71
3
 72
9
 73
5
 74
0
 42
0.0000001
 43
0.0000001
 44
0.0000000001
 40
0.0
 40
0.0
 40
0.0
 40
0.0
 40
0.4999427277
 40
1.0
 40
1.0
 40
1.0
 40
1.0
 10
71.8843453276
 20
314.334892866
 30
0.0
 10
71.6063158952
 20
313.9283628165
 30
0.0
 10
71.1023623338
 20
313.0796489706
 30
0.0
 10
70.6581147389
 20
312.2000816357
 30
0.0
 10
70.4455063156
 20
311.755699065
 30
0.0
  0
SPLINE
  5
314
100
AcDbEntity
  8
0
100
AcDbSpline
 62
7
  6
BYLAYER
 70
0
 71
3
 72
166
 73
162
 74
0
 42
0.0000001
 43
0.0000001
 44
0.0000000001
 40
0.0
 40
0.0
 40
0.0
 40
0.0
 40
0.0159141471
 40
0.0319715843
 40
0.0400529892
 40
0.0481639017
 40
0.0563254507
 40
0.0604018389
 40
0.064402303
 40
0.0719452605
 40
0.0788892447
 40
0.0854575568
 40
0.0916978124
 40
0.0945139068
 40
0.0970469988
 40
0.0994399448
 40
0.1020812401
 40
0.1050335055
 40
0.1082829499
 40
0.1153953461
 40
0.1226045999
 40
0.1296256554
 40
0.1365045792
 40
0.1433042351
 40
0.1502647376
 40
0.1575697241
 40
0.1651553686
 40
0.1690475772
 40
0.1730455182
 40
0.1816533033
 40
0.1912042097
 40
0.2015869675
 40
0.2069850209
 40
0.2125423615
 40
0.2183401247
 40
0.2242719011
 40
0.2299289596
 40
0.2353521237
 40
0.2405957965
 40
0.2456809973
 40
0.250488983
 40
0.2549017528
 40
0.2623110033
 40
0.2653113787
 40
0.2678972038
 40
0.2704259536
 40
0.2732750547
 40
0.2795780098
 40
0.2857488307
 40
0.2884545475
 40
0.2907615401
 40
0.2927442866
 40
0.29496871
 40
0.2976431445
 40
0.3007610238
 40
0.3042621243
 40
0.3080370777
 40
0.3157965028
 40
0.3233660914
 40
0.3308529507
 40
0.3383580738
 40
0.3460820988
 40
0.3541927106
 40
0.3626965827
 40
0.3715815009
 40
0.3808916068
 40
0.390605145
 40
0.400588759
 40
0.410893969
 40
0.4162191379
 40
0.4215107106
 40
0.4318038867
 40
0.4417063424
 40
0.4510710075
 40
0.4599382035
 40
0.4763567721
 40
0.4921618321
 40
0.5076381713
 40
0.5147074564
 40
0.5211142941
 40
0.5269270542
 40
0.5327061631
 40
0.5386633429
 40
0.5414524152
 40
0.5439738176
 40
0.5462396654
 40
0.5487103309
 40
0.5516115873
 40
0.5549421534
 40
0.5586459058
 40
0.5626592362
 40
0.5708599627
 40
0.5786957133
 40
0.5863577795
 40
0.5942321441
 40
0.6024285595
 40
0.6110240721
 40
0.6201578705
 40
0.6300089714
 40
0.6351719462
 40
0.6404914943
 40
0.6460412579
 40
0.6519317005
 40
0.6578868112
 40
0.663494833
 40
0.6688630537
 40
0.6740349182
 40
0.683800955
 40
0.6929452291
 40
0.7016123524
 40
0.7098347422
 40
0.7176441451
 40
0.7251328654
 40
0.7324046693
 40
0.7395036209
 40
0.746553343
 40
0.753633355
 40
0.7601868518
 40
0.7630415789
 40
0.7655480715
 40
0.7677380684
 40
0.7699947147
 40
0.7726156661
 40
0.7755557353
 40
0.7820223793
 40
0.7886293071
 40
0.7954771518
 40
0.8028867252
 40
0.8109520843
 40
0.8197705935
 40
0.8294231742
 40
0.8399204449
 40
0.8455659517
 40
0.8512080393
 40
0.8622626107
 40
0.8677979912
 40
0.8733647937
 40
0.8789993373
 40
0.8843430684
 40
0.8890946691
 40
0.8932544313
 40
0.896749754
 40
0.8994807782
 40
0.9005684619
 40
0.9016008742
 40
0.9040268469
 40
0.9070032166
 40
0.910502525
 40
0.9144442644
 40
0.918558675
 40
0.9264589211
 40
0.9336190871
 40
0.9397556162
 40
0.9448601674
 40
0.9500549649
 40
0.9562137216
 40
0.9631715811
 40
0.9705734983
 40
0.9780015422
 40
0.9852895353
 40
1.0
 40
1.0
 40
1.0
 40
1.0
 10
78.1313078761
 20
287.5333913547
 30
0.0
 10
78.222591627
 20
285.149414591
 30
0.0
 10
78.4186413169
 20
280.3605517054
 30
0.0
 10
78.5909352376
 20
274.35805229
 30
0.0
 10
78.6204204649
 20
269.5232635946
 30
0.0
 10
78.5718362775
 20
265.8723770044
 30
0.0
 10
78.4579336074
 20
262.8235737526
 30
0.0
 10
78.315028715
 20
260.393346952
 30
0.0
 10
78.1448919527
 20
258.0579288744
 30
0.0
 10
77.959225523
 20
255.2925501322
 30
0.0
 10
77.9832920008
 20
252.1290673136
 30
0.0
 10
78.4460945887
 20
249.1915148285
 30
0.0
 10
79.2380448329
 20
246.9652120463
 30
0.0
 10
80.1124649783
 20
245.4589101021
 30
0.0
 10
80.8339013568
 20
244.5429461991
 30
0.0
 10
81.6889495322
 20
243.7885994643
 30
0.0
 10
82.7077440802
 20
243.1516394172
 30
0.0
 10
83.9144376529
 20
242.5959594948
 30
0.0
 10
85.8062276037
 20
241.95125628
 30
0.0
 10
88.3886372249
 20
241.3963543105
 30
0.0
 10
91.5693977879
 20
241.0129636752
 30
0.0
 10
94.7405620297
 20
240.9781968891
 30
0.0
 10
97.8347490247
 20
241.2899415935
 30
0.0
 10
100.8614373329
 20
241.9704420885
 30
0.0
 10
103.8401781106
 20
243.0372751248
 30
0.0
 10
106.8187772482
 20
244.4067400538
 30
0.0
 10
109.3059383794
 20
245.7285843123
 30
0.0
 10
111.3311071746
 20
246.8605626853
 30
0.0
 10
113.4788635834
 20
248.0864265087
 30
0.0
 10
116.4026412043
 20
249.6691990194
 30
0.0
 10
120.427389212
 20
251.185994819
 30
0.0
 10
124.2269313001
 20
251.7315951368
 30
0.0
 10
127.431117525
 20
251.5797885931
 30
0.0
 10
129.9033669728
 20
251.0729394723
 30
0.0
 10
132.3165155195
 20
250.073736336
 30
0.0
 10
134.4465427895
 20
248.5277033023
 30
0.0
 10
136.1410096662
 20
246.5996993512
 30
0.0
 10
137.4203474905
 20
244.502452069
 30
0.0
 10
138.3636214482
 20
242.3313458133
 30
0.0
 10
139.0392869314
 20
240.1611140886
 30
0.0
 10
139.4855495349
 20
238.0610702905
 30
0.0
 10
139.8611702019
 20
235.5965990774
 30
0.0
 10
140.13227395
 20
233.3881462231
 30
0.0
 10
140.5878706791
 20
231.4911051799
 30
0.0
 10
141.0157325072
 20
230.3470305797
 30
0.0
 10
141.6314660822
 20
229.3169489262
 30
0.0
 10
142.7628072864
 20
227.9729003477
 30
0.0
 10
144.5841408996
 20
226.5325802535
 30
0.0
 10
146.6769678307
 20
225.5675006318
 30
0.0
 10
148.322382888
 20
225.2167236558
 30
0.0
 10
149.3768643705
 20
225.1696211857
 30
0.0
 10
150.3463420598
 20
225.3406268536
 30
0.0
 10
151.3042427795
 20
225.7408601171
 30
0.0
 10
152.3291594696
 20
226.3752026045
 30
0.0
 10
153.4178573284
 20
227.2486529462
 30
0.0
 10
154.5453518877
 20
228.3260820975
 30
0.0
 10
156.0771768674
 20
229.980517487
 30
0.0
 10
157.9264473286
 20
232.1690798465
 30
0.0
 10
160.0127514229
 20
234.8808979595
 30
0.0
 10
161.9536085572
 20
237.6520052516
 30
0.0
 10
163.8060381964
 20
240.5103322014
 30
0.0
 10
165.6145972225
 20
243.5057779022
 30
0.0
 10
167.5015927759
 20
246.6286693364
 30
0.0
 10
169.618005058
 20
249.8148442364
 30
0.0
 10
172.1080261924
 20
252.9576027619
 30
0.0
 10
175.1025381643
 20
255.8993977278
 30
0.0
 10
178.6557339356
 20
258.4414053967
 30
0.0
 10
182.7477033627
 20
260.3755352796
 30
0.0
 10
186.552757503
 20
261.1851511552
 30
0.0
 10
189.7012902488
 20
261.1451707987
 30
0.0
 10
192.8016432638
 20
260.6185352659
 30
0.0
 10
196.4048687478
 20
259.2102528574
 30
0.0
 10
200.0469457342
 20
256.624348147
 30
0.0
 10
202.9703724517
 20
253.5599360938
 30
0.0
 10
206.0624621634
 20
249.3777055791
 30
0.0
 10
209.2537821127
 20
244.1003926257
 30
0.0
 10
212.8015711038
 20
237.8985437325
 30
0.0
 10
215.9521554126
 20
233.0650755851
 30
0.0
 10
218.8545362511
 20
229.8225241234
 30
0.0
 10
221.0921942532
 20
227.9691836204
 30
0.0
 10
223.5001825702
 20
226.6932177496
 30
0.0
 10
226.0974647721
 20
226.1189676919
 30
0.0
 10
228.3000752036
 20
226.1809366448
 30
0.0
 10
229.949754825
 20
226.5650330726
 30
0.0
 10
231.010736596
 20
226.98540507
 30
0.0
 10
231.9373352262
 20
227.5682698048
 30
0.0
 10
232.775243118
 20
228.3565264368
 30
0.0
 10
233.5999741341
 20
229.3705851696
 30
0.0
 10
234.4254329887
 20
230.6122040358
 30
0.0
 10
235.2622654815
 20
232.0418427359
 30
0.0
 10
236.4111643371
 20
234.1333805178
 30
0.0
 10
237.8996719596
 20
236.7448071571
 30
0.0
 10
239.6946841445
 20
239.8107669653
 30
0.0
 10
241.4116917129
 20
242.8650785289
 30
0.0
 10
243.1549181914
 20
245.9666960877
 30
0.0
 10
245.0643740978
 20
249.1344604146
 30
0.0
 10
247.2513068957
 20
252.3512659078
 30
0.0
 10
249.8307798225
 20
255.5865278753
 30
0.0
 10
252.3461389314
 20
258.2067578699
 30
0.0
 10
254.7326408314
 20
260.1119654052
 30
0.0
 10
256.7869558612
 20
261.3748745478
 30
0.0
 10
259.1292255331
 20
262.3245396281
 30
0.0
 10
261.7297127727
 20
262.7552360184
 30
0.0
 10
264.3618720563
 20
262.4904305867
 30
0.0
 10
266.7831339099
 20
261.6806905674
 30
0.0
 10
268.9308579825
 20
260.5465174226
 30
0.0
 10
271.4322408873
 20
258.8027168085
 30
0.0
 10
274.0930515143
 20
256.3348562257
 30
0.0
 10
276.6801881552
 20
253.0962829385
 30
0.0
 10
278.7698984669
 20
249.7943737568
 30
0.0
 10
280.5537027453
 20
246.5491206466
 30
0.0
 10
282.209904754
 20
243.4362964347
 30
0.0
 10
283.8988300409
 20
240.5031321132
 30
0.0
 10
285.6956018242
 20
237.7595353192
 30
0.0
 10
287.6733627676
 20
235.2235829939
 30
0.0
 10
289.8934475719
 20
232.9330990983
 30
0.0
 10
292.3111951957
 20
230.9803434404
 30
0.0
 10
294.457780489
 20
229.7200104376
 30
0.0
 10
296.1383182689
 20
229.1007555716
 30
0.0
 10
297.2498494509
 20
228.8633026164
 30
0.0
 10
298.2983824726
 20
228.8264242661
 30
0.0
 10
299.3476289964
 20
229.0154977508
 30
0.0
 10
300.4554403026
 20
229.4105349544
 30
0.0
 10
302.0591792601
 20
230.2441703551
 30
0.0
 10
303.9846903217
 20
231.7079669742
 30
0.0
 10
306.0223645059
 20
233.9071706343
 30
0.0
 10
307.7991403785
 20
236.4900223456
 30
0.0
 10
309.4685897316
 20
239.3911602389
 30
0.0
 10
311.2238350241
 20
242.5818659449
 30
0.0
 10
313.2731514165
 20
245.9947410221
 30
0.0
 10
315.8977077033
 20
249.4722709349
 30
0.0
 10
318.911786352
 20
251.9976975982
 30
0.0
 10
321.9061102153
 20
253.3550735583
 30
0.0
 10
325.1841685176
 20
254.1193490816
 30
0.0
 10
328.5815415057
 20
254.0350337074
 30
0.0
 10
331.8095222949
 20
253.2172276835
 30
0.0
 10
334.1307911296
 20
252.236894303
 30
0.0
 10
336.2383218769
 20
250.9044750206
 30
0.0
 10
337.9890755738
 20
249.3111234572
 30
0.0
 10
339.3983581739
 20
247.7022861995
 30
0.0
 10
340.5546755407
 20
246.2453912881
 30
0.0
 10
341.5409501812
 20
245.0407229873
 30
0.0
 10
342.3032958247
 20
244.248024166
 30
0.0
 10
342.8711153021
 20
243.7917765377
 30
0.0
 10
343.446179785
 20
243.4239217259
 30
0.0
 10
344.3292615252
 20
243.0243466618
 30
0.0
 10
345.6078437605
 20
242.6350759939
 30
0.0
 10
347.135602968
 20
242.3059807704
 30
0.0
 10
348.8440922082
 20
242.0189343401
 30
0.0
 10
351.20649003
 20
241.6439447707
 30
0.0
 10
354.0587461724
 20
241.2740425894
 30
0.0
 10
357.2400205606
 20
241.1361367465
 30
0.0
 10
359.9985183954
 20
241.4129717404
 30
0.0
 10
362.3630789966
 20
242.2208021472
 30
0.0
 10
364.3430290317
 20
243.7510176936
 30
0.0
 10
366.0898714628
 20
245.888215095
 30
0.0
 10
367.6169994852
 20
248.5717119198
 30
0.0
 10
368.8519994125
 20
251.6033921151
 30
0.0
 10
369.7644348509
 20
254.7974962937
 30
0.0
 10
370.5459328492
 20
259.1452796903
 30
0.0
 10
370.7192704222
 20
262.4504684712
 30
0.0
 10
370.7474305728
 20
264.6555658348
 30
0.0
  0
SPLINE
  5
315
100
AcDbEntity
  8
0
100
AcDbSpline
 62
7
  6
BYLAYER
 70
0
 71
3
 72
170
 73
166
 74
0
 42
0.0000001
 43
0.0000001
 44
0.0000000001
 40
0.0
 40
0.0
 40
0.0
 40
0.0
 40
0.015035076
 40
0.0299078586
 40
0.037276979
 40
0.044606997
 40
0.0518838501
 40
0.0555274926
 40
0.0592464458
 40
0.067119734
 40
0.0755960206
 40
0.0847021355
 40
0.0942518477
 40
0.1042306115
 40
0.1093262623
 40
0.114228545
 40
0.1235600627
 40
0.1280113812
 40
0.1323552198
 40
0.1409021489
 40
0.1494057402
 40
0.1578867868
 40
0.1663562073
 40
0.1746884859
 40
0.182800032
 40
0.1907072512
 40
0.1945344914
 40
0.198200676
 40
0.2048438494
 40
0.2078762088
 40
0.2108269009
 40
0.213782242
 40
0.2166355788
 40
0.2192084088
 40
0.2213706211
 40
0.223092559
 40
0.2249329415
 40
0.2272482694
 40
0.2299947961
 40
0.2330313191
 40
0.2362522039
 40
0.2396730844
 40
0.2434006643
 40
0.2518469825
 40
0.2566157072
 40
0.2617447547
 40
0.2669539975
 40
0.2721278411
 40
0.2824793442
 40
0.2876863287
 40
0.2929308799
 40
0.2982561255
 40
0.3037123744
 40
0.3090059219
 40
0.314021474
 40
0.3234319735
 40
0.3320652713
 40
0.3401635845
 40
0.3480304317
 40
0.3557576232
 40
0.3634122019
 40
0.3709072639
 40
0.3780885938
 40
0.3849346766
 40
0.3914805142
 40
0.3979169628
 40
0.404165234
 40
0.4098380532
 40
0.4124013521
 40
0.4148523032
 40
0.4174016016
 40
0.4200938122
 40
0.4256414799
 40
0.4316212185
 40
0.4348584837
 40
0.4382366993
 40
0.445263703
 40
0.4524493551
 40
0.4598063975
 40
0.4756152719
 40
0.4841321944
 40
0.4929131918
 40
0.5019058453
 40
0.5111876857
 40
0.5160036957
 40
0.5209191953
 40
0.5308768533
 40
0.5359236132
 40
0.5410317483
 40
0.5462540054
 40
0.5514239695
 40
0.5562890771
 40
0.5608915072
 40
0.5652462103
 40
0.5693457258
 40
0.5731732692
 40
0.5768995963
 40
0.5843684935
 40
0.5918351901
 40
0.5990762503
 40
0.6061520577
 40
0.6132070398
 40
0.6204133759
 40
0.6275916439
 40
0.6308019289
 40
0.6335569672
 40
0.6357348861
 40
0.6373072221
 40
0.6386885706
 40
0.6406710191
 40
0.6432582452
 40
0.646276274
 40
0.6527084007
 40
0.6592006249
 40
0.66596078
 40
0.6731222317
 40
0.6806840504
 40
0.6885470751
 40
0.7049315931
 40
0.7135530431
 40
0.7226054166
 40
0.7321108537
 40
0.7370345923
 40
0.742109851
 40
0.7473694015
 40
0.7525777778
 40
0.7576099486
 40
0.7625190867
 40
0.771996773
 40
0.7809044046
 40
0.789219252
 40
0.797055359
 40
0.8045257425
 40
0.8116334177
 40
0.8178270338
 40
0.8203985682
 40
0.8226075338
 40
0.8247023711
 40
0.8270652311
 40
0.8323386704
 40
0.8350323083
 40
0.8375811417
 40
0.840019735
 40
0.8428813248
 40
0.8463004132
 40
0.8502378221
 40
0.8546702849
 40
0.8596543493
 40
0.8647777485
 40
0.8695859278
 40
0.8784544833
 40
0.8825990503
 40
0.8867950063
 40
0.8954386912
 40
0.9042879594
 40
0.9133803349
 40
0.9181015044
 40
0.9228788937
 40
0.932230011
 40
0.9414426169
 40
0.9505865057
 40
0.9595822545
 40
0.9682525444
 40
0.9846002424
 40
1.0
 40
1.0
 40
1.0
 40
1.0
 10
70.1248702286
 20
287.5338858805
 30
0.0
 10
70.2165202805
 20
285.1301230655
 30
0.0
 10
70.4138615258
 20
280.3491961741
 30
0.0
 10
70.5884972037
 20
274.3871674782
 30
0.0
 10
70.6207439363
 20
269.6557226439
 30
0.0
 10
70.5752388923
 20
266.1397488005
 30
0.0
 10
70.4678714924
 20
263.2213874455
 30
0.0
 10
70.3298326443
 20
260.8831429264
 30
0.0
 10
70.1518913769
 20
258.4520493668
 30
0.0
 10
69.9428370807
 20
255.2474508521
 30
0.0
 10
70.0056716537
 20
251.1660931772
 30
0.0
 10
70.730383587
 20
246.8632294043
 30
0.0
 10
72.3499358061
 20
242.5434048078
 30
0.0
 10
74.6493455129
 20
239.2611440565
 30
0.0
 10
77.1046294878
 20
237.1910710935
 30
0.0
 10
79.7606839641
 20
235.587658874
 30
0.0
 10
82.5860353886
 20
234.5378609457
 30
0.0
 10
85.4042833954
 20
233.85289564
 30
0.0
 10
88.134285551
 20
233.349645217
 30
0.0
 10
91.5443466475
 20
232.9853737822
 30
0.0
 10
95.6376368155
 20
232.9936305542
 30
0.0
 10
99.6917440159
 20
233.4707106576
 30
0.0
 10
103.6317030726
 20
234.4324137375
 30
0.0
 10
107.3714224031
 20
235.8321069749
 30
0.0
 10
110.895904858
 20
237.4989890453
 30
0.0
 10
113.6902072753
 20
239.0083992291
 30
0.0
 10
115.8360417079
 20
240.2197712757
 30
0.0
 10
117.8018290172
 20
241.337032152
 30
0.0
 10
119.6976658464
 20
242.32816803
 30
0.0
 10
121.5864734728
 20
243.0524706479
 30
0.0
 10
122.970319742
 20
243.4246496286
 30
0.0
 10
124.3597001912
 20
243.6311284644
 30
0.0
 10
125.7038992013
 20
243.6682029106
 30
0.0
 10
126.9149654887
 20
243.5326441324
 30
0.0
 10
127.9146285242
 20
243.2489697621
 30
0.0
 10
128.7295453837
 20
242.8108173484
 30
0.0
 10
129.4129345191
 20
242.1517189831
 30
0.0
 10
130.0530060853
 20
241.2462210251
 30
0.0
 10
130.6335150823
 20
240.0832625757
 30
0.0
 10
131.1236420607
 20
238.7258058277
 30
0.0
 10
131.5003225877
 20
237.2216052646
 30
0.0
 10
131.7769012523
 20
235.584763193
 30
0.0
 10
132.1098914536
 20
233.113200644
 30
0.0
 10
132.5332728586
 20
230.4271253367
 30
0.0
 10
133.4438007409
 20
227.6272119883
 30
0.0
 10
134.544324201
 20
225.4620835672
 30
0.0
 10
136.0348897133
 20
223.4637566878
 30
0.0
 10
138.3864890221
 20
221.1131112893
 30
0.0
 10
141.1795544508
 20
219.2432966457
 30
0.0
 10
144.2584781403
 20
217.958564048
 30
0.0
 10
146.7138133929
 20
217.3299152592
 30
0.0
 10
149.2824764196
 20
217.1116416084
 30
0.0
 10
151.8577165422
 20
217.4102054773
 30
0.0
 10
154.2584227864
 20
218.2387271125
 30
0.0
 10
157.0237435182
 20
219.7832722792
 30
0.0
 10
159.8458549415
 20
222.2037397245
 30
0.0
 10
162.6376050192
 20
225.3196572344
 30
0.0
 10
165.1276646046
 20
228.3694052286
 30
0.0
 10
167.3795502101
 20
231.4202716094
 30
0.0
 10
169.4639346031
 20
234.5020431703
 30
0.0
 10
171.4092508328
 20
237.6031114562
 30
0.0
 10
173.2377717977
 20
240.6724573724
 30
0.0
 10
175.0603430637
 20
243.5949889135
 30
0.0
 10
176.9734558112
 20
246.2777765045
 30
0.0
 10
179.0769937751
 20
248.6636464083
 30
0.0
 10
181.436209966
 20
250.6586319788
 30
0.0
 10
183.9716356082
 20
252.1697163226
 30
0.0
 10
186.182137131
 20
252.9417388632
 30
0.0
 10
187.8828833162
 20
253.1671629271
 30
0.0
 10
189.0979423224
 20
253.1362612977
 30
0.0
 10
190.3119257882
 20
252.907297357
 30
0.0
 10
191.9536239215
 20
252.3598625205
 30
0.0
 10
193.9520821694
 20
251.2203144518
 30
0.0
 10
195.6992425259
 20
249.609494004
 30
0.0
 10
197.0219550215
 20
248.0884249414
 30
0.0
 10
198.3536955711
 20
246.3575708601
 30
0.0
 10
199.925284383
 20
244.0203790595
 30
0.0
 10
201.7276909118
 20
241.0769940298
 30
0.0
 10
204.1700601842
 20
236.8802153429
 30
0.0
 10
206.7278473739
 20
232.5003802948
 30
0.0
 10
209.7384121835
 20
228.1369803124
 30
0.0
 10
212.4386175428
 20
224.9004150027
 30
0.0
 10
215.6478980145
 20
221.969172269
 30
0.0
 10
218.8298236076
 20
220.0277556905
 30
0.0
 10
221.6787910671
 20
218.9382294155
 30
0.0
 10
224.7502993402
 20
218.2070988468
 30
0.0
 10
227.9771568354
 20
218.0804262377
 30
0.0
 10
231.1637511962
 20
218.5805161726
 30
0.0
 10
233.5232718126
 20
219.3114094618
 30
0.0
 10
235.7518423587
 20
220.4304326758
 30
0.0
 10
237.6977133624
 20
221.927494245
 30
0.0
 10
239.30287079
 20
223.6431102308
 30
0.0
 10
240.6135481484
 20
225.4285915559
 30
0.0
 10
241.7145416861
 20
227.2052823299
 30
0.0
 10
242.6764006488
 20
228.9189304772
 30
0.0
 10
243.5771862704
 20
230.5513517948
 30
0.0
 10
244.7695293684
 20
232.6383772167
 30
0.0
 10
246.2767671078
 20
235.2158293155
 30
0.0
 10
248.0288825475
 20
238.301235566
 30
0.0
 10
249.7276292924
 20
241.3444802622
 30
0.0
 10
251.4698248541
 20
244.2874556132
 30
0.0
 10
253.3584880411
 20
247.1345200641
 30
0.0
 10
255.4654004609
 20
249.8441644913
 30
0.0
 10
257.3782024015
 20
251.9209270302
 30
0.0
 10
258.9830304154
 20
253.2840817851
 30
0.0
 10
260.0666722329
 20
254.0152500188
 30
0.0
 10
261.0115267071
 20
254.4603070533
 30
0.0
 10
261.8159830381
 20
254.667658576
 30
0.0
 10
262.6141928157
 20
254.6184271282
 30
0.0
 10
263.5279966377
 20
254.3286046966
 30
0.0
 10
264.6163136469
 20
253.7824881354
 30
0.0
 10
266.2155289489
 20
252.7024200092
 30
0.0
 10
268.1135015868
 20
250.9774854494
 30
0.0
 10
270.0998730971
 20
248.5222909262
 30
0.0
 10
271.855282782
 20
245.762867555
 30
0.0
 10
273.5125329234
 20
242.7511333832
 30
0.0
 10
275.2102899324
 20
239.5606319954
 30
0.0
 10
277.7464192892
 20
235.1492261773
 30
0.0
 10
280.7823507151
 20
230.8186942324
 30
0.0
 10
284.5943800239
 20
226.907442803
 30
0.0
 10
288.0001600038
 20
224.1852189879
 30
0.0
 10
291.2940834769
 20
222.3208822144
 30
0.0
 10
294.2491470836
 20
221.2905748038
 30
0.0
 10
296.6589769526
 20
220.8360888912
 30
0.0
 10
299.1620459449
 20
220.8237504196
 30
0.0
 10
301.6100487812
 20
221.3017270677
 30
0.0
 10
303.8887922461
 20
222.1537665139
 30
0.0
 10
306.6297927641
 20
223.6316732065
 30
0.0
 10
309.5943737457
 20
225.9356854195
 30
0.0
 10
312.4651524314
 20
229.1218232753
 30
0.0
 10
314.7165012713
 20
232.4491199151
 30
0.0
 10
316.5861137643
 20
235.7340888379
 30
0.0
 10
318.3206018925
 20
238.8735158484
 30
0.0
 10
320.0503464267
 20
241.7110648331
 30
0.0
 10
321.6197386987
 20
243.7295044381
 30
0.0
 10
322.9430024498
 20
244.8917294255
 30
0.0
 10
323.8790384858
 20
245.4819193856
 30
0.0
 10
324.8884144289
 20
245.8499982562
 30
0.0
 10
326.433148459
 20
246.092983466
 30
0.0
 10
328.1111902595
 20
245.9426007934
 30
0.0
 10
329.7181493167
 20
245.431681706
 30
0.0
 10
330.8257282773
 20
244.8842959384
 30
0.0
 10
331.8336478369
 20
244.1241571032
 30
0.0
 10
332.7993552257
 20
243.1125127459
 30
0.0
 10
333.836037355
 20
241.8483953044
 30
0.0
 10
335.0075186395
 20
240.3700395145
 30
0.0
 10
336.4230209871
 20
238.7669460232
 30
0.0
 10
338.1793932671
 20
237.2233834751
 30
0.0
 10
340.2601782045
 20
236.024461825
 30
0.0
 10
343.0820852153
 20
234.9574299912
 30
0.0
 10
345.887948969
 20
234.3918834952
 30
0.0
 10
348.6050025287
 20
233.9543029222
 30
0.0
 10
351.2927195014
 20
233.5522702021
 30
0.0
 10
354.7461638204
 20
233.1797831758
 30
0.0
 10
359.0111535906
 20
233.1694976179
 30
0.0
 10
362.6141434447
 20
233.8030495589
 30
0.0
 10
365.3994646017
 20
234.87443967
 30
0.0
 10
368.0303514403
 20
236.3708120794
 30
0.0
 10
370.8459006584
 20
238.8898590222
 30
0.0
 10
373.4605653681
 20
242.497500866
 30
0.0
 10
375.4466426674
 20
246.4128341633
 30
0.0
 10
376.9036535198
 20
250.4568754641
 30
0.0
 10
378.1939464631
 20
255.7532278134
 30
0.0
 10
378.8250855655
 20
262.2180784433
 30
0.0
 10
378.7571840429
 20
267.298587385
 30
0.0
 10
378.7059627762
 20
269.7619108514
 30
0.0
  0
SPLINE
  5
316
100
AcDbEntity
  8
0
100
AcDbSpline
 62
7
  6
BYLAYER
 70
0
 71
3
 72
11
 73
7
 74
0
 42
0.0000001
 43
0.0000001
 44
0.0000000001
 40
0.0
 40
0.0
 40
0.0
 40
0.0
 40
0.2432989168
 40
0.4945487586
 40
0.7470350216
 40
1.0
 40
1.0
 40
1.0
 40
1.0
 10
370.7474305728
 20
264.6555658348
 30
0.0
 10
370.7711256242
 20
266.5110209371
 30
0.0
 10
370.6922333395
 20
270.2830688854
 30
0.0
 10
370.577402341
 20
275.9790539102
 30
0.0
 10
370.5120058674
 20
281.7501122095
 30
0.0
 10
370.4870684974
 20
285.6050184858
 30
0.0
 10
370.4787920465
 20
287.5343288111
 30
0.0
  0
SPLINE
  5
317
100
AcDbEntity
  8
0
100
AcDbSpline
 62
7
  6
BYLAYER
 70
0
 71
3
 72
13
 73
9
 74
0
 42
0.0000001
 43
0.0000001
 44
0.0000000001
 40
0.0
 40
0.0
 40
0.0
 40
0.0
 40
0.1242477962
 40
0.2491521702
 40
0.3742594617
 40
0.4994163539
 40
0.7496764955
 40
1.0
 40
1.0
 40
1.0
 40
1.0
 10
374.332617235
 20
316.1991333182
 30
0.0
 10
374.5970277312
 20
316.1991333182
 30
0.0
 10
375.1296722184
 20
316.0498762861
 30
0.0
 10
375.7735231466
 20
315.5684878803
 30
0.0
 10
376.3171401417
 20
314.9804864699
 30
0.0
 10
376.949159732
 20
314.1214511255
 30
0.0
 10
377.6243290657
 20
312.970614909
 30
0.0
 10
378.0982684879
 20
312.016220086
 30
0.0
 10
378.3247957836
 20
311.5340724479
 30
0.0
  0
SPLINE
  5
318
100
AcDbEntity
  8
0
100
AcDbSpline
 62
7
  6
BYLAYER
 70
0
 71
3
 72
13
 73
9
 74
0
 42
0.0000001
 43
0.0000001
 44
0.0000000001
 40
0.0
 40
0.0
 40
0.0
 40
0.0
 40
0.250323496
 40
0.5005836243
 40
0.6257405
 40
0.7508477465
 40
0.8757518871
 40
1.0
 40
1.0
 40
1.0
 40
1.0
 10
370.3404386765
 20
311.5340724479
 30
0.0
 10
370.5669659633
 20
312.0162200682
 30
0.0
 10
371.0409053572
 20
312.9706148459
 30
0.0
 10
371.7160746124
 20
314.121451018
 30
0.0
 10
372.3480941788
 20
314.9804861696
 30
0.0
 10
372.8917106775
 20
315.5684871871
 30
0.0
 10
373.5355614043
 20
316.0498758594
 30
0.0
 10
374.0682060656
 20
316.1991333182
 30
0.0
 10
374.332617235
 20
316.1991333182
 30
0.0
  0
ENDSEC
  0
SECTION
  2
OBJECTS
  0
DICTIONARY
  5
C
100
AcDbDictionary
280
0
281
1
  3
ACAD_GROUP
350
D
  3
ACAD_MLINESTYLE
350
17
  3
ACAD_LAYOUT
350
1A
  3
ACAD_PLOTSETTINGS
350
19
  3
ACAD_PLOTSTYLENAME
350
E
  0
DICTIONARY
  5
D
102
{ACAD_REACTORS
330
C
102
}
100
AcDbDictionary
280
0
281
1
  0
ACDBDICTIONARYWDFLT
  5
E
102
{ACAD_REACTORS
330
C
102
}
100
AcDbDictionary
281
1
  3
Normal
350
F
100
AcDbDictionaryWithDefault
340
F
  0
DICTIONARY
  5
17
102
{ACAD_REACTORS
330
C
102
}
100
AcDbDictionary
280
0
281
1
  3
Standard
350
18
  0
DICTIONARY
  5
19
102
{ACAD_REACTORS
330
C
102
}
100
AcDbDictionary
281
1
  0
DICTIONARY
  5
1A
102
{ACAD_REACTORS
330
C
102
}
100
AcDbDictionary
281
1
  3
Model
350
319
  3
Layout1
350
31A
  0
ACDBPLACEHOLDER
  5
F
102
{ACAD_REACTORS
330
E
102
}
  0
MLINESTYLE
  5
18
102
{ACAD_REACTORS
330
17
102
}
100
AcDbMlineStyle
  2
STANDARD
 70
0
  3

 62
256
 51
90.0
 52
90.0
 71
2
 49
0.5
 62
256
  6
BYLAYER
 49
-0.5
 62
256
  6
BYLAYER
  0
LAYOUT
  5
319
102
{ACAD_REACTORS
330
1A
102
}
100
AcDbPlotSettings
  1

  2
none_device
  4

  6

 40
0.0
 41
0.0
 42
0.0
 43
0.0
 44
210.0
 45
297.0
 46
0.0
 47
0.0
 48
0.0
 49
0.0
140
0.0
141
0.0
142
1.0
143
1.0
 70
1024
 72
1
 73
0
 74
0
  7

 75
0
147
1.0
148
0.0
149
0.0
100
AcDbLayout
  1
Model
 70
0
 71
0
 10
0.0
 20
0.0
 11
210.0
 21
297.0
 12
0.0
 22
0.0
 32
0.0
 14
0.0
 24
0.0
 34
0.0
 15
0.0
 25
0.0
 35
0.0
146
0.0
 13
0.0
 23
0.0
 33
0.0
 16
1.0
 26
0.0
 36
0.0
 17
0.0
 27
1.0
 37
0.0
 76
0
330
211
345
0
346
0
  0
LAYOUT
  5
31A
102
{ACAD_REACTORS
330
1A
102
}
100
AcDbPlotSettings
  1

  2
none_device
  4

  6

 40
0.0
 41
0.0
 42
0.0
 43
0.0
 44
210.0
 45
297.0
 46
0.0
 47
0.0
 48
0.0
 49
0.0
140
0.0
141
0.0
142
1.0
143
1.0
 70
0
 72
1
 73
0
 74
0
  7

 75
0
147
1.0
148
0.0
149
0.0
100
AcDbLayout
  1
Layout1
 70
0
 71
1
 10
0.0
 20
0.0
 11
210.0
 21
297.0
 12
0.0
 22
0.0
 32
0.0
 14
0.0
 24
0.0
 34
0.0
 15
0.0
 25
0.0
 35
0.0
146
0.0
 13
0.0
 23
0.0
 33
0.0
 16
1.0
 26
0.0
 36
0.0
 17
0.0
 27
1.0
 37
0.0
 76
0
330
212
345
0
346
0
  0
ENDSEC
  0
EOF
